  0
SECTION
  2
HEADER
  9
$ACADVER
  1
AC1012
  9
$DWGCODEPAGE
  3
dos932
  9
$INSBASE
 10
0.0
 20
0.0
 30
0.0
  9
$EXTMIN
 10
0.0
 20
0.0
 30
0.0
  9
$EXTMAX
 10
8400.0
 20
5940.0
 30
0.0
  9
$LIMMIN
 10
0.0
 20
0.0
  9
$LIMMAX
 10
8400.0
 20
5940.0
  9
$ORTHOMODE
 70
     0
  9
$REGENMODE
 70
     1
  9
$FILLMODE
 70
     1
  9
$QTEXTMODE
 70
     0
  9
$MIRRTEXT
 70
     0
  9
$DRAGMODE
 70
     2
  9
$LTSCALE
 40
10.0
  9
$OSMODE
 70
    37
  9
$ATTMODE
 70
     1
  9
$TEXTSIZE
 40
50.0
  9
$TRACEWID
 40
1.0
  9
$TEXTSTYLE
  7
ADD
  9
$CLAYER
  8
SUNPO
  9
$CELTYPE
  6
BYLAYER
  9
$CECOLOR
 62
   256
  9
$CELTSCALE
 40
1.0
  9
$DELOBJ
 70
     1
  9
$DISPSILH
 70
     0
  9
$DIMSCALE
 40
20.0
  9
$DIMASZ
 40
2.5
  9
$DIMEXO
 40
1.0
  9
$DIMDLI
 40
7.0
  9
$DIMRND
 40
0.0
  9
$DIMDLE
 40
0.0
  9
$DIMEXE
 40
0.5
  9
$DIMTP
 40
0.0
  9
$DIMTM
 40
0.0
  9
$DIMTXT
 40
2.5
  9
$DIMCEN
 40
2.5
  9
$DIMTSZ
 40
0.0
  9
$DIMTOL
 70
     0
  9
$DIMLIM
 70
     0
  9
$DIMTIH
 70
     0
  9
$DIMTOH
 70
     0
  9
$DIMSE1
 70
     0
  9
$DIMSE2
 70
     0
  9
$DIMTAD
 70
     1
  9
$DIMZIN
 70
     8
  9
$DIMBLK
  1

  9
$DIMASO
 70
     1
  9
$DIMSHO
 70
     1
  9
$DIMPOST
  1

  9
$DIMAPOST
  1

  9
$DIMALT
 70
     0
  9
$DIMALTD
 70
     3
  9
$DIMALTF
 40
0.03937007874016
  9
$DIMLFAC
 40
1.0
  9
$DIMTOFL
 70
     1
  9
$DIMTVP
 40
0.7
  9
$DIMTIX
 70
     0
  9
$DIMSOXD
 70
     0
  9
$DIMSAH
 70
     0
  9
$DIMBLK1
  1

  9
$DIMBLK2
  1

  9
$DIMSTYLE
  2
ADD
  9
$DIMCLRD
 70
   144
  9
$DIMCLRE
 70
   144
  9
$DIMCLRT
 70
     7
  9
$DIMTFAC
 40
1.0
  9
$DIMGAP
 40
0.625
  9
$DIMJUST
 70
     0
  9
$DIMSD1
 70
     0
  9
$DIMSD2
 70
     0
  9
$DIMTOLJ
 70
     2
  9
$DIMTZIN
 70
     8
  9
$DIMALTZ
 70
     0
  9
$DIMALTTZ
 70
     0
  9
$DIMFIT
 70
     5
  9
$DIMUPT
 70
     0
  9
$DIMUNIT
 70
     2
  9
$DIMDEC
 70
     1
  9
$DIMTDEC
 70
     1
  9
$DIMALTU
 70
     2
  9
$DIMALTTD
 70
     3
  9
$DIMTXSTY
  7
ADD
  9
$DIMAUNIT
 70
     0
  9
$LUNITS
 70
     2
  9
$LUPREC
 70
     4
  9
$SKETCHINC
 40
1.0
  9
$FILLETRAD
 40
0.0
  9
$AUNITS
 70
     0
  9
$AUPREC
 70
     1
  9
$MENU
  1
.
  9
$ELEVATION
 40
0.0
  9
$PELEVATION
 40
0.0
  9
$THICKNESS
 40
0.0
  9
$LIMCHECK
 70
     0
  9
$BLIPMODE
 70
     0
  9
$CHAMFERA
 40
20.0
  9
$CHAMFERB
 40
20.0
  9
$CHAMFERC
 40
20.0
  9
$CHAMFERD
 40
0.0
  9
$SKPOLY
 70
     0
  9
$TDCREATE
 40
2451801.605911169
  9
$TDUPDATE
 40
2451865.556242847
  9
$TDINDWG
 40
0.1652678241
  9
$TDUSRTIMER
 40
0.1652678241
  9
$USRTIMER
 70
     1
  9
$ANGBASE
 50
0.0
  9
$ANGDIR
 70
     0
  9
$PDMODE
 70
     0
  9
$PDSIZE
 40
0.0
  9
$PLINEWID
 40
0.0
  9
$COORDS
 70
     2
  9
$SPLFRAME
 70
     0
  9
$SPLINETYPE
 70
     6
  9
$SPLINESEGS
 70
     8
  9
$ATTDIA
 70
     0
  9
$ATTREQ
 70
     1
  9
$HANDLING
 70
 10241
  9
$HANDSEED
  5
CE4
  9
$SURFTAB1
 70
     6
  9
$SURFTAB2
 70
     6
  9
$SURFTYPE
 70
     6
  9
$SURFU
 70
     6
  9
$SURFV
 70
     6
  9
$UCSNAME
  2

  9
$UCSORG
 10
0.0
 20
0.0
 30
0.0
  9
$UCSXDIR
 10
1.0
 20
0.0
 30
0.0
  9
$UCSYDIR
 10
0.0
 20
1.0
 30
0.0
  9
$PUCSNAME
  2

  9
$PUCSORG
 10
0.0
 20
0.0
 30
0.0
  9
$PUCSXDIR
 10
1.0
 20
0.0
 30
0.0
  9
$PUCSYDIR
 10
0.0
 20
1.0
 30
0.0
  9
$USERI1
 70
     0
  9
$USERI2
 70
     0
  9
$USERI3
 70
     0
  9
$USERI4
 70
     0
  9
$USERI5
 70
     0
  9
$USERR1
 40
841.0
  9
$USERR2
 40
594.0
  9
$USERR3
 40
1.0
  9
$USERR4
 40
0.0
  9
$USERR5
 40
0.0
  9
$WORLDVIEW
 70
     1
  9
$SHADEDGE
 70
     3
  9
$SHADEDIF
 70
    70
  9
$TILEMODE
 70
     1
  9
$MAXACTVP
 70
    48
  9
$PINSBASE
 10
0.0
 20
0.0
 30
0.0
  9
$PLIMCHECK
 70
     0
  9
$PEXTMIN
 10
-5.662975978526674
 20
-6.331907780761866
 30
-0.0015258207003583
  9
$PEXTMAX
 10
834.4213426047982
 20
560.9663709967471
 30
0.0000000349246037
  9
$PLIMMIN
 10
-7.500000000000001
 20
-20.0
  9
$PLIMMAX
 10
833.5000000000002
 20
574.0000000000001
  9
$UNITMODE
 70
     0
  9
$VISRETAIN
 70
     1
  9
$PLINEGEN
 70
     0
  9
$PSLTSCALE
 70
     1
  9
$TREEDEPTH
 70
  3020
  9
$PICKSTYLE
 70
     1
  9
$CMLSTYLE
  2
STANDARD
  9
$CMLJUST
 70
     0
  9
$CMLSCALE
 40
20.0
  9
$SAVEIMAGES
 70
     1
  0
ENDSEC
  0
SECTION
  2
CLASSES
  0
CLASS
  1
ACDBDICTIONARYWDFLT
  2
AcDbDictionaryWithDefault
  3
AutoCAD 2000
 90
    32768
280
     0
281
     0
  0
CLASS
  1
ACDBPLACEHOLDER
  2
AcDbPlaceHolder
  3
AutoCAD 2000
 90
    32768
280
     0
281
     0
  0
CLASS
  1
LAYOUT
  2
AcDbLayout
  3
AutoCAD 2000
 90
    32768
280
     0
281
     0
  0
CLASS
  1
RTEXT
  2
RText
  3
RText|AutoCAD Express Tool|expresstools@autodesk.com
 90
    32768
280
     0
281
     1
  0
CLASS
  1
DICTIONARYVAR
  2
AcDbDictionaryVar
  3
AutoCAD 2000
 90
    32768
280
     0
281
     0
  0
CLASS
  1
LONG_TRANSACTION
  2
AcDbLongTransaction
  3
AutoCAD 2000
 90
    32768
280
     0
281
     0
  0
CLASS
  1
LWPOLYLINE
  2
AcDbPolyline
  3
AutoCAD 2000
 90
    32768
280
     0
281
     1
  0
CLASS
  1
HATCH
  2
AcDbHatch
  3
AutoCAD 2000
 90
    32768
280
     0
281
     1
  0
CLASS
  1
XRECORD
  2
AcDbXrecord
  3
AutoCAD 2000
 90
    32768
280
     0
281
     0
  0
CLASS
  1
LONG_TRANSACTION
  2
AcDbLongTransaction
  3
AutoCAD 2000
 90
    32768
280
     0
281
     0
  0
CLASS
  1
LWPOLYLINE
  2
AcDbPolyline
  3
AutoCAD 2000
 90
    32768
280
     0
281
     1
  0
CLASS
  1
HATCH
  2
AcDbHatch
  3
AutoCAD 2000
 90
    32768
280
     0
281
     1
  0
CLASS
  1
XRECORD
  2
AcDbXrecord
  3
AutoCAD 2000
 90
    32768
280
     0
281
     0
  0
ENDSEC
  0
SECTION
  2
TABLES
  0
TABLE
  2
VPORT
  5
8
330
0
100
AcDbSymbolTable
 70
     2
  0
VPORT
  5
CC0
330
8
100
AcDbSymbolTableRecord
100
AcDbViewportTableRecord
  2
*ACTIVE
 70
     0
 10
0.0
 20
0.0
 11
1.0
 21
1.0
 12
4466.015399652863
 22
3751.161833255727
 13
0.0
 23
0.0
 14
10.0
 24
10.0
 15
10.0
 25
10.0
 16
0.0
 26
0.0
 36
1.0
 17
0.0
 27
0.0
 37
0.0
 40
7576.510450745463
 41
1.496749024707412
 42
50.0
 43
0.0
 44
0.0
 50
0.0
 51
0.0
 71
     0
 72
   100
 73
     1
 74
     1
 75
     0
 76
     0
 77
     0
 78
     0
  0
ENDTAB
  0
TABLE
  2
LTYPE
  5
5
330
0
100
AcDbSymbolTable
 70
     5
  0
LTYPE
  5
14
330
5
100
AcDbSymbolTableRecord
100
AcDbLinetypeTableRecord
  2
BYBLOCK
 70
     0
  3

 72
    65
 73
     0
 40
0.0
  0
LTYPE
  5
15
330
5
100
AcDbSymbolTableRecord
100
AcDbLinetypeTableRecord
  2
BYLAYER
 70
     0
  3

 72
    65
 73
     0
 40
0.0
  0
LTYPE
  5
16
330
5
100
AcDbSymbolTableRecord
100
AcDbLinetypeTableRecord
  2
CONTINUOUS
 70
     0
  3
Solid line
 72
    65
 73
     0
 40
0.0
  0
LTYPE
  5
555
330
5
100
AcDbSymbolTableRecord
100
AcDbLinetypeTableRecord
  2
CENTER
 70
     0
  3
Center ____ _ ____ _ ____ _ ____ _ ____ _ ____
 72
    65
 73
     4
 40
50.8
 49
31.75
 74
     0
 49
-6.349999999999999
 74
     0
 49
6.349999999999999
 74
     0
 49
-6.349999999999999
 74
     0
  0
LTYPE
  5
556
330
5
100
AcDbSymbolTableRecord
100
AcDbLinetypeTableRecord
  2
HIDDEN
 70
     0
  3
Hidden __ __ __ __ __ __ __ __ __ __ __ __ __ _
 72
    65
 73
     2
 40
9.524999999999998
 49
6.349999999999999
 74
     0
 49
-3.174999999999999
 74
     0
  0
LTYPE
  5
557
330
5
100
AcDbSymbolTableRecord
100
AcDbLinetypeTableRecord
  2
HIDDEN2
 70
     0
  3
Hidden (.5x) _ _ _ _ _ _ _ _ _ _ _ _ _ _ _ _ _
 72
    65
 73
     2
 40
4.762499999999999
 49
3.174999999999999
 74
     0
 49
-1.587499999999999
 74
     0
  0
LTYPE
  5
558
330
5
100
AcDbSymbolTableRecord
100
AcDbLinetypeTableRecord
  2
PHANTOM
 70
     0
  3
Phantom ______  __  __  ______  __  __  ______
 72
    65
 73
     6
 40
63.5
 49
31.75
 74
     0
 49
-6.349999999999999
 74
     0
 49
6.349999999999999
 74
     0
 49
-6.349999999999999
 74
     0
 49
6.349999999999999
 74
     0
 49
-6.349999999999999
 74
     0
  0
ENDTAB
  0
TABLE
  2
LAYER
  5
2
330
0
100
AcDbSymbolTable
 70
    22
  0
LAYER
  5
10
330
2
100
AcDbSymbolTableRecord
100
AcDbLayerTableRecord
  2
0
 70
     0
 62
     7
  6
CONTINUOUS
  0
LAYER
  5
75
330
2
100
AcDbSymbolTableRecord
100
AcDbLayerTableRecord
  2
VIEWPORT
 70
     0
 62
     1
  6
CONTINUOUS
  0
LAYER
  5
504
330
2
100
AcDbSymbolTableRecord
100
AcDbLayerTableRecord
  2
DEFPOINTS
 70
     0
 62
     7
  6
CONTINUOUS
  0
LAYER
  5
505
330
2
100
AcDbSymbolTableRecord
100
AcDbLayerTableRecord
  2
1C1
 70
     0
 62
   254
  6
CONTINUOUS
  0
LAYER
  5
506
330
2
100
AcDbSymbolTableRecord
100
AcDbLayerTableRecord
  2
1C2
 70
     0
 62
   254
  6
CONTINUOUS
  0
LAYER
  5
507
330
2
100
AcDbSymbolTableRecord
100
AcDbLayerTableRecord
  2
2C1
 70
     0
 62
   144
  6
CONTINUOUS
  0
LAYER
  5
508
330
2
100
AcDbSymbolTableRecord
100
AcDbLayerTableRecord
  2
2C2
 70
     0
 62
   144
  6
CONTINUOUS
  0
LAYER
  5
509
330
2
100
AcDbSymbolTableRecord
100
AcDbLayerTableRecord
  2
2H1
 70
     0
 62
   144
  6
HIDDEN
  0
LAYER
  5
50A
330
2
100
AcDbSymbolTableRecord
100
AcDbLayerTableRecord
  2
2H2
 70
     0
 62
   144
  6
HIDDEN2
  0
LAYER
  5
50B
330
2
100
AcDbSymbolTableRecord
100
AcDbLayerTableRecord
  2
2P1
 70
     0
 62
   144
  6
PHANTOM
  0
LAYER
  5
50C
330
2
100
AcDbSymbolTableRecord
100
AcDbLayerTableRecord
  2
3C1
 70
     0
 62
     7
  6
CONTINUOUS
  0
LAYER
  5
50D
330
2
100
AcDbSymbolTableRecord
100
AcDbLayerTableRecord
  2
3C2
 70
     0
 62
     7
  6
CONTINUOUS
  0
LAYER
  5
50E
330
2
100
AcDbSymbolTableRecord
100
AcDbLayerTableRecord
  2
3C3
 70
     0
 62
     7
  6
CONTINUOUS
  0
LAYER
  5
50F
330
2
100
AcDbSymbolTableRecord
100
AcDbLayerTableRecord
  2
4H1
 70
     0
 62
     6
  6
HIDDEN
  0
LAYER
  5
510
330
2
100
AcDbSymbolTableRecord
100
AcDbLayerTableRecord
  2
4H2
 70
     0
 62
     6
  6
HIDDEN2
  0
LAYER
  5
511
330
2
100
AcDbSymbolTableRecord
100
AcDbLayerTableRecord
  2
5C1
 70
     0
 62
    55
  6
CONTINUOUS
  0
LAYER
  5
512
330
2
100
AcDbSymbolTableRecord
100
AcDbLayerTableRecord
  2
5C2
 70
     0
 62
    55
  6
CONTINUOUS
  0
LAYER
  5
513
330
2
100
AcDbSymbolTableRecord
100
AcDbLayerTableRecord
  2
8C1
 70
     0
 62
    92
  6
CONTINUOUS
  0
LAYER
  5
514
330
2
100
AcDbSymbolTableRecord
100
AcDbLayerTableRecord
  2
HOJO
 70
     0
 62
     5
  6
CONTINUOUS
  0
LAYER
  5
515
330
2
100
AcDbSymbolTableRecord
100
AcDbLayerTableRecord
  2
KIJUN
 70
     0
 62
     1
  6
CENTER
  0
LAYER
  5
516
330
2
100
AcDbSymbolTableRecord
100
AcDbLayerTableRecord
  2
MOJI
 70
     0
 62
     7
  6
CONTINUOUS
  0
LAYER
  5
517
330
2
100
AcDbSymbolTableRecord
100
AcDbLayerTableRecord
  2
SUNPO
 70
     0
 62
   144
  6
CONTINUOUS
  0
ENDTAB
  0
TABLE
  2
STYLE
  5
3
330
0
100
AcDbSymbolTable
 70
     7
  0
STYLE
  5
11
330
3
100
AcDbSymbolTableRecord
100
AcDbTextStyleTableRecord
  2
STANDARD
 70
     0
 40
0.0
 41
1.0
 50
0.0
 71
     0
 42
2.5
  3
txt
  4

  0
STYLE
  5
2C
330
3
100
AcDbSymbolTableRecord
100
AcDbTextStyleTableRecord
  2

 70
     1
 40
0.0
 41
1.0
 50
0.0
 71
     0
 42
2.5
  3
ltypeshp.shx
  4

  0
STYLE
  5
18E
330
3
100
AcDbSymbolTableRecord
100
AcDbTextStyleTableRecord
  2
ADD
 70
     0
 40
0.0
 41
1.0
 50
0.0
 71
     0
 42
50.0
  3
romans.shx
  4
bigfont.shx
  0
STYLE
  5
191
330
3
100
AcDbSymbolTableRecord
100
AcDbTextStyleTableRecord
  2
MSG
 70
     0
 40
0.0
 41
1.0
 50
0.0
 71
     0
 42
2.5
  3
MS Gothic.ttf
  4

1001
ACAD
1000
MS Gothic
1071
    32817
  0
STYLE
  5
5C8
330
3
100
AcDbSymbolTableRecord
100
AcDbTextStyleTableRecord
  2
STANDARD15
 70
     0
 40
0.0
 41
1.0
 50
15.0
 71
     0
 42
2.5
  3
ROMANS
  4
bigfont
  0
STYLE
  5
5C9
330
3
100
AcDbSymbolTableRecord
100
AcDbTextStyleTableRecord
  2
ROMANS15
 70
     0
 40
0.0
 41
1.0
 50
15.0
 71
     0
 42
2.5
  3
romans
  4

  0
STYLE
  5
5CA
330
3
100
AcDbSymbolTableRecord
100
AcDbTextStyleTableRecord
  2
STANDARD2
 70
     0
 40
0.0
 41
1.0
 50
0.0
 71
     0
 42
2.5
  3
romans.shx
  4
bigfont.shx
  0
ENDTAB
  0
TABLE
  2
VIEW
  5
6
330
0
100
AcDbSymbolTable
 70
     1
  0
VIEW
  5
54D
330
6
100
AcDbSymbolTableRecord
100
AcDbViewTableRecord
  2
ALL
 70
     0
 40
594.0
 10
420.5
 20
297.0
 41
865.125
 11
0.0
 21
0.0
 31
1.0
 12
0.0
 22
0.0
 32
0.0
 42
50.0
 43
0.0
 44
0.0
 50
0.0
 71
     0
  0
ENDTAB
  0
TABLE
  2
UCS
  5
7
330
0
100
AcDbSymbolTable
 70
     0
  0
ENDTAB
  0
TABLE
  2
APPID
  5
9
330
0
100
AcDbSymbolTable
 70
     4
  0
APPID
  5
12
330
9
100
AcDbSymbolTableRecord
100
AcDbRegAppTableRecord
  2
ACAD
 70
     0
  0
APPID
  5
5CB
330
9
100
AcDbSymbolTableRecord
100
AcDbRegAppTableRecord
  2
ARAIGUMI_YOHEKI
 70
     0
  0
APPID
  5
5CC
330
9
100
AcDbSymbolTableRecord
100
AcDbRegAppTableRecord
  2
CONTENTTABDATA
 70
     0
  0
APPID
  5
5CD
330
9
100
AcDbSymbolTableRecord
100
AcDbRegAppTableRecord
  2
CONTENTCURRENTTAB
 70
     0
  0
ENDTAB
  0
TABLE
  2
DIMSTYLE
  5
A
330
0
100
AcDbSymbolTable
 70
    10
  0
DIMSTYLE
105
27
330
A
100
AcDbSymbolTableRecord
100
AcDbDimStyleTableRecord
  2
ISO-25
 70
     0
  3

  4

  5

  6

  7

 40
1.0
 41
2.5
 42
0.625
 43
3.75
 44
1.25
 45
0.0
 46
0.0
 47
0.0
 48
0.0
140
2.5
141
2.5
142
0.0
143
0.03937007874016
144
1.0
145
0.0
146
1.0
147
0.625
 71
     0
 72
     0
 73
     0
 74
     0
 75
     0
 76
     0
 77
     1
 78
     8
170
     0
171
     3
172
     1
173
     0
174
     0
175
     0
176
     0
177
     0
178
     0
270
     2
271
     2
272
     2
273
     2
274
     3
340
11
275
     0
280
     0
281
     0
282
     0
283
     0
284
     8
285
     0
286
     0
287
     3
288
     0
  0
DIMSTYLE
105
197
330
A
100
AcDbSymbolTableRecord
100
AcDbDimStyleTableRecord
  2
ADD
 70
     0
  3

  4

  5

  6

  7

 40
1.0
 41
2.5
 42
1.0
 43
7.0
 44
0.5
 45
0.0
 46
0.0
 47
0.0
 48
0.0
140
2.5
141
2.5
142
0.0
143
0.03937007874016
144
1.0
145
0.7
146
1.0
147
0.625
 71
     0
 72
     0
 73
     0
 74
     0
 75
     0
 76
     0
 77
     1
 78
     8
170
     0
171
     3
172
     1
173
     0
174
     1
175
     0
176
   144
177
   144
178
     7
270
     2
271
     1
272
     1
273
     2
274
     3
340
18E
275
     0
280
     0
281
     0
282
     0
283
     2
284
     8
285
     0
286
     0
287
     5
288
     0
  0
DIMSTYLE
105
3E6
330
A
100
AcDbSymbolTableRecord
100
AcDbDimStyleTableRecord
  2
ADD$2
 70
     0
  3

  4

  5

  6

  7

 40
1.0
 41
2.5
 42
1.0
 43
7.0
 44
0.5
 45
0.0
 46
0.0
 47
0.0
 48
0.0
140
2.5
141
2.5
142
0.0
143
0.03937007874016
144
1.0
145
0.7
146
1.0
147
0.625
 71
     0
 72
     0
 73
     0
 74
     0
 75
     0
 76
     0
 77
     1
 78
     8
170
     0
171
     3
172
     1
173
     0
174
     1
175
     0
176
   144
177
   144
178
     7
270
     2
271
     1
272
     1
273
     2
274
     3
340
18E
275
     0
280
     0
281
     0
282
     0
283
     2
284
     8
285
     0
286
     0
287
     5
288
     0
  0
DIMSTYLE
105
3E7
330
A
100
AcDbSymbolTableRecord
100
AcDbDimStyleTableRecord
  2
ADD$4
 70
     0
  3

  4

  5

  6

  7

 40
1.0
 41
2.5
 42
1.0
 43
7.0
 44
0.5
 45
0.0
 46
0.0
 47
0.0
 48
0.0
140
2.5
141
2.5
142
0.0
143
0.03937007874016
144
1.0
145
0.0
146
1.0
147
0.625
 71
     0
 72
     0
 73
     0
 74
     0
 75
     0
 76
     0
 77
     1
 78
     8
170
     0
171
     3
172
     1
173
     0
174
     1
175
     0
176
   144
177
   144
178
     7
270
     2
271
     1
272
     1
273
     2
274
     3
340
18E
275
     0
280
     0
281
     0
282
     0
283
     2
284
     8
285
     0
286
     0
287
     5
288
     0
  0
DIMSTYLE
105
3E8
330
A
100
AcDbSymbolTableRecord
100
AcDbDimStyleTableRecord
  2
ADD$3
 70
     0
  3

  4

  5

  6

  7

 40
1.0
 41
2.5
 42
1.0
 43
7.0
 44
0.5
 45
0.0
 46
0.0
 47
0.0
 48
0.0
140
2.5
141
2.5
142
0.0
143
0.03937007874016
144
1.0
145
0.0
146
1.0
147
0.625
 71
     0
 72
     0
 73
     0
 74
     0
 75
     0
 76
     0
 77
     1
 78
     8
170
     0
171
     3
172
     1
173
     0
174
     1
175
     0
176
   144
177
   144
178
     7
270
     2
271
     1
272
     1
273
     2
274
     3
340
18E
275
     0
280
     0
281
     0
282
     0
283
     2
284
     8
285
     0
286
     0
287
     5
288
     0
  0
DIMSTYLE
105
3E9
330
A
100
AcDbSymbolTableRecord
100
AcDbDimStyleTableRecord
  2
ADD$6
 70
     0
  3

  4

  5

  6

  7

 40
1.0
 41
2.5
 42
1.0
 43
7.0
 44
0.5
 45
0.0
 46
0.0
 47
0.0
 48
0.0
140
2.5
141
2.5
142
0.0
143
0.03937007874016
144
1.0
145
0.0
146
1.0
147
0.625
 71
     0
 72
     0
 73
     0
 74
     0
 75
     0
 76
     0
 77
     1
 78
     8
170
     0
171
     3
172
     1
173
     0
174
     1
175
     0
176
   144
177
   144
178
     7
270
     2
271
     1
272
     1
273
     2
274
     3
340
18E
275
     0
280
     0
281
     0
282
     0
283
     2
284
     8
285
     0
286
     0
287
     5
288
     0
  0
DIMSTYLE
105
3EA
330
A
100
AcDbSymbolTableRecord
100
AcDbDimStyleTableRecord
  2
ADD$7
 70
     0
  3

  4

  5

  6

  7

 40
1.0
 41
2.5
 42
1.0
 43
7.0
 44
0.5
 45
0.0
 46
0.0
 47
0.0
 48
0.0
140
2.5
141
2.5
142
0.0
143
0.03937007874016
144
1.0
145
0.0
146
1.0
147
0.625
 71
     0
 72
     0
 73
     0
 74
     0
 75
     0
 76
     0
 77
     0
 78
     8
170
     0
171
     3
172
     1
173
     0
174
     1
175
     0
176
   144
177
   144
178
     7
270
     2
271
     1
272
     1
273
     2
274
     3
340
18E
275
     0
280
     0
281
     0
282
     0
283
     2
284
     8
285
     0
286
     0
287
     5
288
     0
  0
DIMSTYLE
105
518
330
A
100
AcDbSymbolTableRecord
100
AcDbDimStyleTableRecord
  2
STANDARD
 70
     0
  3

  4

  5

  6

  7

 40
1.0
 41
0.18
 42
0.0625
 43
0.38
 44
0.18
 45
0.0
 46
0.0
 47
0.0
 48
0.0
140
0.18
141
0.09
142
0.0
143
25.4
144
1.0
145
0.0
146
1.0
147
0.09
 71
     0
 72
     0
 73
     1
 74
     1
 75
     0
 76
     0
 77
     0
 78
     0
170
     0
171
     2
172
     0
173
     0
174
     0
175
     0
176
     0
177
     0
178
     0
270
     2
271
     4
272
     4
273
     2
274
     2
340
11
275
     0
280
     0
281
     0
282
     0
283
     1
284
     0
285
     0
286
     0
287
     3
288
     0
  0
DIMSTYLE
105
550
102
{ACAD_REACTORS
330
915
330
906
330
83B
330
77A
330
76D
330
760
330
753
330
746
330
739
330
72C
330
707
330
6F8
330
6EB
330
6DC
330
6CD
330
6BA
330
69B
330
68E
330
681
330
674
330
667
102
}
330
A
100
AcDbSymbolTableRecord
100
AcDbDimStyleTableRecord
  2
ADD$0
 70
     0
  3

  4

  5

  6

  7

 40
1.0
 41
2.5
 42
1.0
 43
7.0
 44
0.5
 45
0.0
 46
0.0
 47
0.0
 48
0.0
140
2.5
141
2.5
142
0.0
143
0.03937007874016
144
1.0
145
0.7
146
1.0
147
0.625
 71
     0
 72
     0
 73
     0
 74
     0
 75
     0
 76
     0
 77
     1
 78
     8
170
     0
171
     3
172
     1
173
     0
174
     1
175
     0
176
   144
177
   144
178
     7
270
     2
271
     1
272
     1
273
     2
274
     3
340
18E
275
     0
280
     0
281
     0
282
     0
283
     2
284
     8
285
     0
286
     0
287
     5
288
     0
  0
DIMSTYLE
105
59B
330
A
100
AcDbSymbolTableRecord
100
AcDbDimStyleTableRecord
  2
ADD_M
 70
     0
  3

  4

  5

  6

  7

 40
1.0
 41
2.5
 42
1.0
 43
7.0
 44
0.5
 45
0.0
 46
0.0
 47
0.0
 48
0.0
140
2.5
141
2.5
142
0.0
143
0.03937007874016
144
1.0
145
0.7
146
1.0
147
0.625
 71
     0
 72
     0
 73
     0
 74
     0
 75
     0
 76
     0
 77
     1
 78
     8
170
     0
171
     3
172
     1
173
     0
174
     1
175
     0
176
   144
177
   144
178
     7
270
     2
271
     1
272
     1
273
     2
274
     3
340
18E
275
     0
280
     0
281
     0
282
     0
283
     2
284
     8
285
     0
286
     0
287
     5
288
     0
  0
ENDTAB
  0
TABLE
  2
BLOCK_RECORD
  5
1
330
0
100
AcDbSymbolTable
 70
    25
  0
BLOCK_RECORD
  5
1F
102
{ACAD_XDICTIONARY
360
B7D
102
}
330
1
100
AcDbSymbolTableRecord
100
AcDbBlockTableRecord
  2
*MODEL_SPACE
  0
BLOCK_RECORD
  5
1B
102
{ACAD_XDICTIONARY
360
B7F
102
}
330
1
100
AcDbSymbolTableRecord
100
AcDbBlockTableRecord
  2
*PAPER_SPACE
  0
BLOCK_RECORD
  5
192
330
1
100
AcDbSymbolTableRecord
100
AcDbBlockTableRecord
  2
_DOT
  0
BLOCK_RECORD
  5
5CE
330
1
100
AcDbSymbolTableRecord
100
AcDbBlockTableRecord
  2
A3
  0
BLOCK_RECORD
  5
5D6
330
1
100
AcDbSymbolTableRecord
100
AcDbBlockTableRecord
  2
A4
  0
BLOCK_RECORD
  5
5DB
330
1
100
AcDbSymbolTableRecord
100
AcDbBlockTableRecord
  2
A4YOKO
1001
ACAD
1000
DesignCenter Data
1002
{
1070
     1
1070
     4
1002
}
  0
BLOCK_RECORD
  5
668
330
1
100
AcDbSymbolTableRecord
100
AcDbBlockTableRecord
  2
*D4
  0
BLOCK_RECORD
  5
675
330
1
100
AcDbSymbolTableRecord
100
AcDbBlockTableRecord
  2
*D5
  0
BLOCK_RECORD
  5
682
330
1
100
AcDbSymbolTableRecord
100
AcDbBlockTableRecord
  2
*D6
  0
BLOCK_RECORD
  5
68F
330
1
100
AcDbSymbolTableRecord
100
AcDbBlockTableRecord
  2
*D7
  0
BLOCK_RECORD
  5
69C
330
1
100
AcDbSymbolTableRecord
100
AcDbBlockTableRecord
  2
*D8
  0
BLOCK_RECORD
  5
6BB
330
1
100
AcDbSymbolTableRecord
100
AcDbBlockTableRecord
  2
*D9
  0
BLOCK_RECORD
  5
6CE
330
1
100
AcDbSymbolTableRecord
100
AcDbBlockTableRecord
  2
*D10
  0
BLOCK_RECORD
  5
6DD
330
1
100
AcDbSymbolTableRecord
100
AcDbBlockTableRecord
  2
*D11
  0
BLOCK_RECORD
  5
6EC
330
1
100
AcDbSymbolTableRecord
100
AcDbBlockTableRecord
  2
*D12
  0
BLOCK_RECORD
  5
6F9
330
1
100
AcDbSymbolTableRecord
100
AcDbBlockTableRecord
  2
*D13
  0
BLOCK_RECORD
  5
708
330
1
100
AcDbSymbolTableRecord
100
AcDbBlockTableRecord
  2
*D14
  0
BLOCK_RECORD
  5
72D
330
1
100
AcDbSymbolTableRecord
100
AcDbBlockTableRecord
  2
*D15
  0
BLOCK_RECORD
  5
73A
330
1
100
AcDbSymbolTableRecord
100
AcDbBlockTableRecord
  2
*D16
  0
BLOCK_RECORD
  5
747
330
1
100
AcDbSymbolTableRecord
100
AcDbBlockTableRecord
  2
*D17
  0
BLOCK_RECORD
  5
754
330
1
100
AcDbSymbolTableRecord
100
AcDbBlockTableRecord
  2
*D18
  0
BLOCK_RECORD
  5
761
330
1
100
AcDbSymbolTableRecord
100
AcDbBlockTableRecord
  2
*D19
  0
BLOCK_RECORD
  5
76E
330
1
100
AcDbSymbolTableRecord
100
AcDbBlockTableRecord
  2
*D20
  0
BLOCK_RECORD
  5
77B
330
1
100
AcDbSymbolTableRecord
100
AcDbBlockTableRecord
  2
*D21
  0
BLOCK_RECORD
  5
83C
330
1
100
AcDbSymbolTableRecord
100
AcDbBlockTableRecord
  2
*D22
  0
BLOCK_RECORD
  5
907
330
1
100
AcDbSymbolTableRecord
100
AcDbBlockTableRecord
  2
*D23
  0
BLOCK_RECORD
  5
916
330
1
100
AcDbSymbolTableRecord
100
AcDbBlockTableRecord
  2
*D24
  0
ENDTAB
  0
ENDSEC
  0
SECTION
  2
BLOCKS
  0
BLOCK
  5
20
330
1F
100
AcDbEntity
  8
0
100
AcDbBlockBegin
  2
*MODEL_SPACE
 70
     0
 10
0.0
 20
0.0
 30
0.0
  3
*MODEL_SPACE
  1

  0
ENDBLK
  5
21
330
1F
100
AcDbEntity
  8
0
100
AcDbBlockEnd
  0
BLOCK
  5
1C
330
1B
100
AcDbEntity
 67
     1
  8
0
100
AcDbBlockBegin
  2
*PAPER_SPACE
 70
     0
 10
0.0
 20
0.0
 30
0.0
  3
*PAPER_SPACE
  1

  0
ENDBLK
  5
1D
330
1B
100
AcDbEntity
 67
     1
  8
0
100
AcDbBlockEnd
  0
BLOCK
  5
195
330
192
100
AcDbEntity
  8
0
100
AcDbBlockBegin
  2
_DOT
 70
     0
 10
0.0
 20
0.0
 30
0.0
  3
_DOT
  1

  0
POLYLINE
  5
193
330
192
100
AcDbEntity
  8
0
 62
     0
100
AcDb2dPolyline
 66
     1
 10
0.0
 20
0.0
 30
0.0
 70
     1
 40
0.5
 41
0.5
  0
VERTEX
  5
CC3
330
193
100
AcDbEntity
  8
0
 62
     0
100
AcDbVertex
100
AcDb2dVertex
 10
-0.25
 20
0.0
 30
0.0
 42
1.0
  0
VERTEX
  5
CC4
330
193
100
AcDbEntity
  8
0
 62
     0
100
AcDbVertex
100
AcDb2dVertex
 10
0.25
 20
0.0
 30
0.0
 42
1.0
  0
SEQEND
  5
CC5
330
193
100
AcDbEntity
  8
0
 62
     0
  0
LINE
  5
194
330
192
100
AcDbEntity
  8
0
 62
     0
100
AcDbLine
 10
-0.5
 20
0.0
 30
0.0
 11
-1.0
 21
0.0
 31
0.0
  0
ENDBLK
  5
196
330
192
100
AcDbEntity
  8
0
100
AcDbBlockEnd
  0
BLOCK
  5
5D1
330
5CE
100
AcDbEntity
  8
0
100
AcDbBlockBegin
  2
A3
 70
     0
 10
0.0
 20
0.0
 30
0.0
  3
A3
  1

  0
POLYLINE
  5
5CF
330
5CE
100
AcDbEntity
  8
HOJO
100
AcDb2dPolyline
 66
     1
 10
0.0
 20
0.0
 30
0.0
 70
     1
  0
VERTEX
  5
CC6
330
5CF
100
AcDbEntity
  8
HOJO
100
AcDbVertex
100
AcDb2dVertex
 10
0.0
 20
0.0
 30
0.0
  0
VERTEX
  5
CC7
330
5CF
100
AcDbEntity
  8
HOJO
100
AcDbVertex
100
AcDb2dVertex
 10
420.0
 20
0.0
 30
0.0
  0
VERTEX
  5
CC8
330
5CF
100
AcDbEntity
  8
HOJO
100
AcDbVertex
100
AcDb2dVertex
 10
420.0
 20
297.0
 30
0.0
  0
VERTEX
  5
CC9
330
5CF
100
AcDbEntity
  8
HOJO
100
AcDbVertex
100
AcDb2dVertex
 10
0.0
 20
297.0
 30
0.0
  0
SEQEND
  5
CCA
330
5CF
100
AcDbEntity
  8
HOJO
  0
POLYLINE
  5
5D0
330
5CE
100
AcDbEntity
  8
HOJO
100
AcDb2dPolyline
 66
     1
 10
0.0
 20
0.0
 30
0.0
 70
     1
  0
VERTEX
  5
CCB
330
5D0
100
AcDbEntity
  8
HOJO
100
AcDbVertex
100
AcDb2dVertex
 10
18.0
 20
13.0
 30
0.0
  0
VERTEX
  5
CCC
330
5D0
100
AcDbEntity
  8
HOJO
100
AcDbVertex
100
AcDb2dVertex
 10
402.0
 20
13.0
 30
0.0
  0
VERTEX
  5
CCD
330
5D0
100
AcDbEntity
  8
HOJO
100
AcDbVertex
100
AcDb2dVertex
 10
402.0
 20
284.0
 30
0.0
  0
VERTEX
  5
CCE
330
5D0
100
AcDbEntity
  8
HOJO
100
AcDbVertex
100
AcDb2dVertex
 10
18.0
 20
284.0
 30
0.0
  0
SEQEND
  5
CCF
330
5D0
100
AcDbEntity
  8
HOJO
  0
ENDBLK
  5
5D2
330
5CE
100
AcDbEntity
  8
0
100
AcDbBlockEnd
  0
BLOCK
  5
5D9
330
5D6
100
AcDbEntity
  8
0
100
AcDbBlockBegin
  2
A4
 70
     0
 10
0.0
 20
0.0
 30
0.0
  3
A4
  1

  0
POLYLINE
  5
5D7
330
5D6
100
AcDbEntity
  8
HOJO
100
AcDb2dPolyline
 66
     1
 10
0.0
 20
0.0
 30
0.0
 70
     1
  0
VERTEX
  5
CD0
330
5D7
100
AcDbEntity
  8
HOJO
100
AcDbVertex
100
AcDb2dVertex
 10
0.0
 20
0.0
 30
0.0
  0
VERTEX
  5
CD1
330
5D7
100
AcDbEntity
  8
HOJO
100
AcDbVertex
100
AcDb2dVertex
 10
297.0
 20
0.0
 30
0.0
  0
VERTEX
  5
CD2
330
5D7
100
AcDbEntity
  8
HOJO
100
AcDbVertex
100
AcDb2dVertex
 10
297.0
 20
210.0
 30
0.0
  0
VERTEX
  5
CD3
330
5D7
100
AcDbEntity
  8
HOJO
100
AcDbVertex
100
AcDb2dVertex
 10
0.0
 20
210.0
 30
0.0
  0
SEQEND
  5
CD4
330
5D7
100
AcDbEntity
  8
HOJO
  0
POLYLINE
  5
5D8
330
5D6
100
AcDbEntity
  8
HOJO
100
AcDb2dPolyline
 66
     1
 10
0.0
 20
0.0
 30
0.0
 70
     1
  0
VERTEX
  5
CD5
330
5D8
100
AcDbEntity
  8
HOJO
100
AcDbVertex
100
AcDb2dVertex
 10
18.0
 20
13.0
 30
0.0
  0
VERTEX
  5
CD6
330
5D8
100
AcDbEntity
  8
HOJO
100
AcDbVertex
100
AcDb2dVertex
 10
279.0
 20
13.0
 30
0.0
  0
VERTEX
  5
CD7
330
5D8
100
AcDbEntity
  8
HOJO
100
AcDbVertex
100
AcDb2dVertex
 10
279.0
 20
197.0
 30
0.0
  0
VERTEX
  5
CD8
330
5D8
100
AcDbEntity
  8
HOJO
100
AcDbVertex
100
AcDb2dVertex
 10
18.0
 20
197.0
 30
0.0
  0
SEQEND
  5
CD9
330
5D8
100
AcDbEntity
  8
HOJO
  0
ENDBLK
  5
5DA
330
5D6
100
AcDbEntity
  8
0
100
AcDbBlockEnd
  0
BLOCK
  5
5E9
330
5DB
100
AcDbEntity
  8
0
100
AcDbBlockBegin
  2
A4YOKO
 70
     0
 10
0.0
 20
0.0
 30
0.0
  3
A4YOKO
  1

  0
POLYLINE
  5
5DC
330
5DB
100
AcDbEntity
  8
HOJO
100
AcDb2dPolyline
 66
     1
 10
0.0
 20
0.0
 30
0.0
 70
     1
  0
VERTEX
  5
CDA
330
5DC
100
AcDbEntity
  8
HOJO
100
AcDbVertex
100
AcDb2dVertex
 10
0.0
 20
0.0
 30
0.0
  0
VERTEX
  5
CDB
330
5DC
100
AcDbEntity
  8
HOJO
100
AcDbVertex
100
AcDb2dVertex
 10
5940.0
 20
0.0
 30
0.0
  0
VERTEX
  5
CDC
330
5DC
100
AcDbEntity
  8
HOJO
100
AcDbVertex
100
AcDb2dVertex
 10
5940.0
 20
4200.0
 30
0.0
  0
VERTEX
  5
CDD
330
5DC
100
AcDbEntity
  8
HOJO
100
AcDbVertex
100
AcDb2dVertex
 10
0.0
 20
4200.0
 30
0.0
  0
SEQEND
  5
CDE
330
5DC
100
AcDbEntity
  8
HOJO
  0
POLYLINE
  5
5DD
330
5DB
100
AcDbEntity
  8
HOJO
100
AcDb2dPolyline
 66
     1
 10
0.0
 20
0.0
 30
0.0
 70
     1
  0
VERTEX
  5
CDF
330
5DD
100
AcDbEntity
  8
HOJO
100
AcDbVertex
100
AcDb2dVertex
 10
360.0
 20
260.0
 30
0.0
  0
VERTEX
  5
CE0
330
5DD
100
AcDbEntity
  8
HOJO
100
AcDbVertex
100
AcDb2dVertex
 10
5580.0
 20
260.0
 30
0.0
  0
VERTEX
  5
CE1
330
5DD
100
AcDbEntity
  8
HOJO
100
AcDbVertex
100
AcDb2dVertex
 10
5580.0
 20
3940.0
 30
0.0
  0
VERTEX
  5
CE2
330
5DD
100
AcDbEntity
  8
HOJO
100
AcDbVertex
100
AcDb2dVertex
 10
360.0
 20
3940.0
 30
0.0
  0
SEQEND
  5
CE3
330
5DD
100
AcDbEntity
  8
HOJO
  0
LINE
  5
5DE
330
5DB
100
AcDbEntity
  8
HOJO
100
AcDbLine
 10
360.0
 20
260.0
 30
0.0
 11
5580.0
 21
260.0
 31
0.0
  0
LINE
  5
5DF
330
5DB
100
AcDbEntity
  8
HOJO
100
AcDbLine
 10
360.0
 20
560.0
 30
0.0
 11
5580.0
 21
560.0
 31
0.0
  0
LINE
  5
5E0
330
5DB
100
AcDbEntity
  8
HOJO
100
AcDbLine
 10
360.0
 20
260.0
 30
0.0
 11
360.0
 21
560.0
 31
0.0
  0
LINE
  5
5E1
330
5DB
100
AcDbEntity
  8
HOJO
100
AcDbLine
 10
2360.0
 20
260.0
 30
0.0
 11
2360.0
 21
560.0
 31
0.0
  0
LINE
  5
5E2
330
5DB
100
AcDbEntity
  8
HOJO
100
AcDbLine
 10
3160.0
 20
260.0
 30
0.0
 11
3160.0
 21
560.0
 31
0.0
  0
LINE
  5
5E3
330
5DB
100
AcDbEntity
  8
HOJO
100
AcDbLine
 10
3660.0
 20
260.0
 30
0.0
 11
3660.0
 21
560.0
 31
0.0
  0
MTEXT
  5
5E4
330
5DB
100
AcDbEntity
  8
MOJI
100
AcDbMText
 10
3730.870883051572
 20
452.2726133092146
 30
0.0
 40
100.0
 41
1850.299599999999
 71
     1
 72
     1
  1
千葉県コンクリート製品協同組合
  7
ADD
1001
ACAD
1000
MTEXTBEGIN
1070
    73
1070
     1
1070
    44
1040
1.0
1070
    74
1070
     0
1000
MTEXTEND
1000
MTEXTBEGIN
1070
    73
1070
     1
1070
    44
1040
1.0
1070
    74
1070
     0
1000
MTEXTEND
  0
MTEXT
  5
5E5
330
5DB
100
AcDbEntity
  8
MOJI
100
AcDbMText
 10
3177.510249231658
 20
538.6918916770627
 30
0.0
 40
50.0
 41
247.8594
 71
     1
 72
     1
  1
縮尺
  7
ADD
1001
ACAD
1000
MTEXTBEGIN
1070
    73
1070
     1
1070
    44
1040
1.0
1070
    74
1070
     0
1000
MTEXTEND
1000
MTEXTBEGIN
1070
    73
1070
     1
1070
    44
1040
1.0
1070
    74
1070
     0
1000
MTEXTEND
  0
MTEXT
  5
5E6
330
5DB
100
AcDbEntity
  8
MOJI
100
AcDbMText
 10
2376.290169028722
 20
544.4531736811823
 30
0.0
 40
50.0
 41
322.7937
 71
     1
 72
     1
  1
型式
  7
ADD
1001
ACAD
1000
MTEXTBEGIN
1070
    73
1070
     1
1070
    44
1040
1.0
1070
    74
1070
     0
1000
MTEXTEND
1000
MTEXTBEGIN
1070
    73
1070
     1
1070
    44
1040
1.0
1070
    74
1070
     0
1000
MTEXTEND
  0
MTEXT
  5
5E7
330
5DB
100
AcDbEntity
  8
MOJI
100
AcDbMText
 10
381.8862574011546
 20
538.6918916770627
 30
0.0
 40
50.0
 41
956.8527000000001
 71
     1
 72
     1
  1
製品名
  7
ADD
1001
ACAD
1000
MTEXTBEGIN
1070
    73
1070
     1
1070
    44
1040
1.0
1070
    74
1070
     0
1000
MTEXTEND
1000
MTEXTBEGIN
1070
    73
1070
     1
1070
    44
1040
1.0
1070
    74
1070
     0
1000
MTEXTEND
  0
MTEXT
  5
5E8
330
5DB
100
AcDbEntity
  8
MOJI
100
AcDbMText
 10
3246.680311730542
 20
429.2274732162223
 30
0.0
 40
70.0
 41
380.4354
 71
     1
 72
     1
  1
１／２０
  7
ADD
1001
ACAD
1000
MTEXTBEGIN
1070
    73
1070
     1
1070
    44
1040
1.0
1070
    74
1070
     0
1000
MTEXTEND
1000
MTEXTBEGIN
1070
    73
1070
     1
1070
    44
1040
1.0
1070
    74
1070
     0
1000
MTEXTEND
  0
ENDBLK
  5
5EA
330
5DB
100
AcDbEntity
  8
0
100
AcDbBlockEnd
  0
BLOCK
  5
672
330
668
100
AcDbEntity
  8
0
100
AcDbBlockBegin
  2
*D4
 70
     1
 10
0.0
 20
0.0
 30
0.0
  3
*D4
  1

  0
LINE
  5
AAB
330
668
100
AcDbEntity
  8
SUNPO
 62
   144
100
AcDbLine
 10
3944.350928661115
 20
3556.704037351998
 30
0.0
 11
3944.350928661115
 21
4196.936949069796
 31
0.0
  0
LINE
  5
AAC
330
668
100
AcDbEntity
  8
SUNPO
 62
   144
100
AcDbLine
 10
4084.350928661115
 20
3556.704037351998
 30
0.0
 11
4084.350928661115
 21
4196.936949069796
 31
0.0
  0
LINE
  5
AAD
330
668
100
AcDbEntity
  8
SUNPO
 62
   144
100
AcDbLine
 10
3994.350928661115
 20
4186.936949069795
 30
0.0
 11
4034.350928661114
 21
4186.936949069795
 31
0.0
  0
MTEXT
  5
AAE
330
668
100
AcDbEntity
  8
SUNPO
 62
     7
100
AcDbMText
 10
4014.350928661115
 20
4240.686949069796
 30
0.0
 40
50.0
 41
0.0
 71
     5
 72
     1
  1
\A2;140
  7
ADD
1001
ACAD
1000
MTEXTBEGIN
1070
    73
1070
     1
1070
    44
1040
1.0
1070
    74
1070
     0
1000
MTEXTEND
1000
MTEXTBEGIN
1070
    73
1070
     1
1070
    44
1040
1.0
1070
    74
1070
     0
1000
MTEXTEND
  0
SOLID
  5
AAF
330
668
100
AcDbEntity
  8
SUNPO
 62
   144
100
AcDbTrace
 10
3994.350928661115
 20
4195.270282403128
 30
0.0
 11
3994.350928661115
 21
4178.603615736462
 31
0.0
 12
3944.350928661115
 22
4186.936949069795
 32
0.0
 13
3944.350928661115
 23
4186.936949069795
 33
0.0
  0
SOLID
  5
AB0
330
668
100
AcDbEntity
  8
SUNPO
 62
   144
100
AcDbTrace
 10
4034.350928661114
 20
4195.270282403128
 30
0.0
 11
4034.350928661114
 21
4178.603615736462
 31
0.0
 12
4084.350928661115
 22
4186.936949069795
 32
0.0
 13
4084.350928661115
 23
4186.936949069795
 33
0.0
  0
POINT
  5
AB1
330
668
100
AcDbEntity
  8
DEFPOINTS
 62
     0
100
AcDbPoint
 10
3944.350928661115
 20
3536.704037351997
 30
0.0
  0
POINT
  5
AB2
330
668
100
AcDbEntity
  8
DEFPOINTS
 62
     0
100
AcDbPoint
 10
4084.350928661115
 20
3536.704037351997
 30
0.0
  0
POINT
  5
AB3
330
668
100
AcDbEntity
  8
DEFPOINTS
 62
     0
100
AcDbPoint
 10
4084.350928661115
 20
4186.936949069795
 30
0.0
  0
ENDBLK
  5
673
330
668
100
AcDbEntity
  8
0
100
AcDbBlockEnd
  0
BLOCK
  5
67F
330
675
100
AcDbEntity
  8
0
100
AcDbBlockBegin
  2
*D5
 70
     1
 10
0.0
 20
0.0
 30
0.0
  3
*D5
  1

  0
LINE
  5
B6B
330
675
100
AcDbEntity
  8
SUNPO
 62
   144
100
AcDbLine
 10
4084.350928661115
 20
3556.704037351998
 30
0.0
 11
4084.350928661115
 21
4196.936949069796
 31
0.0
  0
LINE
  5
B6C
330
675
100
AcDbEntity
  8
SUNPO
 62
   144
100
AcDbLine
 10
5884.350928661115
 20
3556.704037351998
 30
0.0
 11
5884.350928661115
 21
4196.936949069796
 31
0.0
  0
LINE
  5
B6D
330
675
100
AcDbEntity
  8
SUNPO
 62
   144
100
AcDbLine
 10
4134.350928661115
 20
4186.936949069795
 30
0.0
 11
5834.350928661115
 21
4186.936949069795
 31
0.0
  0
SOLID
  5
B6E
330
675
100
AcDbEntity
  8
SUNPO
 62
   144
100
AcDbTrace
 10
4134.350928661115
 20
4195.270282403128
 30
0.0
 11
4134.350928661115
 21
4178.603615736462
 31
0.0
 12
4084.350928661115
 22
4186.936949069795
 32
0.0
 13
4084.350928661115
 23
4186.936949069795
 33
0.0
  0
SOLID
  5
B6F
330
675
100
AcDbEntity
  8
SUNPO
 62
   144
100
AcDbTrace
 10
5834.350928661115
 20
4195.270282403128
 30
0.0
 11
5834.350928661115
 21
4178.603615736462
 31
0.0
 12
5884.350928661115
 22
4186.936949069795
 32
0.0
 13
5884.350928661115
 23
4186.936949069795
 33
0.0
  0
MTEXT
  5
B70
330
675
100
AcDbEntity
  8
SUNPO
 62
     7
100
AcDbMText
 10
4984.350928661115
 20
4224.436949069795
 30
0.0
 40
50.0
 41
0.0
 71
     5
 72
     1
  1
\A2;1800
  7
ADD
1001
ACAD
1000
MTEXTBEGIN
1070
    73
1070
     1
1070
    44
1040
1.0
1070
    74
1070
     0
1000
MTEXTEND
1000
MTEXTBEGIN
1070
    73
1070
     1
1070
    44
1040
1.0
1070
    74
1070
     0
1000
MTEXTEND
  0
POINT
  5
B71
330
675
100
AcDbEntity
  8
DEFPOINTS
 62
     0
100
AcDbPoint
 10
4084.350928661115
 20
3536.704037351997
 30
0.0
  0
POINT
  5
B72
330
675
100
AcDbEntity
  8
DEFPOINTS
 62
     0
100
AcDbPoint
 10
5884.350928661115
 20
3536.704037351997
 30
0.0
  0
POINT
  5
B73
330
675
100
AcDbEntity
  8
DEFPOINTS
 62
     0
100
AcDbPoint
 10
5884.350928661115
 20
4186.936949069795
 30
0.0
  0
ENDBLK
  5
680
330
675
100
AcDbEntity
  8
0
100
AcDbBlockEnd
  0
BLOCK
  5
68C
330
682
100
AcDbEntity
  8
0
100
AcDbBlockBegin
  2
*D6
 70
     1
 10
0.0
 20
0.0
 30
0.0
  3
*D6
  1

  0
LINE
  5
B62
330
682
100
AcDbEntity
  8
SUNPO
 62
   144
100
AcDbLine
 10
5884.350928661115
 20
3556.704037351998
 30
0.0
 11
5884.350928661115
 21
4196.936949069796
 31
0.0
  0
LINE
  5
B63
330
682
100
AcDbEntity
  8
SUNPO
 62
   144
100
AcDbLine
 10
6024.350928661115
 20
3556.704037351998
 30
0.0
 11
6024.350928661115
 21
4196.936949069796
 31
0.0
  0
LINE
  5
B64
330
682
100
AcDbEntity
  8
SUNPO
 62
   144
100
AcDbLine
 10
5934.350928661115
 20
4186.936949069795
 30
0.0
 11
5974.350928661115
 21
4186.936949069795
 31
0.0
  0
MTEXT
  5
B65
330
682
100
AcDbEntity
  8
SUNPO
 62
     7
100
AcDbMText
 10
5954.350928661115
 20
4240.686949069796
 30
0.0
 40
50.0
 41
0.0
 71
     5
 72
     1
  1
\A2;140
  7
ADD
1001
ACAD
1000
MTEXTBEGIN
1070
    73
1070
     1
1070
    44
1040
1.0
1070
    74
1070
     0
1000
MTEXTEND
1000
MTEXTBEGIN
1070
    73
1070
     1
1070
    44
1040
1.0
1070
    74
1070
     0
1000
MTEXTEND
  0
SOLID
  5
B66
330
682
100
AcDbEntity
  8
SUNPO
 62
   144
100
AcDbTrace
 10
5934.350928661115
 20
4195.270282403128
 30
0.0
 11
5934.350928661115
 21
4178.603615736462
 31
0.0
 12
5884.350928661115
 22
4186.936949069795
 32
0.0
 13
5884.350928661115
 23
4186.936949069795
 33
0.0
  0
SOLID
  5
B67
330
682
100
AcDbEntity
  8
SUNPO
 62
   144
100
AcDbTrace
 10
5974.350928661115
 20
4195.270282403128
 30
0.0
 11
5974.350928661115
 21
4178.603615736462
 31
0.0
 12
6024.350928661115
 22
4186.936949069795
 32
0.0
 13
6024.350928661115
 23
4186.936949069795
 33
0.0
  0
POINT
  5
B68
330
682
100
AcDbEntity
  8
DEFPOINTS
 62
     0
100
AcDbPoint
 10
5884.350928661115
 20
3536.704037351997
 30
0.0
  0
POINT
  5
B69
330
682
100
AcDbEntity
  8
DEFPOINTS
 62
     0
100
AcDbPoint
 10
6024.350928661115
 20
3536.704037351997
 30
0.0
  0
POINT
  5
B6A
330
682
100
AcDbEntity
  8
DEFPOINTS
 62
     0
100
AcDbPoint
 10
6024.350928661115
 20
4186.936949069795
 30
0.0
  0
ENDBLK
  5
68D
330
682
100
AcDbEntity
  8
0
100
AcDbBlockEnd
  0
BLOCK
  5
699
330
68F
100
AcDbEntity
  8
0
100
AcDbBlockBegin
  2
*D7
 70
     1
 10
0.0
 20
0.0
 30
0.0
  3
*D7
  1

  0
LINE
  5
AB4
330
68F
100
AcDbEntity
  8
SUNPO
 62
   144
100
AcDbLine
 10
4024.298867913794
 20
3556.704037351998
 30
0.0
 11
4024.298867913794
 21
3886.820493210896
 31
0.0
  0
LINE
  5
AB5
330
68F
100
AcDbEntity
  8
SUNPO
 62
   144
100
AcDbLine
 10
4084.350928661115
 20
3556.704037351998
 30
0.0
 11
4084.350928661115
 21
3886.820493210896
 31
0.0
  0
LINE
  5
AB6
330
68F
100
AcDbEntity
  8
SUNPO
 62
   144
100
AcDbLine
 10
3974.298867913793
 20
3876.820493210896
 30
0.0
 11
3924.298867913794
 21
3876.820493210896
 31
0.0
  0
LINE
  5
AB7
330
68F
100
AcDbEntity
  8
SUNPO
 62
   144
100
AcDbLine
 10
4134.350928661115
 20
3876.820493210896
 30
0.0
 11
4184.350928661115
 21
3876.820493210896
 31
0.0
  0
MTEXT
  5
AB8
330
68F
100
AcDbEntity
  8
SUNPO
 62
     7
100
AcDbMText
 10
4164.027309763699
 20
3930.570493210896
 30
0.0
 40
50.0
 41
0.0
 71
     5
 72
     1
  1
\A2;60
  7
ADD
1001
ACAD
1000
MTEXTBEGIN
1070
    73
1070
     1
1070
    44
1040
1.0
1070
    74
1070
     0
1000
MTEXTEND
1000
MTEXTBEGIN
1070
    73
1070
     1
1070
    44
1040
1.0
1070
    74
1070
     0
1000
MTEXTEND
  0
LINE
  5
AB9
330
68F
100
AcDbEntity
  8
SUNPO
 62
   144
100
AcDbLine
 10
4024.298867913794
 20
3876.820493210896
 30
0.0
 11
4084.350928661115
 21
3876.820493210896
 31
0.0
  0
SOLID
  5
ABA
330
68F
100
AcDbEntity
  8
SUNPO
 62
   144
100
AcDbTrace
 10
3974.298867913793
 20
3885.15382654423
 30
0.0
 11
3974.298867913793
 21
3868.487159877563
 31
0.0
 12
4024.298867913794
 22
3876.820493210896
 32
0.0
 13
4024.298867913794
 23
3876.820493210896
 33
0.0
  0
SOLID
  5
ABB
330
68F
100
AcDbEntity
  8
SUNPO
 62
   144
100
AcDbTrace
 10
4134.350928661115
 20
3885.15382654423
 30
0.0
 11
4134.350928661115
 21
3868.487159877563
 31
0.0
 12
4084.350928661115
 22
3876.820493210896
 32
0.0
 13
4084.350928661115
 23
3876.820493210896
 33
0.0
  0
POINT
  5
ABC
330
68F
100
AcDbEntity
  8
DEFPOINTS
 62
     0
100
AcDbPoint
 10
4024.298867913794
 20
3536.704037351997
 30
0.0
  0
POINT
  5
ABD
330
68F
100
AcDbEntity
  8
DEFPOINTS
 62
     0
100
AcDbPoint
 10
4084.350928661115
 20
3536.704037351997
 30
0.0
  0
POINT
  5
ABE
330
68F
100
AcDbEntity
  8
DEFPOINTS
 62
     0
100
AcDbPoint
 10
4084.350928661115
 20
3876.820493210896
 30
0.0
  0
ENDBLK
  5
69A
330
68F
100
AcDbEntity
  8
0
100
AcDbBlockEnd
  0
BLOCK
  5
6A6
330
69C
100
AcDbEntity
  8
0
100
AcDbBlockBegin
  2
*D8
 70
     1
 10
0.0
 20
0.0
 30
0.0
  3
*D8
  1

  0
LINE
  5
B57
330
69C
100
AcDbEntity
  8
SUNPO
 62
   144
100
AcDbLine
 10
5884.350928661115
 20
3556.704037351998
 30
0.0
 11
5884.350928661115
 21
3886.820493210896
 31
0.0
  0
LINE
  5
B58
330
69C
100
AcDbEntity
  8
SUNPO
 62
   144
100
AcDbLine
 10
5944.402989408438
 20
3556.704037351998
 30
0.0
 11
5944.402989408438
 21
3886.820493210896
 31
0.0
  0
LINE
  5
B59
330
69C
100
AcDbEntity
  8
SUNPO
 62
   144
100
AcDbLine
 10
5834.350928661115
 20
3876.820493210896
 30
0.0
 11
5784.350928661115
 21
3876.820493210896
 31
0.0
  0
LINE
  5
B5A
330
69C
100
AcDbEntity
  8
SUNPO
 62
   144
100
AcDbLine
 10
5994.402989408437
 20
3876.820493210896
 30
0.0
 11
6044.402989408437
 21
3876.820493210896
 31
0.0
  0
MTEXT
  5
B5B
330
69C
100
AcDbEntity
  8
SUNPO
 62
     7
100
AcDbMText
 10
5824.714175382905
 20
3930.570493210896
 30
0.0
 40
50.0
 41
0.0
 71
     5
 72
     1
  1
\A2;60
  7
ADD
1001
ACAD
1000
MTEXTBEGIN
1070
    73
1070
     1
1070
    44
1040
1.0
1070
    74
1070
     0
1000
MTEXTEND
1000
MTEXTBEGIN
1070
    73
1070
     1
1070
    44
1040
1.0
1070
    74
1070
     0
1000
MTEXTEND
  0
LINE
  5
B5C
330
69C
100
AcDbEntity
  8
SUNPO
 62
   144
100
AcDbLine
 10
5884.350928661115
 20
3876.820493210896
 30
0.0
 11
5944.402989408438
 21
3876.820493210896
 31
0.0
  0
SOLID
  5
B5D
330
69C
100
AcDbEntity
  8
SUNPO
 62
   144
100
AcDbTrace
 10
5834.350928661115
 20
3885.15382654423
 30
0.0
 11
5834.350928661115
 21
3868.487159877563
 31
0.0
 12
5884.350928661115
 22
3876.820493210896
 32
0.0
 13
5884.350928661115
 23
3876.820493210896
 33
0.0
  0
SOLID
  5
B5E
330
69C
100
AcDbEntity
  8
SUNPO
 62
   144
100
AcDbTrace
 10
5994.402989408437
 20
3885.15382654423
 30
0.0
 11
5994.402989408437
 21
3868.487159877563
 31
0.0
 12
5944.402989408438
 22
3876.820493210896
 32
0.0
 13
5944.402989408438
 23
3876.820493210896
 33
0.0
  0
POINT
  5
B5F
330
69C
100
AcDbEntity
  8
DEFPOINTS
 62
     0
100
AcDbPoint
 10
5884.350928661115
 20
3536.704037351997
 30
0.0
  0
POINT
  5
B60
330
69C
100
AcDbEntity
  8
DEFPOINTS
 62
     0
100
AcDbPoint
 10
5944.402989408438
 20
3536.704037351997
 30
0.0
  0
POINT
  5
B61
330
69C
100
AcDbEntity
  8
DEFPOINTS
 62
     0
100
AcDbPoint
 10
5944.402989408438
 20
3876.820493210896
 30
0.0
  0
ENDBLK
  5
6A7
330
69C
100
AcDbEntity
  8
0
100
AcDbBlockEnd
  0
BLOCK
  5
6C5
330
6BB
100
AcDbEntity
  8
0
100
AcDbBlockBegin
  2
*D9
 70
     1
 10
0.0
 20
0.0
 30
0.0
  3
*D9
  1

  0
LINE
  5
A7A
330
6BB
100
AcDbEntity
  8
SUNPO
 62
   144
100
AcDbLine
 10
3064.350928661115
 20
3556.704037351998
 30
0.0
 11
3064.350928661115
 21
4195.770282403129
 31
0.0
  0
LINE
  5
A7B
330
6BB
100
AcDbEntity
  8
SUNPO
 62
   144
100
AcDbLine
 10
3244.350928661115
 20
3556.704037351998
 30
0.0
 11
3244.350928661115
 21
4195.770282403129
 31
0.0
  0
LINE
  5
A7C
330
6BB
100
AcDbEntity
  8
SUNPO
 62
   144
100
AcDbLine
 10
3114.350928661115
 20
4185.770282403129
 30
0.0
 11
3194.350928661115
 21
4185.770282403129
 31
0.0
  0
SOLID
  5
A7D
330
6BB
100
AcDbEntity
  8
SUNPO
 62
   144
100
AcDbTrace
 10
3114.350928661115
 20
4194.103615736462
 30
0.0
 11
3114.350928661115
 21
4177.436949069796
 31
0.0
 12
3064.350928661115
 22
4185.770282403129
 32
0.0
 13
3064.350928661115
 23
4185.770282403129
 33
0.0
  0
SOLID
  5
A7E
330
6BB
100
AcDbEntity
  8
SUNPO
 62
   144
100
AcDbTrace
 10
3194.350928661115
 20
4194.103615736462
 30
0.0
 11
3194.350928661115
 21
4177.436949069796
 31
0.0
 12
3244.350928661115
 22
4185.770282403129
 32
0.0
 13
3244.350928661115
 23
4185.770282403129
 33
0.0
  0
MTEXT
  5
A7F
330
6BB
100
AcDbEntity
  8
SUNPO
 62
     7
100
AcDbMText
 10
3154.350928661115
 20
4223.270282403129
 30
0.0
 40
50.0
 41
0.0
 71
     5
 72
     1
  1
\A2;180
  7
ADD
1001
ACAD
1000
MTEXTBEGIN
1070
    73
1070
     1
1070
    44
1040
1.0
1070
    74
1070
     0
1000
MTEXTEND
1000
MTEXTBEGIN
1070
    73
1070
     1
1070
    44
1040
1.0
1070
    74
1070
     0
1000
MTEXTEND
  0
POINT
  5
A80
330
6BB
100
AcDbEntity
  8
DEFPOINTS
 62
     0
100
AcDbPoint
 10
3064.350928661115
 20
3536.704037351997
 30
0.0
  0
POINT
  5
A81
330
6BB
100
AcDbEntity
  8
DEFPOINTS
 62
     0
100
AcDbPoint
 10
3244.350928661115
 20
3536.704037351997
 30
0.0
  0
POINT
  5
A82
330
6BB
100
AcDbEntity
  8
DEFPOINTS
 62
     0
100
AcDbPoint
 10
3244.350928661115
 20
4185.770282403129
 30
0.0
  0
ENDBLK
  5
6C6
330
6BB
100
AcDbEntity
  8
0
100
AcDbBlockEnd
  0
BLOCK
  5
6DA
330
6CE
100
AcDbEntity
  8
0
100
AcDbBlockBegin
  2
*D10
 70
     1
 10
0.0
 20
0.0
 30
0.0
  3
*D10
  1

  0
LINE
  5
A6F
330
6CE
100
AcDbEntity
  8
SUNPO
 62
   144
100
AcDbLine
 10
3064.350928661115
 20
3556.704037351998
 30
0.0
 11
3064.350928661115
 21
3886.820493210896
 31
0.0
  0
LINE
  5
A70
330
6CE
100
AcDbEntity
  8
SUNPO
 62
   144
100
AcDbLine
 10
3114.350928661115
 20
3556.704037351998
 30
0.0
 11
3114.350928661115
 21
3886.820493210896
 31
0.0
  0
LINE
  5
A71
330
6CE
100
AcDbEntity
  8
SUNPO
 62
   144
100
AcDbLine
 10
3014.350928661115
 20
3876.820493210896
 30
0.0
 11
2964.350928661115
 21
3876.820493210896
 31
0.0
  0
LINE
  5
A72
330
6CE
100
AcDbEntity
  8
SUNPO
 62
   144
100
AcDbLine
 10
3164.350928661115
 20
3876.820493210896
 30
0.0
 11
3214.350928661115
 21
3876.820493210896
 31
0.0
  0
MTEXT
  5
A73
330
6CE
100
AcDbEntity
  8
SUNPO
 62
     7
100
AcDbMText
 10
3012.775883321585
 20
3930.570493210896
 30
0.0
 40
50.0
 41
0.0
 71
     5
 72
     1
  1
\A2;50
  7
ADD
1001
ACAD
1000
MTEXTBEGIN
1070
    73
1070
     1
1070
    44
1040
1.0
1070
    74
1070
     0
1000
MTEXTEND
1000
MTEXTBEGIN
1070
    73
1070
     1
1070
    44
1040
1.0
1070
    74
1070
     0
1000
MTEXTEND
  0
LINE
  5
A74
330
6CE
100
AcDbEntity
  8
SUNPO
 62
   144
100
AcDbLine
 10
3064.350928661115
 20
3876.820493210896
 30
0.0
 11
3114.350928661115
 21
3876.820493210896
 31
0.0
  0
SOLID
  5
A75
330
6CE
100
AcDbEntity
  8
SUNPO
 62
   144
100
AcDbTrace
 10
3014.350928661115
 20
3885.15382654423
 30
0.0
 11
3014.350928661115
 21
3868.487159877563
 31
0.0
 12
3064.350928661115
 22
3876.820493210896
 32
0.0
 13
3064.350928661115
 23
3876.820493210896
 33
0.0
  0
SOLID
  5
A76
330
6CE
100
AcDbEntity
  8
SUNPO
 62
   144
100
AcDbTrace
 10
3164.350928661115
 20
3885.15382654423
 30
0.0
 11
3164.350928661115
 21
3868.487159877563
 31
0.0
 12
3114.350928661115
 22
3876.820493210896
 32
0.0
 13
3114.350928661115
 23
3876.820493210896
 33
0.0
  0
POINT
  5
A77
330
6CE
100
AcDbEntity
  8
DEFPOINTS
 62
     0
100
AcDbPoint
 10
3064.350928661115
 20
3536.704037351997
 30
0.0
  0
POINT
  5
A78
330
6CE
100
AcDbEntity
  8
DEFPOINTS
 62
     0
100
AcDbPoint
 10
3114.350928661115
 20
3536.704037351997
 30
0.0
  0
POINT
  5
A79
330
6CE
100
AcDbEntity
  8
DEFPOINTS
 62
     0
100
AcDbPoint
 10
3114.350928661115
 20
3876.820493210896
 30
0.0
  0
ENDBLK
  5
6DB
330
6CE
100
AcDbEntity
  8
0
100
AcDbBlockEnd
  0
BLOCK
  5
6E9
330
6DD
100
AcDbEntity
  8
0
100
AcDbBlockBegin
  2
*D11
 70
     1
 10
0.0
 20
0.0
 30
0.0
  3
*D11
  1

  0
LINE
  5
A64
330
6DD
100
AcDbEntity
  8
SUNPO
 62
   144
100
AcDbLine
 10
3244.350928661115
 20
3556.704037351998
 30
0.0
 11
3244.350928661115
 21
3886.820493210896
 31
0.0
  0
LINE
  5
A65
330
6DD
100
AcDbEntity
  8
SUNPO
 62
   144
100
AcDbLine
 10
3194.350928661115
 20
3556.704037351998
 30
0.0
 11
3194.350928661115
 21
3886.820493210896
 31
0.0
  0
LINE
  5
A66
330
6DD
100
AcDbEntity
  8
SUNPO
 62
   144
100
AcDbLine
 10
3294.350928661115
 20
3876.820493210896
 30
0.0
 11
3344.350928661115
 21
3876.820493210896
 31
0.0
  0
LINE
  5
A67
330
6DD
100
AcDbEntity
  8
SUNPO
 62
   144
100
AcDbLine
 10
3144.350928661115
 20
3876.820493210896
 30
0.0
 11
3094.350928661115
 21
3876.820493210896
 31
0.0
  0
MTEXT
  5
A68
330
6DD
100
AcDbEntity
  8
SUNPO
 62
     7
100
AcDbMText
 10
3295.650494407153
 20
3930.570493210896
 30
0.0
 40
50.0
 41
0.0
 71
     5
 72
     1
  1
\A2;50
  7
ADD
1001
ACAD
1000
MTEXTBEGIN
1070
    73
1070
     1
1070
    44
1040
1.0
1070
    74
1070
     0
1000
MTEXTEND
1000
MTEXTBEGIN
1070
    73
1070
     1
1070
    44
1040
1.0
1070
    74
1070
     0
1000
MTEXTEND
  0
LINE
  5
A69
330
6DD
100
AcDbEntity
  8
SUNPO
 62
   144
100
AcDbLine
 10
3244.350928661115
 20
3876.820493210896
 30
0.0
 11
3194.350928661115
 21
3876.820493210896
 31
0.0
  0
SOLID
  5
A6A
330
6DD
100
AcDbEntity
  8
SUNPO
 62
   144
100
AcDbTrace
 10
3294.350928661115
 20
3885.15382654423
 30
0.0
 11
3294.350928661115
 21
3868.487159877563
 31
0.0
 12
3244.350928661115
 22
3876.820493210896
 32
0.0
 13
3244.350928661115
 23
3876.820493210896
 33
0.0
  0
SOLID
  5
A6B
330
6DD
100
AcDbEntity
  8
SUNPO
 62
   144
100
AcDbTrace
 10
3144.350928661115
 20
3885.15382654423
 30
0.0
 11
3144.350928661115
 21
3868.487159877563
 31
0.0
 12
3194.350928661115
 22
3876.820493210896
 32
0.0
 13
3194.350928661115
 23
3876.820493210896
 33
0.0
  0
POINT
  5
A6C
330
6DD
100
AcDbEntity
  8
DEFPOINTS
 62
     0
100
AcDbPoint
 10
3244.350928661115
 20
3536.704037351997
 30
0.0
  0
POINT
  5
A6D
330
6DD
100
AcDbEntity
  8
DEFPOINTS
 62
     0
100
AcDbPoint
 10
3194.350928661115
 20
3536.704037351997
 30
0.0
  0
POINT
  5
A6E
330
6DD
100
AcDbEntity
  8
DEFPOINTS
 62
     0
100
AcDbPoint
 10
3194.350928661115
 20
3876.820493210896
 30
0.0
  0
ENDBLK
  5
6EA
330
6DD
100
AcDbEntity
  8
0
100
AcDbBlockEnd
  0
BLOCK
  5
6F6
330
6EC
100
AcDbEntity
  8
0
100
AcDbBlockBegin
  2
*D12
 70
     1
 10
0.0
 20
0.0
 30
0.0
  3
*D12
  1

  0
LINE
  5
A59
330
6EC
100
AcDbEntity
  8
SUNPO
 62
   144
100
AcDbLine
 10
3119.350928661115
 20
3556.704037351998
 30
0.0
 11
3119.350928661115
 21
3886.820493210896
 31
0.0
  0
LINE
  5
A5A
330
6EC
100
AcDbEntity
  8
SUNPO
 62
   144
100
AcDbLine
 10
3189.350928661115
 20
3556.704037351998
 30
0.0
 11
3189.350928661115
 21
3886.820493210896
 31
0.0
  0
LINE
  5
A5B
330
6EC
100
AcDbEntity
  8
SUNPO
 62
   144
100
AcDbLine
 10
3069.350928661115
 20
3876.820493210896
 30
0.0
 11
3019.350928661115
 21
3876.820493210896
 31
0.0
  0
LINE
  5
A5C
330
6EC
100
AcDbEntity
  8
SUNPO
 62
   144
100
AcDbLine
 10
3239.350928661115
 20
3876.820493210896
 30
0.0
 11
3289.350928661114
 21
3876.820493210896
 31
0.0
  0
MTEXT
  5
A5D
330
6EC
100
AcDbEntity
  8
SUNPO
 62
     7
100
AcDbMText
 10
3154.350928661115
 20
3930.570493210896
 30
0.0
 40
50.0
 41
0.0
 71
     5
 72
     1
  1
\A2;70
  7
ADD
1001
ACAD
1000
MTEXTBEGIN
1070
    73
1070
     1
1070
    44
1040
1.0
1070
    74
1070
     0
1000
MTEXTEND
1000
MTEXTBEGIN
1070
    73
1070
     1
1070
    44
1040
1.0
1070
    74
1070
     0
1000
MTEXTEND
  0
LINE
  5
A5E
330
6EC
100
AcDbEntity
  8
SUNPO
 62
   144
100
AcDbLine
 10
3119.350928661115
 20
3876.820493210896
 30
0.0
 11
3189.350928661115
 21
3876.820493210896
 31
0.0
  0
SOLID
  5
A5F
330
6EC
100
AcDbEntity
  8
SUNPO
 62
   144
100
AcDbTrace
 10
3069.350928661115
 20
3885.15382654423
 30
0.0
 11
3069.350928661115
 21
3868.487159877563
 31
0.0
 12
3119.350928661115
 22
3876.820493210896
 32
0.0
 13
3119.350928661115
 23
3876.820493210896
 33
0.0
  0
SOLID
  5
A60
330
6EC
100
AcDbEntity
  8
SUNPO
 62
   144
100
AcDbTrace
 10
3239.350928661115
 20
3885.15382654423
 30
0.0
 11
3239.350928661115
 21
3868.487159877563
 31
0.0
 12
3189.350928661115
 22
3876.820493210896
 32
0.0
 13
3189.350928661115
 23
3876.820493210896
 33
0.0
  0
POINT
  5
A61
330
6EC
100
AcDbEntity
  8
DEFPOINTS
 62
     0
100
AcDbPoint
 10
3119.350928661115
 20
3536.704037351997
 30
0.0
  0
POINT
  5
A62
330
6EC
100
AcDbEntity
  8
DEFPOINTS
 62
     0
100
AcDbPoint
 10
3189.350928661115
 20
3536.704037351997
 30
0.0
  0
POINT
  5
A63
330
6EC
100
AcDbEntity
  8
DEFPOINTS
 62
     0
100
AcDbPoint
 10
3189.350928661115
 20
3876.820493210896
 30
0.0
  0
ENDBLK
  5
6F7
330
6EC
100
AcDbEntity
  8
0
100
AcDbBlockEnd
  0
BLOCK
  5
705
330
6F9
100
AcDbEntity
  8
0
100
AcDbBlockBegin
  2
*D13
 70
     1
 10
0.0
 20
0.0
 30
0.0
  3
*D13
  1

  0
LINE
  5
A4E
330
6F9
100
AcDbEntity
  8
SUNPO
 62
   144
100
AcDbLine
 10
3114.350928661115
 20
3556.704037351998
 30
0.0
 11
3114.350928661115
 21
3729.500554544796
 31
0.0
  0
LINE
  5
A4F
330
6F9
100
AcDbEntity
  8
SUNPO
 62
   144
100
AcDbLine
 10
3119.350928661115
 20
3556.704037351998
 30
0.0
 11
3119.350928661115
 21
3729.500554544796
 31
0.0
  0
LINE
  5
A50
330
6F9
100
AcDbEntity
  8
SUNPO
 62
   144
100
AcDbLine
 10
3064.350928661115
 20
3719.500554544797
 30
0.0
 11
3014.350928661115
 21
3719.500554544797
 31
0.0
  0
LINE
  5
A51
330
6F9
100
AcDbEntity
  8
SUNPO
 62
   144
100
AcDbLine
 10
3169.350928661115
 20
3719.500554544797
 30
0.0
 11
3219.350928661115
 21
3719.500554544797
 31
0.0
  0
MTEXT
  5
A52
330
6F9
100
AcDbEntity
  8
SUNPO
 62
     7
100
AcDbMText
 10
3116.850928661115
 20
3773.250554544796
 30
0.0
 40
50.0
 41
0.0
 71
     5
 72
     1
  1
\A2;5
  7
ADD
1001
ACAD
1000
MTEXTBEGIN
1070
    73
1070
     1
1070
    44
1040
1.0
1070
    74
1070
     0
1000
MTEXTEND
1000
MTEXTBEGIN
1070
    73
1070
     1
1070
    44
1040
1.0
1070
    74
1070
     0
1000
MTEXTEND
  0
LINE
  5
A53
330
6F9
100
AcDbEntity
  8
SUNPO
 62
   144
100
AcDbLine
 10
3114.350928661115
 20
3719.500554544797
 30
0.0
 11
3119.350928661115
 21
3719.500554544797
 31
0.0
  0
SOLID
  5
A54
330
6F9
100
AcDbEntity
  8
SUNPO
 62
   144
100
AcDbTrace
 10
3064.350928661115
 20
3727.83388787813
 30
0.0
 11
3064.350928661115
 21
3711.167221211463
 31
0.0
 12
3114.350928661115
 22
3719.500554544797
 32
0.0
 13
3114.350928661115
 23
3719.500554544797
 33
0.0
  0
SOLID
  5
A55
330
6F9
100
AcDbEntity
  8
SUNPO
 62
   144
100
AcDbTrace
 10
3169.350928661115
 20
3727.83388787813
 30
0.0
 11
3169.350928661115
 21
3711.167221211463
 31
0.0
 12
3119.350928661115
 22
3719.500554544797
 32
0.0
 13
3119.350928661115
 23
3719.500554544797
 33
0.0
  0
POINT
  5
A56
330
6F9
100
AcDbEntity
  8
DEFPOINTS
 62
     0
100
AcDbPoint
 10
3114.350928661115
 20
3536.704037351997
 30
0.0
  0
POINT
  5
A57
330
6F9
100
AcDbEntity
  8
DEFPOINTS
 62
     0
100
AcDbPoint
 10
3119.350928661115
 20
3536.704037351997
 30
0.0
  0
POINT
  5
A58
330
6F9
100
AcDbEntity
  8
DEFPOINTS
 62
     0
100
AcDbPoint
 10
3119.350928661115
 20
3719.500554544797
 30
0.0
  0
ENDBLK
  5
706
330
6F9
100
AcDbEntity
  8
0
100
AcDbBlockEnd
  0
BLOCK
  5
714
330
708
100
AcDbEntity
  8
0
100
AcDbBlockBegin
  2
*D14
 70
     1
 10
0.0
 20
0.0
 30
0.0
  3
*D14
  1

  0
LINE
  5
A43
330
708
100
AcDbEntity
  8
SUNPO
 62
   144
100
AcDbLine
 10
3189.350928661115
 20
3556.704037351998
 30
0.0
 11
3189.350928661115
 21
3729.500554544796
 31
0.0
  0
LINE
  5
A44
330
708
100
AcDbEntity
  8
SUNPO
 62
   144
100
AcDbLine
 10
3194.350928661115
 20
3556.704037351998
 30
0.0
 11
3194.350928661115
 21
3729.500554544796
 31
0.0
  0
LINE
  5
A45
330
708
100
AcDbEntity
  8
SUNPO
 62
   144
100
AcDbLine
 10
3139.350928661115
 20
3719.500554544797
 30
0.0
 11
3089.350928661115
 21
3719.500554544797
 31
0.0
  0
LINE
  5
A46
330
708
100
AcDbEntity
  8
SUNPO
 62
   144
100
AcDbLine
 10
3244.350928661115
 20
3719.500554544797
 30
0.0
 11
3294.350928661115
 21
3719.500554544797
 31
0.0
  0
MTEXT
  5
A47
330
708
100
AcDbEntity
  8
SUNPO
 62
     7
100
AcDbMText
 10
3191.850928661115
 20
3773.250554544796
 30
0.0
 40
50.0
 41
0.0
 71
     5
 72
     1
  1
\A2;5
  7
ADD
1001
ACAD
1000
MTEXTBEGIN
1070
    73
1070
     1
1070
    44
1040
1.0
1070
    74
1070
     0
1000
MTEXTEND
1000
MTEXTBEGIN
1070
    73
1070
     1
1070
    44
1040
1.0
1070
    74
1070
     0
1000
MTEXTEND
  0
LINE
  5
A48
330
708
100
AcDbEntity
  8
SUNPO
 62
   144
100
AcDbLine
 10
3189.350928661115
 20
3719.500554544797
 30
0.0
 11
3194.350928661115
 21
3719.500554544797
 31
0.0
  0
SOLID
  5
A49
330
708
100
AcDbEntity
  8
SUNPO
 62
   144
100
AcDbTrace
 10
3139.350928661115
 20
3727.83388787813
 30
0.0
 11
3139.350928661115
 21
3711.167221211463
 31
0.0
 12
3189.350928661115
 22
3719.500554544797
 32
0.0
 13
3189.350928661115
 23
3719.500554544797
 33
0.0
  0
SOLID
  5
A4A
330
708
100
AcDbEntity
  8
SUNPO
 62
   144
100
AcDbTrace
 10
3244.350928661115
 20
3727.83388787813
 30
0.0
 11
3244.350928661115
 21
3711.167221211463
 31
0.0
 12
3194.350928661115
 22
3719.500554544797
 32
0.0
 13
3194.350928661115
 23
3719.500554544797
 33
0.0
  0
POINT
  5
A4B
330
708
100
AcDbEntity
  8
DEFPOINTS
 62
     0
100
AcDbPoint
 10
3189.350928661115
 20
3536.704037351997
 30
0.0
  0
POINT
  5
A4C
330
708
100
AcDbEntity
  8
DEFPOINTS
 62
     0
100
AcDbPoint
 10
3194.350928661115
 20
3536.704037351997
 30
0.0
  0
POINT
  5
A4D
330
708
100
AcDbEntity
  8
DEFPOINTS
 62
     0
100
AcDbPoint
 10
3194.350928661115
 20
3719.500554544797
 30
0.0
  0
ENDBLK
  5
715
330
708
100
AcDbEntity
  8
0
100
AcDbBlockEnd
  0
BLOCK
  5
737
330
72D
100
AcDbEntity
  8
0
100
AcDbBlockBegin
  2
*D15
 70
     1
 10
0.0
 20
0.0
 30
0.0
  3
*D15
  1

  0
LINE
  5
A3A
330
72D
100
AcDbEntity
  8
SUNPO
 62
   144
100
AcDbLine
 10
3924.350928661115
 20
3536.704037351997
 30
0.0
 11
3542.025400783696
 21
3536.704037351997
 31
0.0
  0
LINE
  5
A3B
330
72D
100
AcDbEntity
  8
SUNPO
 62
   144
100
AcDbLine
 10
3924.350928661115
 20
2146.704037351997
 30
0.0
 11
3542.025400783696
 21
2146.704037351997
 31
0.0
  0
LINE
  5
A3C
330
72D
100
AcDbEntity
  8
SUNPO
 62
   144
100
AcDbLine
 10
3552.025400783696
 20
3486.704037351997
 30
0.0
 11
3552.025400783696
 21
2196.704037351997
 31
0.0
  0
SOLID
  5
A3D
330
72D
100
AcDbEntity
  8
SUNPO
 62
   144
100
AcDbTrace
 10
3543.692067450362
 20
3486.704037351997
 30
0.0
 11
3560.358734117029
 21
3486.704037351997
 31
0.0
 12
3552.025400783696
 22
3536.704037351997
 32
0.0
 13
3552.025400783696
 23
3536.704037351997
 33
0.0
  0
SOLID
  5
A3E
330
72D
100
AcDbEntity
  8
SUNPO
 62
   144
100
AcDbTrace
 10
3543.692067450362
 20
2196.704037351997
 30
0.0
 11
3560.358734117029
 21
2196.704037351997
 31
0.0
 12
3552.025400783696
 22
2146.704037351997
 32
0.0
 13
3552.025400783696
 23
2146.704037351997
 33
0.0
  0
MTEXT
  5
A3F
330
72D
100
AcDbEntity
  8
SUNPO
 62
     7
100
AcDbMText
 10
3514.525400783695
 20
2841.704037351998
 30
0.0
 40
50.0
 41
0.0
 71
     5
 72
     1
  1
\A2;1390
  7
ADD
 11
0.0000000000000001
 21
1.0
 31
0.0
1001
ACAD
1000
MTEXTBEGIN
1070
    73
1070
     1
1070
    44
1040
1.0
1070
    74
1070
     0
1000
MTEXTEND
1000
MTEXTBEGIN
1070
    73
1070
     1
1070
    44
1040
1.0
1070
    74
1070
     0
1000
MTEXTEND
  0
POINT
  5
A40
330
72D
100
AcDbEntity
  8
DEFPOINTS
 62
     0
100
AcDbPoint
 10
3944.350928661115
 20
3536.704037351997
 30
0.0
  0
POINT
  5
A41
330
72D
100
AcDbEntity
  8
DEFPOINTS
 62
     0
100
AcDbPoint
 10
3944.350928661115
 20
2146.704037351997
 30
0.0
  0
POINT
  5
A42
330
72D
100
AcDbEntity
  8
DEFPOINTS
 62
     0
100
AcDbPoint
 10
3552.025400783696
 20
2146.704037351997
 30
0.0
  0
ENDBLK
  5
738
330
72D
100
AcDbEntity
  8
0
100
AcDbBlockEnd
  0
BLOCK
  5
744
330
73A
100
AcDbEntity
  8
0
100
AcDbBlockBegin
  2
*D16
 70
     1
 10
0.0
 20
0.0
 30
0.0
  3
*D16
  1

  0
LINE
  5
A31
330
73A
100
AcDbEntity
  8
SUNPO
 62
   144
100
AcDbLine
 10
3924.350928661115
 20
2146.704037351997
 30
0.0
 11
3753.49658375886
 21
2146.704037351997
 31
0.0
  0
LINE
  5
A32
330
73A
100
AcDbEntity
  8
SUNPO
 62
   144
100
AcDbLine
 10
3924.350928661115
 20
2336.704037351997
 30
0.0
 11
3753.49658375886
 21
2336.704037351997
 31
0.0
  0
LINE
  5
A33
330
73A
100
AcDbEntity
  8
SUNPO
 62
   144
100
AcDbLine
 10
3763.496583758861
 20
2196.704037351997
 30
0.0
 11
3763.496583758861
 21
2286.704037351997
 31
0.0
  0
SOLID
  5
A34
330
73A
100
AcDbEntity
  8
SUNPO
 62
   144
100
AcDbTrace
 10
3755.163250425527
 20
2196.704037351997
 30
0.0
 11
3771.829917092194
 21
2196.704037351997
 31
0.0
 12
3763.496583758861
 22
2146.704037351997
 32
0.0
 13
3763.496583758861
 23
2146.704037351997
 33
0.0
  0
SOLID
  5
A35
330
73A
100
AcDbEntity
  8
SUNPO
 62
   144
100
AcDbTrace
 10
3755.163250425527
 20
2286.704037351997
 30
0.0
 11
3771.829917092194
 21
2286.704037351997
 31
0.0
 12
3763.496583758861
 22
2336.704037351997
 32
0.0
 13
3763.496583758861
 23
2336.704037351997
 33
0.0
  0
MTEXT
  5
A36
330
73A
100
AcDbEntity
  8
SUNPO
 62
     7
100
AcDbMText
 10
3725.99658375886
 20
2241.704037351998
 30
0.0
 40
50.0
 41
0.0
 71
     5
 72
     1
  1
\A2;190
  7
ADD
 11
0.0000000000000001
 21
1.0
 31
0.0
1001
ACAD
1000
MTEXTBEGIN
1070
    73
1070
     1
1070
    44
1040
1.0
1070
    74
1070
     0
1000
MTEXTEND
1000
MTEXTBEGIN
1070
    73
1070
     1
1070
    44
1040
1.0
1070
    74
1070
     0
1000
MTEXTEND
  0
POINT
  5
A37
330
73A
100
AcDbEntity
  8
DEFPOINTS
 62
     0
100
AcDbPoint
 10
3944.350928661115
 20
2146.704037351997
 30
0.0
  0
POINT
  5
A38
330
73A
100
AcDbEntity
  8
DEFPOINTS
 62
     0
100
AcDbPoint
 10
3944.350928661115
 20
2336.704037351997
 30
0.0
  0
POINT
  5
A39
330
73A
100
AcDbEntity
  8
DEFPOINTS
 62
     0
100
AcDbPoint
 10
3763.496583758861
 20
2336.704037351997
 30
0.0
  0
ENDBLK
  5
745
330
73A
100
AcDbEntity
  8
0
100
AcDbBlockEnd
  0
BLOCK
  5
751
330
747
100
AcDbEntity
  8
0
100
AcDbBlockBegin
  2
*D17
 70
     1
 10
0.0
 20
0.0
 30
0.0
  3
*D17
  1

  0
LINE
  5
A28
330
747
100
AcDbEntity
  8
SUNPO
 62
   144
100
AcDbLine
 10
3924.350928661115
 20
2336.704037351997
 30
0.0
 11
3753.49658375886
 21
2336.704037351997
 31
0.0
  0
LINE
  5
A29
330
747
100
AcDbEntity
  8
SUNPO
 62
   144
100
AcDbLine
 10
3924.350928661115
 20
3536.704037351997
 30
0.0
 11
3753.496583758861
 21
3536.704037351997
 31
0.0
  0
LINE
  5
A2A
330
747
100
AcDbEntity
  8
SUNPO
 62
   144
100
AcDbLine
 10
3763.496583758861
 20
2386.704037351997
 30
0.0
 11
3763.496583758861
 21
3486.704037351997
 31
0.0
  0
SOLID
  5
A2B
330
747
100
AcDbEntity
  8
SUNPO
 62
   144
100
AcDbTrace
 10
3755.163250425527
 20
2386.704037351997
 30
0.0
 11
3771.829917092194
 21
2386.704037351997
 31
0.0
 12
3763.496583758861
 22
2336.704037351997
 32
0.0
 13
3763.496583758861
 23
2336.704037351997
 33
0.0
  0
SOLID
  5
A2C
330
747
100
AcDbEntity
  8
SUNPO
 62
   144
100
AcDbTrace
 10
3755.163250425527
 20
3486.704037351997
 30
0.0
 11
3771.829917092194
 21
3486.704037351997
 31
0.0
 12
3763.496583758861
 22
3536.704037351997
 32
0.0
 13
3763.496583758861
 23
3536.704037351997
 33
0.0
  0
MTEXT
  5
A2D
330
747
100
AcDbEntity
  8
SUNPO
 62
     7
100
AcDbMText
 10
3725.99658375886
 20
2936.704037351998
 30
0.0
 40
50.0
 41
0.0
 71
     5
 72
     1
  1
\A2;1200
  7
ADD
 11
0.0000000000000001
 21
1.0
 31
0.0
1001
ACAD
1000
MTEXTBEGIN
1070
    73
1070
     1
1070
    44
1040
1.0
1070
    74
1070
     0
1000
MTEXTEND
1000
MTEXTBEGIN
1070
    73
1070
     1
1070
    44
1040
1.0
1070
    74
1070
     0
1000
MTEXTEND
  0
POINT
  5
A2E
330
747
100
AcDbEntity
  8
DEFPOINTS
 62
     0
100
AcDbPoint
 10
3944.350928661115
 20
2336.704037351997
 30
0.0
  0
POINT
  5
A2F
330
747
100
AcDbEntity
  8
DEFPOINTS
 62
     0
100
AcDbPoint
 10
3944.350928661115
 20
3536.704037351997
 30
0.0
  0
POINT
  5
A30
330
747
100
AcDbEntity
  8
DEFPOINTS
 62
     0
100
AcDbPoint
 10
3763.496583758861
 20
3536.704037351997
 30
0.0
  0
ENDBLK
  5
752
330
747
100
AcDbEntity
  8
0
100
AcDbBlockEnd
  0
BLOCK
  5
75E
330
754
100
AcDbEntity
  8
0
100
AcDbBlockBegin
  2
*D18
 70
     1
 10
0.0
 20
0.0
 30
0.0
  3
*D18
  1

  0
LINE
  5
B4E
330
754
100
AcDbEntity
  8
SUNPO
 62
   144
100
AcDbLine
 10
3944.350928661115
 20
2126.704037351997
 30
0.0
 11
3944.350928661115
 21
1485.289951452819
 31
0.0
  0
LINE
  5
B4F
330
754
100
AcDbEntity
  8
SUNPO
 62
   144
100
AcDbLine
 10
6024.350928661115
 20
2126.704037351997
 30
0.0
 11
6024.350928661115
 21
1485.289951452819
 31
0.0
  0
LINE
  5
B50
330
754
100
AcDbEntity
  8
SUNPO
 62
   144
100
AcDbLine
 10
3994.350928661115
 20
1495.289951452819
 30
0.0
 11
5974.350928661115
 21
1495.289951452819
 31
0.0
  0
SOLID
  5
B51
330
754
100
AcDbEntity
  8
SUNPO
 62
   144
100
AcDbTrace
 10
3994.350928661115
 20
1503.623284786153
 30
0.0
 11
3994.350928661115
 21
1486.956618119486
 31
0.0
 12
3944.350928661115
 22
1495.289951452819
 32
0.0
 13
3944.350928661115
 23
1495.289951452819
 33
0.0
  0
SOLID
  5
B52
330
754
100
AcDbEntity
  8
SUNPO
 62
   144
100
AcDbTrace
 10
5974.350928661115
 20
1503.623284786153
 30
0.0
 11
5974.350928661115
 21
1486.956618119486
 31
0.0
 12
6024.350928661115
 22
1495.289951452819
 32
0.0
 13
6024.350928661115
 23
1495.289951452819
 33
0.0
  0
MTEXT
  5
B53
330
754
100
AcDbEntity
  8
SUNPO
 62
     7
100
AcDbMText
 10
4984.350928661115
 20
1532.789951452819
 30
0.0
 40
50.0
 41
0.0
 71
     5
 72
     1
  1
\A2;2080
  7
ADD
1001
ACAD
1000
MTEXTBEGIN
1070
    73
1070
     1
1070
    44
1040
1.0
1070
    74
1070
     0
1000
MTEXTEND
1000
MTEXTBEGIN
1070
    73
1070
     1
1070
    44
1040
1.0
1070
    74
1070
     0
1000
MTEXTEND
  0
POINT
  5
B54
330
754
100
AcDbEntity
  8
DEFPOINTS
 62
     0
100
AcDbPoint
 10
3944.350928661115
 20
2146.704037351997
 30
0.0
  0
POINT
  5
B55
330
754
100
AcDbEntity
  8
DEFPOINTS
 62
     0
100
AcDbPoint
 10
6024.350928661115
 20
2146.704037351997
 30
0.0
  0
POINT
  5
B56
330
754
100
AcDbEntity
  8
DEFPOINTS
 62
     0
100
AcDbPoint
 10
6024.350928661115
 20
1495.289951452819
 30
0.0
  0
ENDBLK
  5
75F
330
754
100
AcDbEntity
  8
0
100
AcDbBlockEnd
  0
BLOCK
  5
76B
330
761
100
AcDbEntity
  8
0
100
AcDbBlockBegin
  2
*D19
 70
     1
 10
0.0
 20
0.0
 30
0.0
  3
*D19
  1

  0
LINE
  5
A16
330
761
100
AcDbEntity
  8
SUNPO
 62
   144
100
AcDbLine
 10
3944.350928661115
 20
2126.704037351997
 30
0.0
 11
3944.350928661115
 21
1806.94987142092
 31
0.0
  0
LINE
  5
A17
330
761
100
AcDbEntity
  8
SUNPO
 62
   144
100
AcDbLine
 10
4134.350928661115
 20
2126.704037351997
 30
0.0
 11
4134.350928661115
 21
1806.94987142092
 31
0.0
  0
LINE
  5
A18
330
761
100
AcDbEntity
  8
SUNPO
 62
   144
100
AcDbLine
 10
3994.350928661115
 20
1816.94987142092
 30
0.0
 11
4084.350928661115
 21
1816.94987142092
 31
0.0
  0
SOLID
  5
A19
330
761
100
AcDbEntity
  8
SUNPO
 62
   144
100
AcDbTrace
 10
3994.350928661115
 20
1825.283204754253
 30
0.0
 11
3994.350928661115
 21
1808.616538087587
 31
0.0
 12
3944.350928661115
 22
1816.94987142092
 32
0.0
 13
3944.350928661115
 23
1816.94987142092
 33
0.0
  0
SOLID
  5
A1A
330
761
100
AcDbEntity
  8
SUNPO
 62
   144
100
AcDbTrace
 10
4084.350928661115
 20
1825.283204754253
 30
0.0
 11
4084.350928661115
 21
1808.616538087587
 31
0.0
 12
4134.350928661115
 22
1816.94987142092
 32
0.0
 13
4134.350928661115
 23
1816.94987142092
 33
0.0
  0
MTEXT
  5
A1B
330
761
100
AcDbEntity
  8
SUNPO
 62
     7
100
AcDbMText
 10
4039.350928661115
 20
1854.44987142092
 30
0.0
 40
50.0
 41
0.0
 71
     5
 72
     1
  1
\A2;190
  7
ADD
1001
ACAD
1000
MTEXTBEGIN
1070
    73
1070
     1
1070
    44
1040
1.0
1070
    74
1070
     0
1000
MTEXTEND
1000
MTEXTBEGIN
1070
    73
1070
     1
1070
    44
1040
1.0
1070
    74
1070
     0
1000
MTEXTEND
  0
POINT
  5
A1C
330
761
100
AcDbEntity
  8
DEFPOINTS
 62
     0
100
AcDbPoint
 10
3944.350928661115
 20
2146.704037351997
 30
0.0
  0
POINT
  5
A1D
330
761
100
AcDbEntity
  8
DEFPOINTS
 62
     0
100
AcDbPoint
 10
4134.350928661115
 20
2146.704037351997
 30
0.0
  0
POINT
  5
A1E
330
761
100
AcDbEntity
  8
DEFPOINTS
 62
     0
100
AcDbPoint
 10
4134.350928661115
 20
1816.94987142092
 30
0.0
  0
ENDBLK
  5
76C
330
761
100
AcDbEntity
  8
0
100
AcDbBlockEnd
  0
BLOCK
  5
778
330
76E
100
AcDbEntity
  8
0
100
AcDbBlockBegin
  2
*D20
 70
     1
 10
0.0
 20
0.0
 30
0.0
  3
*D20
  1

  0
LINE
  5
B45
330
76E
100
AcDbEntity
  8
SUNPO
 62
   144
100
AcDbLine
 10
4134.350928661115
 20
2126.704037351997
 30
0.0
 11
4134.350928661115
 21
1806.94987142092
 31
0.0
  0
LINE
  5
B46
330
76E
100
AcDbEntity
  8
SUNPO
 62
   144
100
AcDbLine
 10
5834.350928661115
 20
2126.704037351997
 30
0.0
 11
5834.350928661115
 21
1806.94987142092
 31
0.0
  0
LINE
  5
B47
330
76E
100
AcDbEntity
  8
SUNPO
 62
   144
100
AcDbLine
 10
4184.350928661115
 20
1816.94987142092
 30
0.0
 11
5784.350928661115
 21
1816.94987142092
 31
0.0
  0
SOLID
  5
B48
330
76E
100
AcDbEntity
  8
SUNPO
 62
   144
100
AcDbTrace
 10
4184.350928661115
 20
1825.283204754253
 30
0.0
 11
4184.350928661115
 21
1808.616538087587
 31
0.0
 12
4134.350928661115
 22
1816.94987142092
 32
0.0
 13
4134.350928661115
 23
1816.94987142092
 33
0.0
  0
SOLID
  5
B49
330
76E
100
AcDbEntity
  8
SUNPO
 62
   144
100
AcDbTrace
 10
5784.350928661115
 20
1825.283204754253
 30
0.0
 11
5784.350928661115
 21
1808.616538087587
 31
0.0
 12
5834.350928661115
 22
1816.94987142092
 32
0.0
 13
5834.350928661115
 23
1816.94987142092
 33
0.0
  0
MTEXT
  5
B4A
330
76E
100
AcDbEntity
  8
SUNPO
 62
     7
100
AcDbMText
 10
4984.350928661115
 20
1854.44987142092
 30
0.0
 40
50.0
 41
0.0
 71
     5
 72
     1
  1
\A2;1700
  7
ADD
1001
ACAD
1000
MTEXTBEGIN
1070
    73
1070
     1
1070
    44
1040
1.0
1070
    74
1070
     0
1000
MTEXTEND
1000
MTEXTBEGIN
1070
    73
1070
     1
1070
    44
1040
1.0
1070
    74
1070
     0
1000
MTEXTEND
  0
POINT
  5
B4B
330
76E
100
AcDbEntity
  8
DEFPOINTS
 62
     0
100
AcDbPoint
 10
4134.350928661115
 20
2146.704037351997
 30
0.0
  0
POINT
  5
B4C
330
76E
100
AcDbEntity
  8
DEFPOINTS
 62
     0
100
AcDbPoint
 10
5834.350928661115
 20
2146.704037351997
 30
0.0
  0
POINT
  5
B4D
330
76E
100
AcDbEntity
  8
DEFPOINTS
 62
     0
100
AcDbPoint
 10
5834.350928661115
 20
1816.94987142092
 30
0.0
  0
ENDBLK
  5
779
330
76E
100
AcDbEntity
  8
0
100
AcDbBlockEnd
  0
BLOCK
  5
785
330
77B
100
AcDbEntity
  8
0
100
AcDbBlockBegin
  2
*D21
 70
     1
 10
0.0
 20
0.0
 30
0.0
  3
*D21
  1

  0
LINE
  5
B3C
330
77B
100
AcDbEntity
  8
SUNPO
 62
   144
100
AcDbLine
 10
5834.350928661115
 20
2126.704037351997
 30
0.0
 11
5834.350928661115
 21
1806.94987142092
 31
0.0
  0
LINE
  5
B3D
330
77B
100
AcDbEntity
  8
SUNPO
 62
   144
100
AcDbLine
 10
6024.350928661115
 20
2106.704037351997
 30
0.0
 11
6024.350928661115
 21
1806.94987142092
 31
0.0
  0
LINE
  5
B3E
330
77B
100
AcDbEntity
  8
SUNPO
 62
   144
100
AcDbLine
 10
5884.350928661115
 20
1816.94987142092
 30
0.0
 11
5974.350928661115
 21
1816.94987142092
 31
0.0
  0
SOLID
  5
B3F
330
77B
100
AcDbEntity
  8
SUNPO
 62
   144
100
AcDbTrace
 10
5884.350928661115
 20
1825.283204754253
 30
0.0
 11
5884.350928661115
 21
1808.616538087587
 31
0.0
 12
5834.350928661115
 22
1816.94987142092
 32
0.0
 13
5834.350928661115
 23
1816.94987142092
 33
0.0
  0
SOLID
  5
B40
330
77B
100
AcDbEntity
  8
SUNPO
 62
   144
100
AcDbTrace
 10
5974.350928661115
 20
1825.283204754253
 30
0.0
 11
5974.350928661115
 21
1808.616538087587
 31
0.0
 12
6024.350928661115
 22
1816.94987142092
 32
0.0
 13
6024.350928661115
 23
1816.94987142092
 33
0.0
  0
MTEXT
  5
B41
330
77B
100
AcDbEntity
  8
SUNPO
 62
     7
100
AcDbMText
 10
5929.350928661115
 20
1854.44987142092
 30
0.0
 40
50.0
 41
0.0
 71
     5
 72
     1
  1
\A2;190
  7
ADD
1001
ACAD
1000
MTEXTBEGIN
1070
    73
1070
     1
1070
    44
1040
1.0
1070
    74
1070
     0
1000
MTEXTEND
1000
MTEXTBEGIN
1070
    73
1070
     1
1070
    44
1040
1.0
1070
    74
1070
     0
1000
MTEXTEND
  0
POINT
  5
B42
330
77B
100
AcDbEntity
  8
DEFPOINTS
 62
     0
100
AcDbPoint
 10
5834.350928661115
 20
2146.704037351997
 30
0.0
  0
POINT
  5
B43
330
77B
100
AcDbEntity
  8
DEFPOINTS
 62
     0
100
AcDbPoint
 10
6024.350928661115
 20
2126.704037351997
 30
0.0
  0
POINT
  5
B44
330
77B
100
AcDbEntity
  8
DEFPOINTS
 62
     0
100
AcDbPoint
 10
6024.350928661115
 20
1816.94987142092
 30
0.0
  0
ENDBLK
  5
786
330
77B
100
AcDbEntity
  8
0
100
AcDbBlockEnd
  0
BLOCK
  5
846
330
83C
100
AcDbEntity
  8
0
100
AcDbBlockBegin
  2
*D22
 70
     1
 10
0.0
 20
0.0
 30
0.0
  3
*D22
  1

  0
LINE
  5
9FB
330
83C
100
AcDbEntity
  8
SUNPO
 62
   144
100
AcDbLine
 10
3064.350928661115
 20
2126.704037351997
 30
0.0
 11
3064.350928661115
 21
1485.289951452819
 31
0.0
  0
LINE
  5
9FC
330
83C
100
AcDbEntity
  8
SUNPO
 62
   144
100
AcDbLine
 10
3244.350928661115
 20
2126.704037351997
 30
0.0
 11
3244.350928661115
 21
1485.289951452819
 31
0.0
  0
LINE
  5
9FD
330
83C
100
AcDbEntity
  8
SUNPO
 62
   144
100
AcDbLine
 10
3114.350928661115
 20
1495.289951452819
 30
0.0
 11
3194.350928661115
 21
1495.289951452819
 31
0.0
  0
SOLID
  5
9FE
330
83C
100
AcDbEntity
  8
SUNPO
 62
   144
100
AcDbTrace
 10
3114.350928661115
 20
1503.623284786153
 30
0.0
 11
3114.350928661115
 21
1486.956618119486
 31
0.0
 12
3064.350928661115
 22
1495.289951452819
 32
0.0
 13
3064.350928661115
 23
1495.289951452819
 33
0.0
  0
SOLID
  5
9FF
330
83C
100
AcDbEntity
  8
SUNPO
 62
   144
100
AcDbTrace
 10
3194.350928661115
 20
1503.623284786153
 30
0.0
 11
3194.350928661115
 21
1486.956618119486
 31
0.0
 12
3244.350928661115
 22
1495.289951452819
 32
0.0
 13
3244.350928661115
 23
1495.289951452819
 33
0.0
  0
MTEXT
  5
A00
330
83C
100
AcDbEntity
  8
SUNPO
 62
     7
100
AcDbMText
 10
3154.350928661115
 20
1532.789951452819
 30
0.0
 40
50.0
 41
0.0
 71
     5
 72
     1
  1
\A2;180
  7
ADD
1001
ACAD
1000
MTEXTBEGIN
1070
    73
1070
     1
1070
    44
1040
1.0
1070
    74
1070
     0
1000
MTEXTEND
1000
MTEXTBEGIN
1070
    73
1070
     1
1070
    44
1040
1.0
1070
    74
1070
     0
1000
MTEXTEND
  0
POINT
  5
A01
330
83C
100
AcDbEntity
  8
DEFPOINTS
 62
     0
100
AcDbPoint
 10
3064.350928661115
 20
2146.704037351997
 30
0.0
  0
POINT
  5
A02
330
83C
100
AcDbEntity
  8
DEFPOINTS
 62
     0
100
AcDbPoint
 10
3244.350928661115
 20
2146.704037351997
 30
0.0
  0
POINT
  5
A03
330
83C
100
AcDbEntity
  8
DEFPOINTS
 62
     0
100
AcDbPoint
 10
3244.350928661115
 20
1495.289951452819
 30
0.0
  0
ENDBLK
  5
847
330
83C
100
AcDbEntity
  8
0
100
AcDbBlockEnd
  0
BLOCK
  5
913
330
907
100
AcDbEntity
  8
0
100
AcDbBlockBegin
  2
*D23
 70
     1
 10
0.0
 20
0.0
 30
0.0
  3
*D23
  1

  0
LINE
  5
9F0
330
907
100
AcDbEntity
  8
SUNPO
 62
   144
100
AcDbLine
 10
4134.350928661115
 20
2356.704037351997
 30
0.0
 11
4134.350928661115
 21
2555.19551175563
 31
0.0
  0
LINE
  5
9F1
330
907
100
AcDbEntity
  8
SUNPO
 62
   144
100
AcDbLine
 10
4154.350928661115
 20
2356.704037351997
 30
0.0
 11
4154.350928661115
 21
2555.19551175563
 31
0.0
  0
LINE
  5
9F2
330
907
100
AcDbEntity
  8
SUNPO
 62
   144
100
AcDbLine
 10
4084.350928661115
 20
2545.195511755629
 30
0.0
 11
4034.350928661114
 21
2545.195511755629
 31
0.0
  0
LINE
  5
9F3
330
907
100
AcDbEntity
  8
SUNPO
 62
   144
100
AcDbLine
 10
4204.350928661116
 20
2545.195511755629
 30
0.0
 11
4254.350928661116
 21
2545.195511755629
 31
0.0
  0
MTEXT
  5
9F4
330
907
100
AcDbEntity
  8
SUNPO
 62
     7
100
AcDbMText
 10
4226.145962176604
 20
2598.94551175563
 30
0.0
 40
50.0
 41
0.0
 71
     5
 72
     1
  1
\A2;20
  7
ADD
1001
ACAD
1000
MTEXTBEGIN
1070
    73
1070
     1
1070
    44
1040
1.0
1070
    74
1070
     0
1000
MTEXTEND
1000
MTEXTBEGIN
1070
    73
1070
     1
1070
    44
1040
1.0
1070
    74
1070
     0
1000
MTEXTEND
  0
LINE
  5
9F5
330
907
100
AcDbEntity
  8
SUNPO
 62
   144
100
AcDbLine
 10
4134.350928661115
 20
2545.195511755629
 30
0.0
 11
4154.350928661115
 21
2545.195511755629
 31
0.0
  0
SOLID
  5
9F6
330
907
100
AcDbEntity
  8
SUNPO
 62
   144
100
AcDbTrace
 10
4084.350928661115
 20
2553.528845088963
 30
0.0
 11
4084.350928661115
 21
2536.862178422296
 31
0.0
 12
4134.350928661115
 22
2545.195511755629
 32
0.0
 13
4134.350928661115
 23
2545.195511755629
 33
0.0
  0
SOLID
  5
9F7
330
907
100
AcDbEntity
  8
SUNPO
 62
   144
100
AcDbTrace
 10
4204.350928661116
 20
2553.528845088963
 30
0.0
 11
4204.350928661116
 21
2536.862178422296
 31
0.0
 12
4154.350928661115
 22
2545.195511755629
 32
0.0
 13
4154.350928661115
 23
2545.195511755629
 33
0.0
  0
POINT
  5
9F8
330
907
100
AcDbEntity
  8
DEFPOINTS
 62
     0
100
AcDbPoint
 10
4134.350928661115
 20
2336.704037351997
 30
0.0
  0
POINT
  5
9F9
330
907
100
AcDbEntity
  8
DEFPOINTS
 62
     0
100
AcDbPoint
 10
4154.350928661115
 20
2336.704037351997
 30
0.0
  0
POINT
  5
9FA
330
907
100
AcDbEntity
  8
DEFPOINTS
 62
     0
100
AcDbPoint
 10
4154.350928661115
 20
2545.195511755629
 30
0.0
  0
ENDBLK
  5
914
330
907
100
AcDbEntity
  8
0
100
AcDbBlockEnd
  0
BLOCK
  5
922
330
916
100
AcDbEntity
  8
0
100
AcDbBlockBegin
  2
*D24
 70
     1
 10
0.0
 20
0.0
 30
0.0
  3
*D24
  1

  0
LINE
  5
9E5
330
916
100
AcDbEntity
  8
SUNPO
 62
   144
100
AcDbLine
 10
4153.518317766872
 20
2356.686698813843
 30
0.0
 11
4320.970632581214
 21
2356.686698813843
 31
0.0
  0
LINE
  5
9E6
330
916
100
AcDbEntity
  8
SUNPO
 62
   144
100
AcDbLine
 10
4153.518317766872
 20
2336.704037351997
 30
0.0
 11
4320.970632581214
 21
2336.704037351997
 31
0.0
  0
LINE
  5
9E7
330
916
100
AcDbEntity
  8
SUNPO
 62
   144
100
AcDbLine
 10
4310.970632581215
 20
2406.686698813844
 30
0.0
 11
4310.970632581215
 21
2456.686698813844
 31
0.0
  0
LINE
  5
9E8
330
916
100
AcDbEntity
  8
SUNPO
 62
   144
100
AcDbLine
 10
4310.970632581215
 20
2286.704037351997
 30
0.0
 11
4310.970632581215
 21
2236.704037351997
 31
0.0
  0
MTEXT
  5
9E9
330
916
100
AcDbEntity
  8
SUNPO
 62
     7
100
AcDbMText
 10
4268.141136187496
 20
2419.998134298841
 30
0.0
 40
50.0
 41
0.0
 71
     5
 72
     1
  1
\A2;20
  7
ADD
 11
0.0000000000000001
 21
1.0
 31
0.0
1001
ACAD
1000
MTEXTBEGIN
1070
    73
1070
     1
1070
    44
1040
1.0
1070
    74
1070
     0
1000
MTEXTEND
1000
MTEXTBEGIN
1070
    73
1070
     1
1070
    44
1040
1.0
1070
    74
1070
     0
1000
MTEXTEND
  0
LINE
  5
9EA
330
916
100
AcDbEntity
  8
SUNPO
 62
   144
100
AcDbLine
 10
4310.970632581215
 20
2356.686698813843
 30
0.0
 11
4310.970632581215
 21
2336.704037351997
 31
0.0
  0
SOLID
  5
9EB
330
916
100
AcDbEntity
  8
SUNPO
 62
   144
100
AcDbTrace
 10
4302.637299247882
 20
2406.686698813844
 30
0.0
 11
4319.303965914548
 21
2406.686698813844
 31
0.0
 12
4310.970632581215
 22
2356.686698813843
 32
0.0
 13
4310.970632581215
 23
2356.686698813843
 33
0.0
  0
SOLID
  5
9EC
330
916
100
AcDbEntity
  8
SUNPO
 62
   144
100
AcDbTrace
 10
4302.637299247882
 20
2286.704037351997
 30
0.0
 11
4319.303965914548
 21
2286.704037351997
 31
0.0
 12
4310.970632581215
 22
2336.704037351997
 32
0.0
 13
4310.970632581215
 23
2336.704037351997
 33
0.0
  0
POINT
  5
9ED
330
916
100
AcDbEntity
  8
DEFPOINTS
 62
     0
100
AcDbPoint
 10
4133.518317766872
 20
2356.686698813843
 30
0.0
  0
POINT
  5
9EE
330
916
100
AcDbEntity
  8
DEFPOINTS
 62
     0
100
AcDbPoint
 10
4133.518317766872
 20
2336.704037351997
 30
0.0
  0
POINT
  5
9EF
330
916
100
AcDbEntity
  8
DEFPOINTS
 62
     0
100
AcDbPoint
 10
4310.970632581215
 20
2336.704037351997
 30
0.0
  0
ENDBLK
  5
923
330
916
100
AcDbEntity
  8
0
100
AcDbBlockEnd
  0
ENDSEC
  0
SECTION
  2
ENTITIES
  0
LINE
  5
5EE
330
1F
100
AcDbEntity
  8
HOJO
100
AcDbLine
 10
2820.0
 20
260.0
 30
0.0
 11
8040.0
 21
260.0
 31
0.0
  0
LINE
  5
5EF
330
1F
100
AcDbEntity
  8
HOJO
100
AcDbLine
 10
2820.0
 20
560.0
 30
0.0
 11
8040.0
 21
560.0
 31
0.0
  0
LINE
  5
5F0
330
1F
100
AcDbEntity
  8
HOJO
100
AcDbLine
 10
2820.0
 20
260.0
 30
0.0
 11
2820.0
 21
560.0
 31
0.0
  0
LINE
  5
5F1
330
1F
100
AcDbEntity
  8
HOJO
100
AcDbLine
 10
4820.0
 20
260.0
 30
0.0
 11
4820.0
 21
560.0
 31
0.0
  0
LINE
  5
5F2
330
1F
100
AcDbEntity
  8
HOJO
100
AcDbLine
 10
5620.0
 20
260.0
 30
0.0
 11
5620.0
 21
560.0
 31
0.0
  0
LINE
  5
5F3
330
1F
100
AcDbEntity
  8
HOJO
100
AcDbLine
 10
6120.0
 20
260.0
 30
0.0
 11
6120.0
 21
560.0
 31
0.0
  0
LINE
  5
60A
330
1F
100
AcDbEntity
  8
3C1
100
AcDbLine
 10
3944.350928661115
 20
3536.704037351997
 30
0.0
 11
3944.350928661115
 21
2146.704037351997
 31
0.0
  0
LINE
  5
60B
330
1F
100
AcDbEntity
  8
3C1
100
AcDbLine
 10
3944.350928661115
 20
2146.704037351997
 30
0.0
 11
6024.350928661115
 21
2146.704037351997
 31
0.0
  0
LINE
  5
60C
330
1F
100
AcDbEntity
  8
3C1
100
AcDbLine
 10
6024.350928661115
 20
2146.704037351997
 30
0.0
 11
6024.350928661115
 21
3536.704037351997
 31
0.0
  0
LINE
  5
60D
330
1F
100
AcDbEntity
  8
3C1
100
AcDbLine
 10
3944.350928661115
 20
3536.704037351997
 30
0.0
 11
4084.350928661115
 21
3536.704037351997
 31
0.0
  0
LINE
  5
60E
330
1F
100
AcDbEntity
  8
3C1
100
AcDbLine
 10
6024.350928661115
 20
3536.704037351997
 30
0.0
 11
5884.350928661115
 21
3536.704037351997
 31
0.0
  0
LINE
  5
611
330
1F
100
AcDbEntity
  8
3C1
100
AcDbLine
 10
4133.518317766872
 20
2336.704037351997
 30
0.0
 11
5814.350928661116
 21
2336.704037351997
 31
0.0
  0
LINE
  5
612
330
1F
100
AcDbEntity
  8
3C1
100
AcDbLine
 10
4084.350928661115
 20
3536.704037351997
 30
0.0
 11
4133.518317766872
 21
2356.686698813843
 31
0.0
  0
LINE
  5
613
330
1F
100
AcDbEntity
  8
3C1
100
AcDbLine
 10
5884.350928661115
 20
3536.704037351997
 30
0.0
 11
5835.183539555359
 21
2356.686698813844
 31
0.0
  0
LINE
  5
614
330
1F
100
AcDbEntity
  8
3C1
100
AcDbLine
 10
4024.298867913794
 20
3536.704037351997
 30
0.0
 11
4074.298867913794
 21
2336.704037351997
 31
0.0
  0
LINE
  5
615
330
1F
100
AcDbEntity
  8
3C1
100
AcDbLine
 10
5944.402989408438
 20
3536.704037351997
 30
0.0
 11
5894.402989408436
 21
2336.704037351997
 31
0.0
  0
LINE
  5
617
330
1F
100
AcDbEntity
  8
3C1
100
AcDbLine
 10
3944.350928661115
 20
2736.704037351997
 30
0.0
 11
3997.580140499804
 21
2736.704037351997
 31
0.0
  0
LINE
  5
618
330
1F
100
AcDbEntity
  8
3C1
100
AcDbLine
 10
3997.580140499804
 20
2736.704037351997
 30
0.0
 11
4014.246807166471
 21
2336.704037351997
 31
0.0
  0
LINE
  5
619
330
1F
100
AcDbEntity
  8
3C1
100
AcDbLine
 10
5971.121716822426
 20
2736.704037351997
 30
0.0
 11
5954.455050155759
 21
2336.704037351997
 31
0.0
  0
LINE
  5
61A
330
1F
100
AcDbEntity
  8
3C1
100
AcDbLine
 10
5971.121716822427
 20
2736.704037351997
 30
0.0
 11
6024.350928661115
 21
2736.704037351997
 31
0.0
  0
LINE
  5
61B
330
1F
100
AcDbEntity
  8
3C1
100
AcDbLine
 10
4133.518317766872
 20
2356.686698813843
 30
0.0
 11
4154.350928661115
 21
2336.704037351997
 31
0.0
  0
LINE
  5
61C
330
1F
100
AcDbEntity
  8
3C1
100
AcDbLine
 10
5835.183539555359
 20
2356.686698813844
 30
0.0
 11
5814.350928661116
 21
2336.704037351997
 31
0.0
  0
LINE
  5
61E
330
1F
100
AcDbEntity
  8
3C1
100
AcDbLine
 10
4074.298867913794
 20
2336.704037351997
 30
0.0
 11
4014.246807166471
 21
2336.704037351997
 31
0.0
  0
LINE
  5
61F
330
1F
100
AcDbEntity
  8
3C1
100
AcDbLine
 10
5894.402989408436
 20
2336.704037351997
 30
0.0
 11
5954.455050155759
 21
2336.704037351997
 31
0.0
  0
LINE
  5
621
330
1F
100
AcDbEntity
  8
3C1
100
AcDbLine
 10
3244.350928661115
 20
3536.704037351997
 30
0.0
 11
3244.350928661115
 21
2146.704037351997
 31
0.0
  0
LINE
  5
622
330
1F
100
AcDbEntity
  8
3C1
100
AcDbLine
 10
3244.350928661115
 20
2146.704037351997
 30
0.0
 11
3064.350928661115
 21
2146.704037351997
 31
0.0
  0
LINE
  5
623
330
1F
100
AcDbEntity
  8
3C1
100
AcDbLine
 10
3064.350928661115
 20
2146.704037351997
 30
0.0
 11
3064.350928661115
 21
3536.704037351997
 31
0.0
  0
LINE
  5
624
330
1F
100
AcDbEntity
  8
3C1
100
AcDbLine
 10
3064.350928661115
 20
3536.704037351997
 30
0.0
 11
3244.350928661115
 21
3536.704037351997
 31
0.0
  0
LINE
  5
625
330
1F
100
AcDbEntity
  8
3C1
100
AcDbLine
 10
3244.350928661115
 20
2336.704037351997
 30
0.0
 11
3194.350928661116
 21
2336.704037351997
 31
0.0
  0
LINE
  5
62A
330
1F
100
AcDbEntity
  8
3C1
100
AcDbLine
 10
3114.350928661116
 20
2336.704037351997
 30
0.0
 11
3064.350928661115
 21
2336.704037351997
 31
0.0
  0
LINE
  5
62C
330
1F
100
AcDbEntity
  8
3C1
100
AcDbLine
 10
3244.350928661115
 20
2736.704037351997
 30
0.0
 11
3064.350928661115
 21
2736.704037351997
 31
0.0
  0
LINE
  5
6C7
330
1F
100
AcDbEntity
  8
3C1
100
AcDbLine
 10
3114.350928661115
 20
2736.704037351997
 30
0.0
 11
3114.350928661115
 21
3536.704037351997
 31
0.0
  0
LINE
  5
6C8
330
1F
100
AcDbEntity
  8
3C1
100
AcDbLine
 10
3194.350928661115
 20
3536.704037351997
 30
0.0
 11
3194.350928661116
 21
2736.704037351997
 31
0.0
  0
LINE
  5
6C9
330
1F
100
AcDbEntity
  8
3C1
100
AcDbLine
 10
3119.350928661115
 20
2736.704037351997
 30
0.0
 11
3119.350928661115
 21
3536.704037351997
 31
0.0
  0
LINE
  5
6CA
330
1F
100
AcDbEntity
  8
3C1
100
AcDbLine
 10
3189.350928661115
 20
3536.704037351997
 30
0.0
 11
3189.350928661115
 21
2736.704037351997
 31
0.0
  0
LINE
  5
6CB
330
1F
100
AcDbEntity
  8
4H1
100
AcDbLine
 10
3114.350928661115
 20
2736.704037351997
 30
0.0
 11
3114.350928661116
 21
2336.704037351997
 31
0.0
  0
LINE
  5
6CC
330
1F
100
AcDbEntity
  8
4H1
100
AcDbLine
 10
3194.350928661116
 20
2736.704037351997
 30
0.0
 11
3194.350928661116
 21
2336.704037351997
 31
0.0
  0
LINE
  5
903
330
1F
100
AcDbEntity
  8
SUNPO
100
AcDbLine
 10
4133.518317766872
 20
2356.686698813843
 30
0.0
 11
4133.518317766872
 21
2334.594309907614
 31
0.0
  0
LINE
  5
904
330
1F
100
AcDbEntity
  8
SUNPO
100
AcDbLine
 10
5835.183539555359
 20
2356.686698813844
 30
0.0
 11
5835.183539555359
 21
2332.789610967445
 31
0.0
  0
LINE
  5
905
330
1F
100
AcDbEntity
  8
SUNPO
100
AcDbLine
 10
5814.350928661116
 20
2336.704037351997
 30
0.0
 11
5842.855957579551
 21
2336.704037351997
 31
0.0
  0
LINE
  5
C0C
330
1F
100
AcDbEntity
  8
SUNPO
 62
   144
100
AcDbLine
 10
4153.518317766872
 20
2356.686698813843
 30
0.0
 11
4320.970632581214
 21
2356.686698813843
 31
0.0
  0
LINE
  5
C0D
330
1F
100
AcDbEntity
  8
SUNPO
 62
   144
100
AcDbLine
 10
4153.518317766872
 20
2336.704037351997
 30
0.0
 11
4320.970632581214
 21
2336.704037351997
 31
0.0
  0
LINE
  5
C0E
330
1F
100
AcDbEntity
  8
SUNPO
 62
   144
100
AcDbLine
 10
4310.970632581215
 20
2406.686698813844
 30
0.0
 11
4310.970632581215
 21
2456.686698813844
 31
0.0
  0
LINE
  5
C0F
330
1F
100
AcDbEntity
  8
SUNPO
 62
   144
100
AcDbLine
 10
4310.970632581215
 20
2286.704037351997
 30
0.0
 11
4310.970632581215
 21
2236.704037351997
 31
0.0
  0
LINE
  5
C11
330
1F
100
AcDbEntity
  8
SUNPO
 62
   144
100
AcDbLine
 10
4310.970632581215
 20
2356.686698813843
 30
0.0
 11
4310.970632581215
 21
2336.704037351997
 31
0.0
  0
SOLID
  5
C12
330
1F
100
AcDbEntity
  8
SUNPO
 62
   144
100
AcDbTrace
 10
4302.637299247882
 20
2406.686698813844
 30
0.0
 11
4319.303965914548
 21
2406.686698813844
 31
0.0
 12
4310.970632581215
 22
2356.686698813843
 32
0.0
 13
4310.970632581215
 23
2356.686698813843
 33
0.0
  0
SOLID
  5
C13
330
1F
100
AcDbEntity
  8
SUNPO
 62
   144
100
AcDbTrace
 10
4302.637299247882
 20
2286.704037351997
 30
0.0
 11
4319.303965914548
 21
2286.704037351997
 31
0.0
 12
4310.970632581215
 22
2336.704037351997
 32
0.0
 13
4310.970632581215
 23
2336.704037351997
 33
0.0
  0
LINE
  5
C14
330
1F
100
AcDbEntity
  8
SUNPO
 62
   144
100
AcDbLine
 10
4134.350928661115
 20
2356.704037351997
 30
0.0
 11
4134.350928661115
 21
2555.19551175563
 31
0.0
  0
LINE
  5
C15
330
1F
100
AcDbEntity
  8
SUNPO
 62
   144
100
AcDbLine
 10
4154.350928661115
 20
2356.704037351997
 30
0.0
 11
4154.350928661115
 21
2555.19551175563
 31
0.0
  0
LINE
  5
C16
330
1F
100
AcDbEntity
  8
SUNPO
 62
   144
100
AcDbLine
 10
4084.350928661115
 20
2545.195511755629
 30
0.0
 11
4034.350928661114
 21
2545.195511755629
 31
0.0
  0
LINE
  5
C17
330
1F
100
AcDbEntity
  8
SUNPO
 62
   144
100
AcDbLine
 10
4204.350928661116
 20
2545.195511755629
 30
0.0
 11
4254.350928661116
 21
2545.195511755629
 31
0.0
  0
LINE
  5
C19
330
1F
100
AcDbEntity
  8
SUNPO
 62
   144
100
AcDbLine
 10
4134.350928661115
 20
2545.195511755629
 30
0.0
 11
4154.350928661115
 21
2545.195511755629
 31
0.0
  0
SOLID
  5
C1A
330
1F
100
AcDbEntity
  8
SUNPO
 62
   144
100
AcDbTrace
 10
4084.350928661115
 20
2553.528845088963
 30
0.0
 11
4084.350928661115
 21
2536.862178422296
 31
0.0
 12
4134.350928661115
 22
2545.195511755629
 32
0.0
 13
4134.350928661115
 23
2545.195511755629
 33
0.0
  0
SOLID
  5
C1B
330
1F
100
AcDbEntity
  8
SUNPO
 62
   144
100
AcDbTrace
 10
4204.350928661116
 20
2553.528845088963
 30
0.0
 11
4204.350928661116
 21
2536.862178422296
 31
0.0
 12
4154.350928661115
 22
2545.195511755629
 32
0.0
 13
4154.350928661115
 23
2545.195511755629
 33
0.0
  0
LINE
  5
C1C
330
1F
100
AcDbEntity
  8
SUNPO
 62
   144
100
AcDbLine
 10
3064.350928661115
 20
2126.704037351997
 30
0.0
 11
3064.350928661115
 21
1485.289951452819
 31
0.0
  0
LINE
  5
C1D
330
1F
100
AcDbEntity
  8
SUNPO
 62
   144
100
AcDbLine
 10
3244.350928661115
 20
2126.704037351997
 30
0.0
 11
3244.350928661115
 21
1485.289951452819
 31
0.0
  0
LINE
  5
C1E
330
1F
100
AcDbEntity
  8
SUNPO
 62
   144
100
AcDbLine
 10
3114.350928661115
 20
1495.289951452819
 30
0.0
 11
3194.350928661115
 21
1495.289951452819
 31
0.0
  0
SOLID
  5
C1F
330
1F
100
AcDbEntity
  8
SUNPO
 62
   144
100
AcDbTrace
 10
3114.350928661115
 20
1503.623284786153
 30
0.0
 11
3114.350928661115
 21
1486.956618119486
 31
0.0
 12
3064.350928661115
 22
1495.289951452819
 32
0.0
 13
3064.350928661115
 23
1495.289951452819
 33
0.0
  0
SOLID
  5
C20
330
1F
100
AcDbEntity
  8
SUNPO
 62
   144
100
AcDbTrace
 10
3194.350928661115
 20
1503.623284786153
 30
0.0
 11
3194.350928661115
 21
1486.956618119486
 31
0.0
 12
3244.350928661115
 22
1495.289951452819
 32
0.0
 13
3244.350928661115
 23
1495.289951452819
 33
0.0
  0
TEXT
  5
C22
330
1F
100
AcDbEntity
  8
SUNPO
100
AcDbText
 10
4898.679199135079
 20
400.1974043454484
 30
0.0
 40
50.0
  1
1200×1800
  7
ADD
100
AcDbText
1001
ACAD
1000
MTEXTBEGIN
1070
    73
1070
     1
1070
    44
1040
1.0
1070
    74
1070
     0
1000
MTEXTEND
  0
TEXT
  5
C23
330
1F
100
AcDbEntity
  8
SUNPO
100
AcDbText
 10
3020.517198101376
 20
396.3952300264427
 30
0.0
 40
50.0
  1
B型柵渠 杭
  7
ADD
100
AcDbText
1001
ACAD
1000
MTEXTBEGIN
1070
    73
1070
     1
1070
    44
1040
1.0
1070
    74
1070
     0
1000
MTEXTEND
  0
LINE
  5
C24
330
1F
100
AcDbEntity
  8
SUNPO
 62
   144
100
AcDbLine
 10
5834.350928661115
 20
2126.704037351997
 30
0.0
 11
5834.350928661115
 21
1806.94987142092
 31
0.0
  0
LINE
  5
C25
330
1F
100
AcDbEntity
  8
SUNPO
 62
   144
100
AcDbLine
 10
6024.350928661115
 20
2106.704037351997
 30
0.0
 11
6024.350928661115
 21
1806.94987142092
 31
0.0
  0
LINE
  5
C26
330
1F
100
AcDbEntity
  8
SUNPO
 62
   144
100
AcDbLine
 10
5884.350928661115
 20
1816.94987142092
 30
0.0
 11
5974.350928661115
 21
1816.94987142092
 31
0.0
  0
SOLID
  5
C27
330
1F
100
AcDbEntity
  8
SUNPO
 62
   144
100
AcDbTrace
 10
5884.350928661115
 20
1825.283204754253
 30
0.0
 11
5884.350928661115
 21
1808.616538087587
 31
0.0
 12
5834.350928661115
 22
1816.94987142092
 32
0.0
 13
5834.350928661115
 23
1816.94987142092
 33
0.0
  0
SOLID
  5
C28
330
1F
100
AcDbEntity
  8
SUNPO
 62
   144
100
AcDbTrace
 10
5974.350928661115
 20
1825.283204754253
 30
0.0
 11
5974.350928661115
 21
1808.616538087587
 31
0.0
 12
6024.350928661115
 22
1816.94987142092
 32
0.0
 13
6024.350928661115
 23
1816.94987142092
 33
0.0
  0
LINE
  5
C2A
330
1F
100
AcDbEntity
  8
SUNPO
 62
   144
100
AcDbLine
 10
4134.350928661115
 20
2126.704037351997
 30
0.0
 11
4134.350928661115
 21
1806.94987142092
 31
0.0
  0
LINE
  5
C2B
330
1F
100
AcDbEntity
  8
SUNPO
 62
   144
100
AcDbLine
 10
5834.350928661115
 20
2126.704037351997
 30
0.0
 11
5834.350928661115
 21
1806.94987142092
 31
0.0
  0
LINE
  5
C2C
330
1F
100
AcDbEntity
  8
SUNPO
 62
   144
100
AcDbLine
 10
4184.350928661115
 20
1816.94987142092
 30
0.0
 11
5784.350928661115
 21
1816.94987142092
 31
0.0
  0
SOLID
  5
C2D
330
1F
100
AcDbEntity
  8
SUNPO
 62
   144
100
AcDbTrace
 10
4184.350928661115
 20
1825.283204754253
 30
0.0
 11
4184.350928661115
 21
1808.616538087587
 31
0.0
 12
4134.350928661115
 22
1816.94987142092
 32
0.0
 13
4134.350928661115
 23
1816.94987142092
 33
0.0
  0
SOLID
  5
C2E
330
1F
100
AcDbEntity
  8
SUNPO
 62
   144
100
AcDbTrace
 10
5784.350928661115
 20
1825.283204754253
 30
0.0
 11
5784.350928661115
 21
1808.616538087587
 31
0.0
 12
5834.350928661115
 22
1816.94987142092
 32
0.0
 13
5834.350928661115
 23
1816.94987142092
 33
0.0
  0
LINE
  5
C30
330
1F
100
AcDbEntity
  8
SUNPO
 62
   144
100
AcDbLine
 10
3944.350928661115
 20
2126.704037351997
 30
0.0
 11
3944.350928661115
 21
1806.94987142092
 31
0.0
  0
LINE
  5
C31
330
1F
100
AcDbEntity
  8
SUNPO
 62
   144
100
AcDbLine
 10
4134.350928661115
 20
2126.704037351997
 30
0.0
 11
4134.350928661115
 21
1806.94987142092
 31
0.0
  0
LINE
  5
C32
330
1F
100
AcDbEntity
  8
SUNPO
 62
   144
100
AcDbLine
 10
3994.350928661115
 20
1816.94987142092
 30
0.0
 11
4084.350928661115
 21
1816.94987142092
 31
0.0
  0
SOLID
  5
C33
330
1F
100
AcDbEntity
  8
SUNPO
 62
   144
100
AcDbTrace
 10
3994.350928661115
 20
1825.283204754253
 30
0.0
 11
3994.350928661115
 21
1808.616538087587
 31
0.0
 12
3944.350928661115
 22
1816.94987142092
 32
0.0
 13
3944.350928661115
 23
1816.94987142092
 33
0.0
  0
SOLID
  5
C34
330
1F
100
AcDbEntity
  8
SUNPO
 62
   144
100
AcDbTrace
 10
4084.350928661115
 20
1825.283204754253
 30
0.0
 11
4084.350928661115
 21
1808.616538087587
 31
0.0
 12
4134.350928661115
 22
1816.94987142092
 32
0.0
 13
4134.350928661115
 23
1816.94987142092
 33
0.0
  0
LINE
  5
C36
330
1F
100
AcDbEntity
  8
SUNPO
 62
   144
100
AcDbLine
 10
3944.350928661115
 20
2126.704037351997
 30
0.0
 11
3944.350928661115
 21
1485.289951452819
 31
0.0
  0
LINE
  5
C37
330
1F
100
AcDbEntity
  8
SUNPO
 62
   144
100
AcDbLine
 10
6024.350928661115
 20
2126.704037351997
 30
0.0
 11
6024.350928661115
 21
1485.289951452819
 31
0.0
  0
LINE
  5
C38
330
1F
100
AcDbEntity
  8
SUNPO
 62
   144
100
AcDbLine
 10
3994.350928661115
 20
1495.289951452819
 30
0.0
 11
5974.350928661115
 21
1495.289951452819
 31
0.0
  0
SOLID
  5
C39
330
1F
100
AcDbEntity
  8
SUNPO
 62
   144
100
AcDbTrace
 10
3994.350928661115
 20
1503.623284786153
 30
0.0
 11
3994.350928661115
 21
1486.956618119486
 31
0.0
 12
3944.350928661115
 22
1495.289951452819
 32
0.0
 13
3944.350928661115
 23
1495.289951452819
 33
0.0
  0
SOLID
  5
C3A
330
1F
100
AcDbEntity
  8
SUNPO
 62
   144
100
AcDbTrace
 10
5974.350928661115
 20
1503.623284786153
 30
0.0
 11
5974.350928661115
 21
1486.956618119486
 31
0.0
 12
6024.350928661115
 22
1495.289951452819
 32
0.0
 13
6024.350928661115
 23
1495.289951452819
 33
0.0
  0
LINE
  5
C3C
330
1F
100
AcDbEntity
  8
SUNPO
 62
   144
100
AcDbLine
 10
3924.350928661115
 20
2336.704037351997
 30
0.0
 11
3753.49658375886
 21
2336.704037351997
 31
0.0
  0
LINE
  5
C3D
330
1F
100
AcDbEntity
  8
SUNPO
 62
   144
100
AcDbLine
 10
3924.350928661115
 20
3536.704037351997
 30
0.0
 11
3753.496583758861
 21
3536.704037351997
 31
0.0
  0
LINE
  5
C3E
330
1F
100
AcDbEntity
  8
SUNPO
 62
   144
100
AcDbLine
 10
3763.496583758861
 20
2386.704037351997
 30
0.0
 11
3763.496583758861
 21
3486.704037351997
 31
0.0
  0
SOLID
  5
C3F
330
1F
100
AcDbEntity
  8
SUNPO
 62
   144
100
AcDbTrace
 10
3755.163250425527
 20
2386.704037351997
 30
0.0
 11
3771.829917092194
 21
2386.704037351997
 31
0.0
 12
3763.496583758861
 22
2336.704037351997
 32
0.0
 13
3763.496583758861
 23
2336.704037351997
 33
0.0
  0
SOLID
  5
C40
330
1F
100
AcDbEntity
  8
SUNPO
 62
   144
100
AcDbTrace
 10
3755.163250425527
 20
3486.704037351997
 30
0.0
 11
3771.829917092194
 21
3486.704037351997
 31
0.0
 12
3763.496583758861
 22
3536.704037351997
 32
0.0
 13
3763.496583758861
 23
3536.704037351997
 33
0.0
  0
LINE
  5
C42
330
1F
100
AcDbEntity
  8
SUNPO
 62
   144
100
AcDbLine
 10
3924.350928661115
 20
2146.704037351997
 30
0.0
 11
3753.49658375886
 21
2146.704037351997
 31
0.0
  0
LINE
  5
C43
330
1F
100
AcDbEntity
  8
SUNPO
 62
   144
100
AcDbLine
 10
3924.350928661115
 20
2336.704037351997
 30
0.0
 11
3753.49658375886
 21
2336.704037351997
 31
0.0
  0
LINE
  5
C44
330
1F
100
AcDbEntity
  8
SUNPO
 62
   144
100
AcDbLine
 10
3763.496583758861
 20
2196.704037351997
 30
0.0
 11
3763.496583758861
 21
2286.704037351997
 31
0.0
  0
SOLID
  5
C45
330
1F
100
AcDbEntity
  8
SUNPO
 62
   144
100
AcDbTrace
 10
3755.163250425527
 20
2196.704037351997
 30
0.0
 11
3771.829917092194
 21
2196.704037351997
 31
0.0
 12
3763.496583758861
 22
2146.704037351997
 32
0.0
 13
3763.496583758861
 23
2146.704037351997
 33
0.0
  0
SOLID
  5
C46
330
1F
100
AcDbEntity
  8
SUNPO
 62
   144
100
AcDbTrace
 10
3755.163250425527
 20
2286.704037351997
 30
0.0
 11
3771.829917092194
 21
2286.704037351997
 31
0.0
 12
3763.496583758861
 22
2336.704037351997
 32
0.0
 13
3763.496583758861
 23
2336.704037351997
 33
0.0
  0
LINE
  5
C48
330
1F
100
AcDbEntity
  8
SUNPO
 62
   144
100
AcDbLine
 10
3924.350928661115
 20
3536.704037351997
 30
0.0
 11
3542.025400783696
 21
3536.704037351997
 31
0.0
  0
LINE
  5
C49
330
1F
100
AcDbEntity
  8
SUNPO
 62
   144
100
AcDbLine
 10
3924.350928661115
 20
2146.704037351997
 30
0.0
 11
3542.025400783696
 21
2146.704037351997
 31
0.0
  0
LINE
  5
C4A
330
1F
100
AcDbEntity
  8
SUNPO
 62
   144
100
AcDbLine
 10
3552.025400783696
 20
3486.704037351997
 30
0.0
 11
3552.025400783696
 21
2196.704037351997
 31
0.0
  0
SOLID
  5
C4B
330
1F
100
AcDbEntity
  8
SUNPO
 62
   144
100
AcDbTrace
 10
3543.692067450362
 20
3486.704037351997
 30
0.0
 11
3560.358734117029
 21
3486.704037351997
 31
0.0
 12
3552.025400783696
 22
3536.704037351997
 32
0.0
 13
3552.025400783696
 23
3536.704037351997
 33
0.0
  0
SOLID
  5
C4C
330
1F
100
AcDbEntity
  8
SUNPO
 62
   144
100
AcDbTrace
 10
3543.692067450362
 20
2196.704037351997
 30
0.0
 11
3560.358734117029
 21
2196.704037351997
 31
0.0
 12
3552.025400783696
 22
2146.704037351997
 32
0.0
 13
3552.025400783696
 23
2146.704037351997
 33
0.0
  0
LINE
  5
C4E
330
1F
100
AcDbEntity
  8
SUNPO
 62
   144
100
AcDbLine
 10
3189.350928661115
 20
3556.704037351998
 30
0.0
 11
3189.350928661115
 21
3729.500554544796
 31
0.0
  0
LINE
  5
C4F
330
1F
100
AcDbEntity
  8
SUNPO
 62
   144
100
AcDbLine
 10
3194.350928661115
 20
3556.704037351998
 30
0.0
 11
3194.350928661115
 21
3729.500554544796
 31
0.0
  0
LINE
  5
C50
330
1F
100
AcDbEntity
  8
SUNPO
 62
   144
100
AcDbLine
 10
3139.350928661115
 20
3719.500554544797
 30
0.0
 11
3089.350928661115
 21
3719.500554544797
 31
0.0
  0
LINE
  5
C51
330
1F
100
AcDbEntity
  8
SUNPO
 62
   144
100
AcDbLine
 10
3244.350928661115
 20
3719.500554544797
 30
0.0
 11
3294.350928661115
 21
3719.500554544797
 31
0.0
  0
LINE
  5
C53
330
1F
100
AcDbEntity
  8
SUNPO
 62
   144
100
AcDbLine
 10
3189.350928661115
 20
3719.500554544797
 30
0.0
 11
3194.350928661115
 21
3719.500554544797
 31
0.0
  0
SOLID
  5
C54
330
1F
100
AcDbEntity
  8
SUNPO
 62
   144
100
AcDbTrace
 10
3139.350928661115
 20
3727.83388787813
 30
0.0
 11
3139.350928661115
 21
3711.167221211463
 31
0.0
 12
3189.350928661115
 22
3719.500554544797
 32
0.0
 13
3189.350928661115
 23
3719.500554544797
 33
0.0
  0
SOLID
  5
C55
330
1F
100
AcDbEntity
  8
SUNPO
 62
   144
100
AcDbTrace
 10
3244.350928661115
 20
3727.83388787813
 30
0.0
 11
3244.350928661115
 21
3711.167221211463
 31
0.0
 12
3194.350928661115
 22
3719.500554544797
 32
0.0
 13
3194.350928661115
 23
3719.500554544797
 33
0.0
  0
LINE
  5
C56
330
1F
100
AcDbEntity
  8
SUNPO
 62
   144
100
AcDbLine
 10
3114.350928661115
 20
3556.704037351998
 30
0.0
 11
3114.350928661115
 21
3729.500554544796
 31
0.0
  0
LINE
  5
C57
330
1F
100
AcDbEntity
  8
SUNPO
 62
   144
100
AcDbLine
 10
3119.350928661115
 20
3556.704037351998
 30
0.0
 11
3119.350928661115
 21
3729.500554544796
 31
0.0
  0
LINE
  5
C58
330
1F
100
AcDbEntity
  8
SUNPO
 62
   144
100
AcDbLine
 10
3064.350928661115
 20
3719.500554544797
 30
0.0
 11
3014.350928661115
 21
3719.500554544797
 31
0.0
  0
LINE
  5
C59
330
1F
100
AcDbEntity
  8
SUNPO
 62
   144
100
AcDbLine
 10
3169.350928661115
 20
3719.500554544797
 30
0.0
 11
3219.350928661115
 21
3719.500554544797
 31
0.0
  0
LINE
  5
C5B
330
1F
100
AcDbEntity
  8
SUNPO
 62
   144
100
AcDbLine
 10
3114.350928661115
 20
3719.500554544797
 30
0.0
 11
3119.350928661115
 21
3719.500554544797
 31
0.0
  0
SOLID
  5
C5C
330
1F
100
AcDbEntity
  8
SUNPO
 62
   144
100
AcDbTrace
 10
3064.350928661115
 20
3727.83388787813
 30
0.0
 11
3064.350928661115
 21
3711.167221211463
 31
0.0
 12
3114.350928661115
 22
3719.500554544797
 32
0.0
 13
3114.350928661115
 23
3719.500554544797
 33
0.0
  0
SOLID
  5
C5D
330
1F
100
AcDbEntity
  8
SUNPO
 62
   144
100
AcDbTrace
 10
3169.350928661115
 20
3727.83388787813
 30
0.0
 11
3169.350928661115
 21
3711.167221211463
 31
0.0
 12
3119.350928661115
 22
3719.500554544797
 32
0.0
 13
3119.350928661115
 23
3719.500554544797
 33
0.0
  0
LINE
  5
C5E
330
1F
100
AcDbEntity
  8
SUNPO
 62
   144
100
AcDbLine
 10
3119.350928661115
 20
3556.704037351998
 30
0.0
 11
3119.350928661115
 21
3886.820493210896
 31
0.0
  0
LINE
  5
C5F
330
1F
100
AcDbEntity
  8
SUNPO
 62
   144
100
AcDbLine
 10
3189.350928661115
 20
3556.704037351998
 30
0.0
 11
3189.350928661115
 21
3886.820493210896
 31
0.0
  0
LINE
  5
C60
330
1F
100
AcDbEntity
  8
SUNPO
 62
   144
100
AcDbLine
 10
3069.350928661115
 20
3876.820493210896
 30
0.0
 11
3019.350928661115
 21
3876.820493210896
 31
0.0
  0
LINE
  5
C61
330
1F
100
AcDbEntity
  8
SUNPO
 62
   144
100
AcDbLine
 10
3239.350928661115
 20
3876.820493210896
 30
0.0
 11
3289.350928661114
 21
3876.820493210896
 31
0.0
  0
LINE
  5
C63
330
1F
100
AcDbEntity
  8
SUNPO
 62
   144
100
AcDbLine
 10
3119.350928661115
 20
3876.820493210896
 30
0.0
 11
3189.350928661115
 21
3876.820493210896
 31
0.0
  0
SOLID
  5
C64
330
1F
100
AcDbEntity
  8
SUNPO
 62
   144
100
AcDbTrace
 10
3069.350928661115
 20
3885.15382654423
 30
0.0
 11
3069.350928661115
 21
3868.487159877563
 31
0.0
 12
3119.350928661115
 22
3876.820493210896
 32
0.0
 13
3119.350928661115
 23
3876.820493210896
 33
0.0
  0
SOLID
  5
C65
330
1F
100
AcDbEntity
  8
SUNPO
 62
   144
100
AcDbTrace
 10
3239.350928661115
 20
3885.15382654423
 30
0.0
 11
3239.350928661115
 21
3868.487159877563
 31
0.0
 12
3189.350928661115
 22
3876.820493210896
 32
0.0
 13
3189.350928661115
 23
3876.820493210896
 33
0.0
  0
LINE
  5
C66
330
1F
100
AcDbEntity
  8
SUNPO
 62
   144
100
AcDbLine
 10
3244.350928661115
 20
3556.704037351998
 30
0.0
 11
3244.350928661115
 21
3886.820493210896
 31
0.0
  0
LINE
  5
C67
330
1F
100
AcDbEntity
  8
SUNPO
 62
   144
100
AcDbLine
 10
3194.350928661115
 20
3556.704037351998
 30
0.0
 11
3194.350928661115
 21
3886.820493210896
 31
0.0
  0
LINE
  5
C68
330
1F
100
AcDbEntity
  8
SUNPO
 62
   144
100
AcDbLine
 10
3294.350928661115
 20
3876.820493210896
 30
0.0
 11
3344.350928661115
 21
3876.820493210896
 31
0.0
  0
LINE
  5
C69
330
1F
100
AcDbEntity
  8
SUNPO
 62
   144
100
AcDbLine
 10
3144.350928661115
 20
3876.820493210896
 30
0.0
 11
3094.350928661115
 21
3876.820493210896
 31
0.0
  0
LINE
  5
C6B
330
1F
100
AcDbEntity
  8
SUNPO
 62
   144
100
AcDbLine
 10
3244.350928661115
 20
3876.820493210896
 30
0.0
 11
3194.350928661115
 21
3876.820493210896
 31
0.0
  0
SOLID
  5
C6C
330
1F
100
AcDbEntity
  8
SUNPO
 62
   144
100
AcDbTrace
 10
3294.350928661115
 20
3885.15382654423
 30
0.0
 11
3294.350928661115
 21
3868.487159877563
 31
0.0
 12
3244.350928661115
 22
3876.820493210896
 32
0.0
 13
3244.350928661115
 23
3876.820493210896
 33
0.0
  0
SOLID
  5
C6D
330
1F
100
AcDbEntity
  8
SUNPO
 62
   144
100
AcDbTrace
 10
3144.350928661115
 20
3885.15382654423
 30
0.0
 11
3144.350928661115
 21
3868.487159877563
 31
0.0
 12
3194.350928661115
 22
3876.820493210896
 32
0.0
 13
3194.350928661115
 23
3876.820493210896
 33
0.0
  0
LINE
  5
C6E
330
1F
100
AcDbEntity
  8
SUNPO
 62
   144
100
AcDbLine
 10
3064.350928661115
 20
3556.704037351998
 30
0.0
 11
3064.350928661115
 21
3886.820493210896
 31
0.0
  0
LINE
  5
C6F
330
1F
100
AcDbEntity
  8
SUNPO
 62
   144
100
AcDbLine
 10
3114.350928661115
 20
3556.704037351998
 30
0.0
 11
3114.350928661115
 21
3886.820493210896
 31
0.0
  0
LINE
  5
C70
330
1F
100
AcDbEntity
  8
SUNPO
 62
   144
100
AcDbLine
 10
3014.350928661115
 20
3876.820493210896
 30
0.0
 11
2964.350928661115
 21
3876.820493210896
 31
0.0
  0
LINE
  5
C71
330
1F
100
AcDbEntity
  8
SUNPO
 62
   144
100
AcDbLine
 10
3164.350928661115
 20
3876.820493210896
 30
0.0
 11
3214.350928661115
 21
3876.820493210896
 31
0.0
  0
LINE
  5
C73
330
1F
100
AcDbEntity
  8
SUNPO
 62
   144
100
AcDbLine
 10
3064.350928661115
 20
3876.820493210896
 30
0.0
 11
3114.350928661115
 21
3876.820493210896
 31
0.0
  0
SOLID
  5
C74
330
1F
100
AcDbEntity
  8
SUNPO
 62
   144
100
AcDbTrace
 10
3014.350928661115
 20
3885.15382654423
 30
0.0
 11
3014.350928661115
 21
3868.487159877563
 31
0.0
 12
3064.350928661115
 22
3876.820493210896
 32
0.0
 13
3064.350928661115
 23
3876.820493210896
 33
0.0
  0
SOLID
  5
C75
330
1F
100
AcDbEntity
  8
SUNPO
 62
   144
100
AcDbTrace
 10
3164.350928661115
 20
3885.15382654423
 30
0.0
 11
3164.350928661115
 21
3868.487159877563
 31
0.0
 12
3114.350928661115
 22
3876.820493210896
 32
0.0
 13
3114.350928661115
 23
3876.820493210896
 33
0.0
  0
LINE
  5
C76
330
1F
100
AcDbEntity
  8
SUNPO
 62
   144
100
AcDbLine
 10
3064.350928661115
 20
3556.704037351998
 30
0.0
 11
3064.350928661115
 21
4195.770282403129
 31
0.0
  0
LINE
  5
C77
330
1F
100
AcDbEntity
  8
SUNPO
 62
   144
100
AcDbLine
 10
3244.350928661115
 20
3556.704037351998
 30
0.0
 11
3244.350928661115
 21
4195.770282403129
 31
0.0
  0
LINE
  5
C78
330
1F
100
AcDbEntity
  8
SUNPO
 62
   144
100
AcDbLine
 10
3114.350928661115
 20
4185.770282403129
 30
0.0
 11
3194.350928661115
 21
4185.770282403129
 31
0.0
  0
SOLID
  5
C79
330
1F
100
AcDbEntity
  8
SUNPO
 62
   144
100
AcDbTrace
 10
3114.350928661115
 20
4194.103615736462
 30
0.0
 11
3114.350928661115
 21
4177.436949069796
 31
0.0
 12
3064.350928661115
 22
4185.770282403129
 32
0.0
 13
3064.350928661115
 23
4185.770282403129
 33
0.0
  0
SOLID
  5
C7A
330
1F
100
AcDbEntity
  8
SUNPO
 62
   144
100
AcDbTrace
 10
3194.350928661115
 20
4194.103615736462
 30
0.0
 11
3194.350928661115
 21
4177.436949069796
 31
0.0
 12
3244.350928661115
 22
4185.770282403129
 32
0.0
 13
3244.350928661115
 23
4185.770282403129
 33
0.0
  0
LINE
  5
C7C
330
1F
100
AcDbEntity
  8
SUNPO
 62
   144
100
AcDbLine
 10
5884.350928661115
 20
3556.704037351998
 30
0.0
 11
5884.350928661115
 21
3886.820493210896
 31
0.0
  0
LINE
  5
C7D
330
1F
100
AcDbEntity
  8
SUNPO
 62
   144
100
AcDbLine
 10
5944.402989408438
 20
3556.704037351998
 30
0.0
 11
5944.402989408438
 21
3886.820493210896
 31
0.0
  0
LINE
  5
C7E
330
1F
100
AcDbEntity
  8
SUNPO
 62
   144
100
AcDbLine
 10
5834.350928661115
 20
3876.820493210896
 30
0.0
 11
5784.350928661115
 21
3876.820493210896
 31
0.0
  0
LINE
  5
C7F
330
1F
100
AcDbEntity
  8
SUNPO
 62
   144
100
AcDbLine
 10
5994.402989408437
 20
3876.820493210896
 30
0.0
 11
6044.402989408437
 21
3876.820493210896
 31
0.0
  0
LINE
  5
C81
330
1F
100
AcDbEntity
  8
SUNPO
 62
   144
100
AcDbLine
 10
5884.350928661115
 20
3876.820493210896
 30
0.0
 11
5944.402989408438
 21
3876.820493210896
 31
0.0
  0
SOLID
  5
C82
330
1F
100
AcDbEntity
  8
SUNPO
 62
   144
100
AcDbTrace
 10
5834.350928661115
 20
3885.15382654423
 30
0.0
 11
5834.350928661115
 21
3868.487159877563
 31
0.0
 12
5884.350928661115
 22
3876.820493210896
 32
0.0
 13
5884.350928661115
 23
3876.820493210896
 33
0.0
  0
SOLID
  5
C83
330
1F
100
AcDbEntity
  8
SUNPO
 62
   144
100
AcDbTrace
 10
5994.402989408437
 20
3885.15382654423
 30
0.0
 11
5994.402989408437
 21
3868.487159877563
 31
0.0
 12
5944.402989408438
 22
3876.820493210896
 32
0.0
 13
5944.402989408438
 23
3876.820493210896
 33
0.0
  0
LINE
  5
C84
330
1F
100
AcDbEntity
  8
SUNPO
 62
   144
100
AcDbLine
 10
4024.298867913794
 20
3556.704037351998
 30
0.0
 11
4024.298867913794
 21
3886.820493210896
 31
0.0
  0
LINE
  5
C85
330
1F
100
AcDbEntity
  8
SUNPO
 62
   144
100
AcDbLine
 10
4084.350928661115
 20
3556.704037351998
 30
0.0
 11
4084.350928661115
 21
3886.820493210896
 31
0.0
  0
LINE
  5
C86
330
1F
100
AcDbEntity
  8
SUNPO
 62
   144
100
AcDbLine
 10
3974.298867913793
 20
3876.820493210896
 30
0.0
 11
3924.298867913794
 21
3876.820493210896
 31
0.0
  0
LINE
  5
C87
330
1F
100
AcDbEntity
  8
SUNPO
 62
   144
100
AcDbLine
 10
4134.350928661115
 20
3876.820493210896
 30
0.0
 11
4184.350928661115
 21
3876.820493210896
 31
0.0
  0
LINE
  5
C89
330
1F
100
AcDbEntity
  8
SUNPO
 62
   144
100
AcDbLine
 10
4024.298867913794
 20
3876.820493210896
 30
0.0
 11
4084.350928661115
 21
3876.820493210896
 31
0.0
  0
SOLID
  5
C8A
330
1F
100
AcDbEntity
  8
SUNPO
 62
   144
100
AcDbTrace
 10
3974.298867913793
 20
3885.15382654423
 30
0.0
 11
3974.298867913793
 21
3868.487159877563
 31
0.0
 12
4024.298867913794
 22
3876.820493210896
 32
0.0
 13
4024.298867913794
 23
3876.820493210896
 33
0.0
  0
SOLID
  5
C8B
330
1F
100
AcDbEntity
  8
SUNPO
 62
   144
100
AcDbTrace
 10
4134.350928661115
 20
3885.15382654423
 30
0.0
 11
4134.350928661115
 21
3868.487159877563
 31
0.0
 12
4084.350928661115
 22
3876.820493210896
 32
0.0
 13
4084.350928661115
 23
3876.820493210896
 33
0.0
  0
LINE
  5
C8C
330
1F
100
AcDbEntity
  8
SUNPO
 62
   144
100
AcDbLine
 10
5884.350928661115
 20
3556.704037351998
 30
0.0
 11
5884.350928661115
 21
4196.936949069796
 31
0.0
  0
LINE
  5
C8D
330
1F
100
AcDbEntity
  8
SUNPO
 62
   144
100
AcDbLine
 10
6024.350928661115
 20
3556.704037351998
 30
0.0
 11
6024.350928661115
 21
4196.936949069796
 31
0.0
  0
LINE
  5
C8E
330
1F
100
AcDbEntity
  8
SUNPO
 62
   144
100
AcDbLine
 10
5934.350928661115
 20
4186.936949069795
 30
0.0
 11
5974.350928661115
 21
4186.936949069795
 31
0.0
  0
SOLID
  5
C90
330
1F
100
AcDbEntity
  8
SUNPO
 62
   144
100
AcDbTrace
 10
5934.350928661115
 20
4195.270282403128
 30
0.0
 11
5934.350928661115
 21
4178.603615736462
 31
0.0
 12
5884.350928661115
 22
4186.936949069795
 32
0.0
 13
5884.350928661115
 23
4186.936949069795
 33
0.0
  0
SOLID
  5
C91
330
1F
100
AcDbEntity
  8
SUNPO
 62
   144
100
AcDbTrace
 10
5974.350928661115
 20
4195.270282403128
 30
0.0
 11
5974.350928661115
 21
4178.603615736462
 31
0.0
 12
6024.350928661115
 22
4186.936949069795
 32
0.0
 13
6024.350928661115
 23
4186.936949069795
 33
0.0
  0
LINE
  5
C92
330
1F
100
AcDbEntity
  8
SUNPO
 62
   144
100
AcDbLine
 10
4084.350928661115
 20
3556.704037351998
 30
0.0
 11
4084.350928661115
 21
4196.936949069796
 31
0.0
  0
LINE
  5
C93
330
1F
100
AcDbEntity
  8
SUNPO
 62
   144
100
AcDbLine
 10
5884.350928661115
 20
3556.704037351998
 30
0.0
 11
5884.350928661115
 21
4196.936949069796
 31
0.0
  0
LINE
  5
C94
330
1F
100
AcDbEntity
  8
SUNPO
 62
   144
100
AcDbLine
 10
4134.350928661115
 20
4186.936949069795
 30
0.0
 11
5834.350928661115
 21
4186.936949069795
 31
0.0
  0
SOLID
  5
C95
330
1F
100
AcDbEntity
  8
SUNPO
 62
   144
100
AcDbTrace
 10
4134.350928661115
 20
4195.270282403128
 30
0.0
 11
4134.350928661115
 21
4178.603615736462
 31
0.0
 12
4084.350928661115
 22
4186.936949069795
 32
0.0
 13
4084.350928661115
 23
4186.936949069795
 33
0.0
  0
SOLID
  5
C96
330
1F
100
AcDbEntity
  8
SUNPO
 62
   144
100
AcDbTrace
 10
5834.350928661115
 20
4195.270282403128
 30
0.0
 11
5834.350928661115
 21
4178.603615736462
 31
0.0
 12
5884.350928661115
 22
4186.936949069795
 32
0.0
 13
5884.350928661115
 23
4186.936949069795
 33
0.0
  0
LINE
  5
C98
330
1F
100
AcDbEntity
  8
SUNPO
 62
   144
100
AcDbLine
 10
3944.350928661115
 20
3556.704037351998
 30
0.0
 11
3944.350928661115
 21
4196.936949069796
 31
0.0
  0
LINE
  5
C99
330
1F
100
AcDbEntity
  8
SUNPO
 62
   144
100
AcDbLine
 10
4084.350928661115
 20
3556.704037351998
 30
0.0
 11
4084.350928661115
 21
4196.936949069796
 31
0.0
  0
LINE
  5
C9A
330
1F
100
AcDbEntity
  8
SUNPO
 62
   144
100
AcDbLine
 10
3994.350928661115
 20
4186.936949069795
 30
0.0
 11
4034.350928661114
 21
4186.936949069795
 31
0.0
  0
SOLID
  5
C9C
330
1F
100
AcDbEntity
  8
SUNPO
 62
   144
100
AcDbTrace
 10
3994.350928661115
 20
4195.270282403128
 30
0.0
 11
3994.350928661115
 21
4178.603615736462
 31
0.0
 12
3944.350928661115
 22
4186.936949069795
 32
0.0
 13
3944.350928661115
 23
4186.936949069795
 33
0.0
  0
SOLID
  5
C9D
330
1F
100
AcDbEntity
  8
SUNPO
 62
   144
100
AcDbTrace
 10
4034.350928661114
 20
4195.270282403128
 30
0.0
 11
4034.350928661114
 21
4178.603615736462
 31
0.0
 12
4084.350928661115
 22
4186.936949069795
 32
0.0
 13
4084.350928661115
 23
4186.936949069795
 33
0.0
  0
TEXT
  5
C9E
330
1F
100
AcDbEntity
  8
SUNPO
100
AcDbText
 10
5706.680311730543
 20
359.2274732162223
 30
0.0
 40
70.0
  1
１／２０
  7
ADD
100
AcDbText
1001
ACAD
1000
MTEXTBEGIN
1070
    73
1070
     1
1070
    44
1040
1.0
1070
    74
1070
     0
1000
MTEXTEND
  0
TEXT
  5
C9F
330
1F
100
AcDbEntity
  8
SUNPO
100
AcDbText
 10
2841.886257401154
 20
488.6918916770627
 30
0.0
 40
50.0
  1
製品名
  7
ADD
100
AcDbText
1001
ACAD
1000
MTEXTBEGIN
1070
    73
1070
     1
1070
    44
1040
1.0
1070
    74
1070
     0
1000
MTEXTEND
  0
TEXT
  5
CA0
330
1F
100
AcDbEntity
  8
SUNPO
100
AcDbText
 10
4836.290169028721
 20
494.4531736811823
 30
0.0
 40
50.0
  1
型式
  7
ADD
100
AcDbText
1001
ACAD
1000
MTEXTBEGIN
1070
    73
1070
     1
1070
    44
1040
1.0
1070
    74
1070
     0
1000
MTEXTEND
  0
TEXT
  5
CA1
330
1F
100
AcDbEntity
  8
SUNPO
100
AcDbText
 10
5637.510249231659
 20
488.6918916770627
 30
0.0
 40
50.0
  1
縮尺
  7
ADD
100
AcDbText
1001
ACAD
1000
MTEXTBEGIN
1070
    73
1070
     1
1070
    44
1040
1.0
1070
    74
1070
     0
1000
MTEXTEND
  0
TEXT
  5
CA2
330
1F
100
AcDbEntity
  8
SUNPO
100
AcDbText
 10
6190.870883051571
 20
352.2726133092145
 30
0.0
 40
100.0
  1
千葉県コンクリート製品協同組合
  7
ADD
100
AcDbText
1001
ACAD
1000
MTEXTBEGIN
1070
    73
1070
     1
1070
    44
1040
1.0
1070
    74
1070
     0
1000
MTEXTEND
  0
LINE
  5
CA3
330
1F
100
AcDbEntity
  8
HOJO
100
AcDbLine
 10
360.0
 20
260.0
 30
0.0
 11
8040.0
 21
260.0
 31
0.0
  0
LINE
  5
CA4
330
1F
100
AcDbEntity
  8
HOJO
100
AcDbLine
 10
8040.0
 20
260.0
 30
0.0
 11
8040.0
 21
5680.0
 31
0.0
  0
LINE
  5
CA5
330
1F
100
AcDbEntity
  8
HOJO
100
AcDbLine
 10
8040.0
 20
5680.0
 30
0.0
 11
360.0
 21
5680.0
 31
0.0
  0
LINE
  5
CA6
330
1F
100
AcDbEntity
  8
HOJO
100
AcDbLine
 10
360.0
 20
5680.0
 30
0.0
 11
360.0
 21
260.0
 31
0.0
  0
LINE
  5
CA7
330
1F
100
AcDbEntity
  8
HOJO
100
AcDbLine
 10
0.0
 20
0.0
 30
0.0
 11
8400.0
 21
0.0
 31
0.0
  0
LINE
  5
CA8
330
1F
100
AcDbEntity
  8
HOJO
100
AcDbLine
 10
8400.0
 20
0.0
 30
0.0
 11
8400.0
 21
5940.0
 31
0.0
  0
LINE
  5
CA9
330
1F
100
AcDbEntity
  8
HOJO
100
AcDbLine
 10
8400.0
 20
5940.0
 30
0.0
 11
0.0
 21
5940.0
 31
0.0
  0
LINE
  5
CAA
330
1F
100
AcDbEntity
  8
HOJO
100
AcDbLine
 10
0.0
 20
5940.0
 30
0.0
 11
0.0
 21
0.0
 31
0.0
  0
TEXT
  5
CAB
330
1F
100
AcDbEntity
  8
SUNPO
 62
     7
100
AcDbText
 10
3939.350928661115
 20
4215.686949069795
 30
0.0
 40
50.0
  1
140
  7
ADD
100
AcDbText
1001
ACAD
1000
MTEXTBEGIN
1070
    73
1070
     1
1070
    44
1040
1.0
1070
    74
1070
     0
1000
MTEXTEND
  0
TEXT
  5
CAC
330
1F
100
AcDbEntity
  8
SUNPO
 62
     7
100
AcDbText
 10
4885.541404851591
 20
4199.436949069795
 30
0.0
 40
50.0
  1
1800
  7
ADD
100
AcDbText
1001
ACAD
1000
MTEXTBEGIN
1070
    73
1070
     1
1070
    44
1040
1.0
1070
    74
1070
     0
1000
MTEXTEND
  0
TEXT
  5
CAD
330
1F
100
AcDbEntity
  8
SUNPO
 62
     7
100
AcDbText
 10
5879.350928661115
 20
4215.686949069795
 30
0.0
 40
50.0
  1
140
  7
ADD
100
AcDbText
1001
ACAD
1000
MTEXTBEGIN
1070
    73
1070
     1
1070
    44
1040
1.0
1070
    74
1070
     0
1000
MTEXTEND
  0
TEXT
  5
CAE
330
1F
100
AcDbEntity
  8
SUNPO
 62
     7
100
AcDbText
 10
4115.217785954176
 20
3905.570493210896
 30
0.0
 40
50.0
  1
60
  7
ADD
100
AcDbText
1001
ACAD
1000
MTEXTBEGIN
1070
    73
1070
     1
1070
    44
1040
1.0
1070
    74
1070
     0
1000
MTEXTEND
  0
TEXT
  5
CAF
330
1F
100
AcDbEntity
  8
SUNPO
 62
     7
100
AcDbText
 10
5775.904651573381
 20
3905.570493210896
 30
0.0
 40
50.0
  1
60
  7
ADD
100
AcDbText
1001
ACAD
1000
MTEXTBEGIN
1070
    73
1070
     1
1070
    44
1040
1.0
1070
    74
1070
     0
1000
MTEXTEND
  0
TEXT
  5
CB0
330
1F
100
AcDbEntity
  8
SUNPO
 62
     7
100
AcDbText
 10
3079.350928661115
 20
4198.270282403129
 30
0.0
 40
50.0
  1
180
  7
ADD
100
AcDbText
1001
ACAD
1000
MTEXTBEGIN
1070
    73
1070
     1
1070
    44
1040
1.0
1070
    74
1070
     0
1000
MTEXTEND
  0
TEXT
  5
CB1
330
1F
100
AcDbEntity
  8
SUNPO
 62
     7
100
AcDbText
 10
2965.156835702537
 20
3905.570493210896
 30
0.0
 40
50.0
  1
50
  7
ADD
100
AcDbText
1001
ACAD
1000
MTEXTBEGIN
1070
    73
1070
     1
1070
    44
1040
1.0
1070
    74
1070
     0
1000
MTEXTEND
  0
TEXT
  5
CB2
330
1F
100
AcDbEntity
  8
SUNPO
 62
     7
100
AcDbText
 10
3248.031446788105
 20
3905.570493210896
 30
0.0
 40
50.0
  1
50
  7
ADD
100
AcDbText
1001
ACAD
1000
MTEXTBEGIN
1070
    73
1070
     1
1070
    44
1040
1.0
1070
    74
1070
     0
1000
MTEXTEND
  0
TEXT
  5
CB3
330
1F
100
AcDbEntity
  8
SUNPO
 62
     7
100
AcDbText
 10
3106.731881042067
 20
3905.570493210896
 30
0.0
 40
50.0
  1
70
  7
ADD
100
AcDbText
1001
ACAD
1000
MTEXTBEGIN
1070
    73
1070
     1
1070
    44
1040
1.0
1070
    74
1070
     0
1000
MTEXTEND
  0
TEXT
  5
CB4
330
1F
100
AcDbEntity
  8
SUNPO
 62
     7
100
AcDbText
 10
3093.041404851591
 20
3748.250554544796
 30
0.0
 40
50.0
  1
5
  7
ADD
100
AcDbText
1001
ACAD
1000
MTEXTBEGIN
1070
    73
1070
     1
1070
    44
1040
1.0
1070
    74
1070
     0
1000
MTEXTEND
  0
TEXT
  5
CB5
330
1F
100
AcDbEntity
  8
SUNPO
 62
     7
100
AcDbText
 10
3168.041404851591
 20
3748.250554544796
 30
0.0
 40
50.0
  1
5
  7
ADD
100
AcDbText
1001
ACAD
1000
MTEXTBEGIN
1070
    73
1070
     1
1070
    44
1040
1.0
1070
    74
1070
     0
1000
MTEXTEND
  0
TEXT
  5
CB6
330
1F
100
AcDbEntity
  8
SUNPO
 62
     7
100
AcDbText
 10
3539.525400783695
 20
2742.894513542474
 30
0.0
 40
50.0
  1
1390
 50
90.0
  7
ADD
100
AcDbText
1001
ACAD
1000
MTEXTBEGIN
1070
    73
1070
     1
1070
    44
1040
1.0
1070
    74
1070
     0
1000
MTEXTEND
  0
TEXT
  5
CB7
330
1F
100
AcDbEntity
  8
SUNPO
 62
     7
100
AcDbText
 10
3750.99658375886
 20
2166.704037351998
 30
0.0
 40
50.0
  1
190
 50
90.0
  7
ADD
100
AcDbText
1001
ACAD
1000
MTEXTBEGIN
1070
    73
1070
     1
1070
    44
1040
1.0
1070
    74
1070
     0
1000
MTEXTEND
  0
TEXT
  5
CB8
330
1F
100
AcDbEntity
  8
SUNPO
 62
     7
100
AcDbText
 10
3750.99658375886
 20
2837.894513542474
 30
0.0
 40
50.0
  1
1200
 50
90.0
  7
ADD
100
AcDbText
1001
ACAD
1000
MTEXTBEGIN
1070
    73
1070
     1
1070
    44
1040
1.0
1070
    74
1070
     0
1000
MTEXTEND
  0
TEXT
  5
CB9
330
1F
100
AcDbEntity
  8
SUNPO
 62
     7
100
AcDbText
 10
4889.11283342302
 20
1507.789951452819
 30
0.0
 40
50.0
  1
2080
  7
ADD
100
AcDbText
1001
ACAD
1000
MTEXTBEGIN
1070
    73
1070
     1
1070
    44
1040
1.0
1070
    74
1070
     0
1000
MTEXTEND
  0
TEXT
  5
CBA
330
1F
100
AcDbEntity
  8
SUNPO
 62
     7
100
AcDbText
 10
3964.350928661115
 20
1829.44987142092
 30
0.0
 40
50.0
  1
190
  7
ADD
100
AcDbText
1001
ACAD
1000
MTEXTBEGIN
1070
    73
1070
     1
1070
    44
1040
1.0
1070
    74
1070
     0
1000
MTEXTEND
  0
TEXT
  5
CBB
330
1F
100
AcDbEntity
  8
SUNPO
 62
     7
100
AcDbText
 10
4885.541404851591
 20
1829.44987142092
 30
0.0
 40
50.0
  1
1700
  7
ADD
100
AcDbText
1001
ACAD
1000
MTEXTBEGIN
1070
    73
1070
     1
1070
    44
1040
1.0
1070
    74
1070
     0
1000
MTEXTEND
  0
TEXT
  5
CBC
330
1F
100
AcDbEntity
  8
SUNPO
 62
     7
100
AcDbText
 10
5854.350928661116
 20
1829.44987142092
 30
0.0
 40
50.0
  1
190
  7
ADD
100
AcDbText
1001
ACAD
1000
MTEXTBEGIN
1070
    73
1070
     1
1070
    44
1040
1.0
1070
    74
1070
     0
1000
MTEXTEND
  0
TEXT
  5
CBD
330
1F
100
AcDbEntity
  8
SUNPO
 62
     7
100
AcDbText
 10
3079.350928661115
 20
1507.789951452819
 30
0.0
 40
50.0
  1
180
  7
ADD
100
AcDbText
1001
ACAD
1000
MTEXTBEGIN
1070
    73
1070
     1
1070
    44
1040
1.0
1070
    74
1070
     0
1000
MTEXTEND
  0
TEXT
  5
CBE
330
1F
100
AcDbEntity
  8
SUNPO
 62
     7
100
AcDbText
 10
4178.526914557557
 20
2573.94551175563
 30
0.0
 40
50.0
  1
20
  7
ADD
100
AcDbText
1001
ACAD
1000
MTEXTBEGIN
1070
    73
1070
     1
1070
    44
1040
1.0
1070
    74
1070
     0
1000
MTEXTEND
  0
TEXT
  5
CBF
330
1F
100
AcDbEntity
  8
SUNPO
 62
     7
100
AcDbText
 10
4293.141136187496
 20
2372.379086679794
 30
0.0
 40
50.0
  1
20
 50
90.0
  7
ADD
100
AcDbText
1001
ACAD
1000
MTEXTBEGIN
1070
    73
1070
     1
1070
    44
1040
1.0
1070
    74
1070
     0
1000
MTEXTEND
  0
VIEWPORT
  5
72
330
1B
100
AcDbEntity
 67
     1
  8
0
100
AcDbViewport
 10
429.8380103383459
 20
277.0
 30
0.0
 40
948.9782706766918
 41
628.4520000000001
 68
     1
 69
     1
1001
ACAD
1000
MVIEW
1002
{
1070
    16
1010
0.0
1020
0.0
1030
0.0
1010
0.0
1020
0.0
1030
1.0
1040
0.0
1040
628.4520000000001
1040
429.8380103383459
1040
277.0
1040
50.0
1040
0.0
1040
0.0
1070
     0
1070
   100
1070
     1
1070
     1
1070
     0
1070
     0
1070
     0
1070
     0
1040
0.0
1040
0.0
1040
0.0
1040
10.0
1040
10.0
1040
10.0
1040
10.0
1070
     0
1002
{
1002
}
1002
}
  0
VIEWPORT
  5
74
330
1B
100
AcDbEntity
 67
     1
  8
VIEWPORT
100
AcDbViewport
 10
414.3779638919211
 20
277.3177265058034
 30
0.0
 40
840.0353682728887
 41
567.2285469943826
 68
     2
 69
     2
1001
ACAD
1000
MVIEW
1002
{
1070
    16
1010
0.0
1020
0.0
1030
0.0
1010
0.0
1020
0.0
1030
1.0
1040
0.0
1040
579.5583043546323
1040
424.4938908624541
1040
286.1973242720074
1040
50.0
1040
0.0
1040
0.0
1070
     0
1070
   100
1070
     1
1070
     1
1070
     0
1070
     0
1070
     0
1070
     0
1040
0.0
1040
0.0
1040
0.0
1040
10.0
1040
10.0
1040
10.0
1040
10.0
1070
     0
1002
{
1002
}
1002
}
  0
ENDSEC
  0
SECTION
  2
OBJECTS
  0
DICTIONARY
  5
C
330
0
100
AcDbDictionary
  3
ACAD_GROUP
350
D
  3
ACAD_LAYOUT
350
1A
  3
ACAD_MLINESTYLE
350
17
  3
ACAD_PLOTSETTINGS
350
19
  3
DWGPROPS
350
4C7
1001
ACAD
1000
TREAT_AS_HARD
1070
     0
  0
DICTIONARY
  5
B7D
330
1F
100
AcDbDictionary
  3
ACAD_LAYOUTSELFREF
350
CC2
1001
ACAD
1000
TREAT_AS_HARD
1070
     1
  0
DICTIONARY
  5
B7F
330
1B
100
AcDbDictionary
  3
ACAD_LAYOUTSELFREF
350
CC1
1001
ACAD
1000
TREAT_AS_HARD
1070
     1
  0
DICTIONARY
  5
D
102
{ACAD_REACTORS
330
C
102
}
330
C
100
AcDbDictionary
1001
ACAD
1000
TREAT_AS_HARD
1070
     0
  0
DICTIONARY
  5
1A
102
{ACAD_REACTORS
330
C
102
}
330
C
100
AcDbDictionary
1001
ACAD
1000
TREAT_AS_HARD
1070
     0
  0
DICTIONARY
  5
17
102
{ACAD_REACTORS
330
C
102
}
330
C
100
AcDbDictionary
  3
STANDARD
350
18
1001
ACAD
1000
TREAT_AS_HARD
1070
     0
  0
DICTIONARY
  5
19
102
{ACAD_REACTORS
330
C
102
}
330
C
100
AcDbDictionary
1001
ACAD
1000
TREAT_AS_HARD
1070
     0
  0
XRECORD
  5
4C7
102
{ACAD_REACTORS
330
C
102
}
330
C
100
AcDbXrecord
  1
DWGPROPS COOKIE
  2
印刷用テスト
  3
AutoCAD2000による建築設計
  4
鈴木 裕二
  6

  7

  8
U2
  9

300
=
301
=
302
=
303
=
304
=
305
=
306
=
307
=
308
=
309
=
 40
0.7653446875
 41
2451285.4846114
 42
2451333.689743032
  1

 90
        0
  0
XRECORD
  5
CC2
102
{ACAD_REACTORS
330
B7D
102
}
330
B7D
100
AcDbXrecord
340
1F
  0
XRECORD
  5
CC1
102
{ACAD_REACTORS
330
B7F
102
}
330
B7F
100
AcDbXrecord
340
1B
  0
MLINESTYLE
  5
18
102
{ACAD_REACTORS
330
17
102
}
330
17
100
AcDbMlineStyle
  2
STANDARD
 70
     0
  3

 62
   256
 51
90.0
 52
90.0
 71
     2
 49
0.5
 62
   256
  6
BYLAYER
 49
-0.5
 62
   256
  6
BYLAYER
  0
ENDSEC
  0
EOF
