  0
SECTION
  2
HEADER
  9
$ACADVER
  1
AC1012
  9
$DWGCODEPAGE
  3
dos932
  9
$INSBASE
 10
0.0
 20
0.0
 30
0.0
  9
$EXTMIN
 10
0.0
 20
0.0
 30
0.0
  9
$EXTMAX
 10
8400.0
 20
5940.0
 30
0.0
  9
$LIMMIN
 10
0.0
 20
0.0
  9
$LIMMAX
 10
8400.0
 20
5940.0
  9
$ORTHOMODE
 70
     0
  9
$REGENMODE
 70
     1
  9
$FILLMODE
 70
     1
  9
$QTEXTMODE
 70
     0
  9
$MIRRTEXT
 70
     0
  9
$DRAGMODE
 70
     2
  9
$LTSCALE
 40
10.0
  9
$OSMODE
 70
    37
  9
$ATTMODE
 70
     1
  9
$TEXTSIZE
 40
50.0
  9
$TRACEWID
 40
1.0
  9
$TEXTSTYLE
  7
ADD
  9
$CLAYER
  8
SUNPO
  9
$CELTYPE
  6
BYLAYER
  9
$CECOLOR
 62
   256
  9
$CELTSCALE
 40
1.0
  9
$DELOBJ
 70
     1
  9
$DISPSILH
 70
     0
  9
$DIMSCALE
 40
20.0
  9
$DIMASZ
 40
2.5
  9
$DIMEXO
 40
1.0
  9
$DIMDLI
 40
7.0
  9
$DIMRND
 40
0.0
  9
$DIMDLE
 40
0.0
  9
$DIMEXE
 40
0.5
  9
$DIMTP
 40
0.0
  9
$DIMTM
 40
0.0
  9
$DIMTXT
 40
2.5
  9
$DIMCEN
 40
2.5
  9
$DIMTSZ
 40
0.0
  9
$DIMTOL
 70
     0
  9
$DIMLIM
 70
     0
  9
$DIMTIH
 70
     0
  9
$DIMTOH
 70
     0
  9
$DIMSE1
 70
     0
  9
$DIMSE2
 70
     0
  9
$DIMTAD
 70
     1
  9
$DIMZIN
 70
     8
  9
$DIMBLK
  1

  9
$DIMASO
 70
     1
  9
$DIMSHO
 70
     1
  9
$DIMPOST
  1

  9
$DIMAPOST
  1

  9
$DIMALT
 70
     0
  9
$DIMALTD
 70
     3
  9
$DIMALTF
 40
0.03937007874016
  9
$DIMLFAC
 40
1.0
  9
$DIMTOFL
 70
     1
  9
$DIMTVP
 40
0.7
  9
$DIMTIX
 70
     1
  9
$DIMSOXD
 70
     0
  9
$DIMSAH
 70
     0
  9
$DIMBLK1
  1

  9
$DIMBLK2
  1

  9
$DIMSTYLE
  2
ADD
  9
$DIMCLRD
 70
   144
  9
$DIMCLRE
 70
   144
  9
$DIMCLRT
 70
     7
  9
$DIMTFAC
 40
1.0
  9
$DIMGAP
 40
0.625
  9
$DIMJUST
 70
     0
  9
$DIMSD1
 70
     0
  9
$DIMSD2
 70
     0
  9
$DIMTOLJ
 70
     2
  9
$DIMTZIN
 70
     8
  9
$DIMALTZ
 70
     0
  9
$DIMALTTZ
 70
     0
  9
$DIMFIT
 70
     5
  9
$DIMUPT
 70
     0
  9
$DIMUNIT
 70
     2
  9
$DIMDEC
 70
     1
  9
$DIMTDEC
 70
     1
  9
$DIMALTU
 70
     2
  9
$DIMALTTD
 70
     3
  9
$DIMTXSTY
  7
ADD
  9
$DIMAUNIT
 70
     0
  9
$LUNITS
 70
     2
  9
$LUPREC
 70
     4
  9
$SKETCHINC
 40
1.0
  9
$FILLETRAD
 40
0.0
  9
$AUNITS
 70
     0
  9
$AUPREC
 70
     1
  9
$MENU
  1
.
  9
$ELEVATION
 40
0.0
  9
$PELEVATION
 40
0.0
  9
$THICKNESS
 40
0.0
  9
$LIMCHECK
 70
     0
  9
$BLIPMODE
 70
     0
  9
$CHAMFERA
 40
20.0
  9
$CHAMFERB
 40
20.0
  9
$CHAMFERC
 40
20.0
  9
$CHAMFERD
 40
0.0
  9
$SKPOLY
 70
     0
  9
$TDCREATE
 40
2451801.605911169
  9
$TDUPDATE
 40
2451865.562327292
  9
$TDINDWG
 40
0.0592651852
  9
$TDUSRTIMER
 40
0.0592651852
  9
$USRTIMER
 70
     1
  9
$ANGBASE
 50
0.0
  9
$ANGDIR
 70
     0
  9
$PDMODE
 70
     0
  9
$PDSIZE
 40
0.0
  9
$PLINEWID
 40
0.0
  9
$COORDS
 70
     2
  9
$SPLFRAME
 70
     0
  9
$SPLINETYPE
 70
     6
  9
$SPLINESEGS
 70
     8
  9
$ATTDIA
 70
     0
  9
$ATTREQ
 70
     1
  9
$HANDLING
 70
 10241
  9
$HANDSEED
  5
B79
  9
$SURFTAB1
 70
     6
  9
$SURFTAB2
 70
     6
  9
$SURFTYPE
 70
     6
  9
$SURFU
 70
     6
  9
$SURFV
 70
     6
  9
$UCSNAME
  2

  9
$UCSORG
 10
0.0
 20
0.0
 30
0.0
  9
$UCSXDIR
 10
1.0
 20
0.0
 30
0.0
  9
$UCSYDIR
 10
0.0
 20
1.0
 30
0.0
  9
$PUCSNAME
  2

  9
$PUCSORG
 10
0.0
 20
0.0
 30
0.0
  9
$PUCSXDIR
 10
1.0
 20
0.0
 30
0.0
  9
$PUCSYDIR
 10
0.0
 20
1.0
 30
0.0
  9
$USERI1
 70
     0
  9
$USERI2
 70
     0
  9
$USERI3
 70
     0
  9
$USERI4
 70
     0
  9
$USERI5
 70
     0
  9
$USERR1
 40
841.0
  9
$USERR2
 40
594.0
  9
$USERR3
 40
1.0
  9
$USERR4
 40
0.0
  9
$USERR5
 40
0.0
  9
$WORLDVIEW
 70
     1
  9
$SHADEDGE
 70
     3
  9
$SHADEDIF
 70
    70
  9
$TILEMODE
 70
     1
  9
$MAXACTVP
 70
    48
  9
$PINSBASE
 10
0.0
 20
0.0
 30
0.0
  9
$PLIMCHECK
 70
     0
  9
$PEXTMIN
 10
-5.662975978526674
 20
-6.331907780761866
 30
-0.0015258207003583
  9
$PEXTMAX
 10
834.4213426047982
 20
560.9663709967471
 30
0.0000000349246037
  9
$PLIMMIN
 10
-7.500000000000001
 20
-20.0
  9
$PLIMMAX
 10
833.5000000000002
 20
574.0000000000001
  9
$UNITMODE
 70
     0
  9
$VISRETAIN
 70
     1
  9
$PLINEGEN
 70
     0
  9
$PSLTSCALE
 70
     1
  9
$TREEDEPTH
 70
  3020
  9
$PICKSTYLE
 70
     1
  9
$CMLSTYLE
  2
STANDARD
  9
$CMLJUST
 70
     0
  9
$CMLSCALE
 40
20.0
  9
$SAVEIMAGES
 70
     1
  0
ENDSEC
  0
SECTION
  2
CLASSES
  0
CLASS
  1
ACDBDICTIONARYWDFLT
  2
AcDbDictionaryWithDefault
  3
AutoCAD 2000
 90
    32768
280
     0
281
     0
  0
CLASS
  1
ACDBPLACEHOLDER
  2
AcDbPlaceHolder
  3
AutoCAD 2000
 90
    32768
280
     0
281
     0
  0
CLASS
  1
LAYOUT
  2
AcDbLayout
  3
AutoCAD 2000
 90
    32768
280
     0
281
     0
  0
CLASS
  1
RTEXT
  2
RText
  3
RText|AutoCAD Express Tool|expresstools@autodesk.com
 90
    32768
280
     0
281
     1
  0
CLASS
  1
DICTIONARYVAR
  2
AcDbDictionaryVar
  3
AutoCAD 2000
 90
    32768
280
     0
281
     0
  0
CLASS
  1
LONG_TRANSACTION
  2
AcDbLongTransaction
  3
AutoCAD 2000
 90
    32768
280
     0
281
     0
  0
CLASS
  1
LWPOLYLINE
  2
AcDbPolyline
  3
AutoCAD 2000
 90
    32768
280
     0
281
     1
  0
CLASS
  1
HATCH
  2
AcDbHatch
  3
AutoCAD 2000
 90
    32768
280
     0
281
     1
  0
CLASS
  1
XRECORD
  2
AcDbXrecord
  3
AutoCAD 2000
 90
    32768
280
     0
281
     0
  0
CLASS
  1
LONG_TRANSACTION
  2
AcDbLongTransaction
  3
AutoCAD 2000
 90
    32768
280
     0
281
     0
  0
CLASS
  1
LWPOLYLINE
  2
AcDbPolyline
  3
AutoCAD 2000
 90
    32768
280
     0
281
     1
  0
CLASS
  1
HATCH
  2
AcDbHatch
  3
AutoCAD 2000
 90
    32768
280
     0
281
     1
  0
CLASS
  1
XRECORD
  2
AcDbXrecord
  3
AutoCAD 2000
 90
    32768
280
     0
281
     0
  0
ENDSEC
  0
SECTION
  2
TABLES
  0
TABLE
  2
VPORT
  5
8
330
0
100
AcDbSymbolTable
 70
     2
  0
VPORT
  5
B55
330
8
100
AcDbSymbolTableRecord
100
AcDbViewportTableRecord
  2
*ACTIVE
 70
     0
 10
0.0
 20
0.0
 11
1.0
 21
1.0
 12
4410.194531106006
 22
2970.000013830139
 13
0.0
 23
0.0
 14
10.0
 24
10.0
 15
10.0
 25
10.0
 16
0.0
 26
0.0
 36
1.0
 17
0.0
 27
0.0
 37
0.0
 40
5986.65108817007
 41
1.496749024707412
 42
50.0
 43
0.0
 44
0.0
 50
0.0
 51
0.0
 71
     0
 72
   100
 73
     1
 74
     1
 75
     0
 76
     0
 77
     0
 78
     0
  0
ENDTAB
  0
TABLE
  2
LTYPE
  5
5
330
0
100
AcDbSymbolTable
 70
     5
  0
LTYPE
  5
14
330
5
100
AcDbSymbolTableRecord
100
AcDbLinetypeTableRecord
  2
BYBLOCK
 70
     0
  3

 72
    65
 73
     0
 40
0.0
  0
LTYPE
  5
15
330
5
100
AcDbSymbolTableRecord
100
AcDbLinetypeTableRecord
  2
BYLAYER
 70
     0
  3

 72
    65
 73
     0
 40
0.0
  0
LTYPE
  5
16
330
5
100
AcDbSymbolTableRecord
100
AcDbLinetypeTableRecord
  2
CONTINUOUS
 70
     0
  3
Solid line
 72
    65
 73
     0
 40
0.0
  0
LTYPE
  5
555
330
5
100
AcDbSymbolTableRecord
100
AcDbLinetypeTableRecord
  2
CENTER
 70
     0
  3
Center ____ _ ____ _ ____ _ ____ _ ____ _ ____
 72
    65
 73
     4
 40
50.8
 49
31.75
 74
     0
 49
-6.349999999999999
 74
     0
 49
6.349999999999999
 74
     0
 49
-6.349999999999999
 74
     0
  0
LTYPE
  5
556
330
5
100
AcDbSymbolTableRecord
100
AcDbLinetypeTableRecord
  2
HIDDEN
 70
     0
  3
Hidden __ __ __ __ __ __ __ __ __ __ __ __ __ _
 72
    65
 73
     2
 40
9.524999999999998
 49
6.349999999999999
 74
     0
 49
-3.174999999999999
 74
     0
  0
LTYPE
  5
557
330
5
100
AcDbSymbolTableRecord
100
AcDbLinetypeTableRecord
  2
HIDDEN2
 70
     0
  3
Hidden (.5x) _ _ _ _ _ _ _ _ _ _ _ _ _ _ _ _ _
 72
    65
 73
     2
 40
4.762499999999999
 49
3.174999999999999
 74
     0
 49
-1.587499999999999
 74
     0
  0
LTYPE
  5
558
330
5
100
AcDbSymbolTableRecord
100
AcDbLinetypeTableRecord
  2
PHANTOM
 70
     0
  3
Phantom ______  __  __  ______  __  __  ______
 72
    65
 73
     6
 40
63.5
 49
31.75
 74
     0
 49
-6.349999999999999
 74
     0
 49
6.349999999999999
 74
     0
 49
-6.349999999999999
 74
     0
 49
6.349999999999999
 74
     0
 49
-6.349999999999999
 74
     0
  0
ENDTAB
  0
TABLE
  2
LAYER
  5
2
330
0
100
AcDbSymbolTable
 70
    22
  0
LAYER
  5
10
330
2
100
AcDbSymbolTableRecord
100
AcDbLayerTableRecord
  2
0
 70
     0
 62
     7
  6
CONTINUOUS
  0
LAYER
  5
75
330
2
100
AcDbSymbolTableRecord
100
AcDbLayerTableRecord
  2
VIEWPORT
 70
     0
 62
     1
  6
CONTINUOUS
  0
LAYER
  5
504
330
2
100
AcDbSymbolTableRecord
100
AcDbLayerTableRecord
  2
DEFPOINTS
 70
     0
 62
     7
  6
CONTINUOUS
  0
LAYER
  5
505
330
2
100
AcDbSymbolTableRecord
100
AcDbLayerTableRecord
  2
1C1
 70
     0
 62
   254
  6
CONTINUOUS
  0
LAYER
  5
506
330
2
100
AcDbSymbolTableRecord
100
AcDbLayerTableRecord
  2
1C2
 70
     0
 62
   254
  6
CONTINUOUS
  0
LAYER
  5
507
330
2
100
AcDbSymbolTableRecord
100
AcDbLayerTableRecord
  2
2C1
 70
     0
 62
   144
  6
CONTINUOUS
  0
LAYER
  5
508
330
2
100
AcDbSymbolTableRecord
100
AcDbLayerTableRecord
  2
2C2
 70
     0
 62
   144
  6
CONTINUOUS
  0
LAYER
  5
509
330
2
100
AcDbSymbolTableRecord
100
AcDbLayerTableRecord
  2
2H1
 70
     0
 62
   144
  6
HIDDEN
  0
LAYER
  5
50A
330
2
100
AcDbSymbolTableRecord
100
AcDbLayerTableRecord
  2
2H2
 70
     0
 62
   144
  6
HIDDEN2
  0
LAYER
  5
50B
330
2
100
AcDbSymbolTableRecord
100
AcDbLayerTableRecord
  2
2P1
 70
     0
 62
   144
  6
PHANTOM
  0
LAYER
  5
50C
330
2
100
AcDbSymbolTableRecord
100
AcDbLayerTableRecord
  2
3C1
 70
     0
 62
     7
  6
CONTINUOUS
  0
LAYER
  5
50D
330
2
100
AcDbSymbolTableRecord
100
AcDbLayerTableRecord
  2
3C2
 70
     0
 62
     7
  6
CONTINUOUS
  0
LAYER
  5
50E
330
2
100
AcDbSymbolTableRecord
100
AcDbLayerTableRecord
  2
3C3
 70
     0
 62
     7
  6
CONTINUOUS
  0
LAYER
  5
50F
330
2
100
AcDbSymbolTableRecord
100
AcDbLayerTableRecord
  2
4H1
 70
     0
 62
     6
  6
HIDDEN
  0
LAYER
  5
510
330
2
100
AcDbSymbolTableRecord
100
AcDbLayerTableRecord
  2
4H2
 70
     0
 62
     6
  6
HIDDEN2
  0
LAYER
  5
511
330
2
100
AcDbSymbolTableRecord
100
AcDbLayerTableRecord
  2
5C1
 70
     0
 62
    55
  6
CONTINUOUS
  0
LAYER
  5
512
330
2
100
AcDbSymbolTableRecord
100
AcDbLayerTableRecord
  2
5C2
 70
     0
 62
    55
  6
CONTINUOUS
  0
LAYER
  5
513
330
2
100
AcDbSymbolTableRecord
100
AcDbLayerTableRecord
  2
8C1
 70
     0
 62
    92
  6
CONTINUOUS
  0
LAYER
  5
514
330
2
100
AcDbSymbolTableRecord
100
AcDbLayerTableRecord
  2
HOJO
 70
     0
 62
     5
  6
CONTINUOUS
  0
LAYER
  5
515
330
2
100
AcDbSymbolTableRecord
100
AcDbLayerTableRecord
  2
KIJUN
 70
     0
 62
     1
  6
CENTER
  0
LAYER
  5
516
330
2
100
AcDbSymbolTableRecord
100
AcDbLayerTableRecord
  2
MOJI
 70
     0
 62
     7
  6
CONTINUOUS
  0
LAYER
  5
517
330
2
100
AcDbSymbolTableRecord
100
AcDbLayerTableRecord
  2
SUNPO
 70
     0
 62
   144
  6
CONTINUOUS
  0
ENDTAB
  0
TABLE
  2
STYLE
  5
3
330
0
100
AcDbSymbolTable
 70
     7
  0
STYLE
  5
11
330
3
100
AcDbSymbolTableRecord
100
AcDbTextStyleTableRecord
  2
STANDARD
 70
     0
 40
0.0
 41
1.0
 50
0.0
 71
     0
 42
2.5
  3
txt
  4

  0
STYLE
  5
2C
330
3
100
AcDbSymbolTableRecord
100
AcDbTextStyleTableRecord
  2

 70
     1
 40
0.0
 41
1.0
 50
0.0
 71
     0
 42
2.5
  3
ltypeshp.shx
  4

  0
STYLE
  5
18E
330
3
100
AcDbSymbolTableRecord
100
AcDbTextStyleTableRecord
  2
ADD
 70
     0
 40
0.0
 41
1.0
 50
0.0
 71
     0
 42
50.0
  3
romans.shx
  4
bigfont.shx
  0
STYLE
  5
191
330
3
100
AcDbSymbolTableRecord
100
AcDbTextStyleTableRecord
  2
MSG
 70
     0
 40
0.0
 41
1.0
 50
0.0
 71
     0
 42
2.5
  3
MS Gothic.ttf
  4

1001
ACAD
1000
MS Gothic
1071
    32817
  0
STYLE
  5
5C8
330
3
100
AcDbSymbolTableRecord
100
AcDbTextStyleTableRecord
  2
STANDARD15
 70
     0
 40
0.0
 41
1.0
 50
15.0
 71
     0
 42
2.5
  3
ROMANS
  4
bigfont
  0
STYLE
  5
5C9
330
3
100
AcDbSymbolTableRecord
100
AcDbTextStyleTableRecord
  2
ROMANS15
 70
     0
 40
0.0
 41
1.0
 50
15.0
 71
     0
 42
2.5
  3
romans
  4

  0
STYLE
  5
5CA
330
3
100
AcDbSymbolTableRecord
100
AcDbTextStyleTableRecord
  2
STANDARD2
 70
     0
 40
0.0
 41
1.0
 50
0.0
 71
     0
 42
2.5
  3
romans.shx
  4
bigfont.shx
  0
ENDTAB
  0
TABLE
  2
VIEW
  5
6
330
0
100
AcDbSymbolTable
 70
     1
  0
VIEW
  5
54D
330
6
100
AcDbSymbolTableRecord
100
AcDbViewTableRecord
  2
ALL
 70
     0
 40
594.0
 10
420.5
 20
297.0
 41
865.125
 11
0.0
 21
0.0
 31
1.0
 12
0.0
 22
0.0
 32
0.0
 42
50.0
 43
0.0
 44
0.0
 50
0.0
 71
     0
  0
ENDTAB
  0
TABLE
  2
UCS
  5
7
330
0
100
AcDbSymbolTable
 70
     0
  0
ENDTAB
  0
TABLE
  2
APPID
  5
9
330
0
100
AcDbSymbolTable
 70
     4
  0
APPID
  5
12
330
9
100
AcDbSymbolTableRecord
100
AcDbRegAppTableRecord
  2
ACAD
 70
     0
  0
APPID
  5
5CB
330
9
100
AcDbSymbolTableRecord
100
AcDbRegAppTableRecord
  2
ARAIGUMI_YOHEKI
 70
     0
  0
APPID
  5
5CC
330
9
100
AcDbSymbolTableRecord
100
AcDbRegAppTableRecord
  2
CONTENTTABDATA
 70
     0
  0
APPID
  5
5CD
330
9
100
AcDbSymbolTableRecord
100
AcDbRegAppTableRecord
  2
CONTENTCURRENTTAB
 70
     0
  0
ENDTAB
  0
TABLE
  2
DIMSTYLE
  5
A
330
0
100
AcDbSymbolTable
 70
    10
  0
DIMSTYLE
105
27
330
A
100
AcDbSymbolTableRecord
100
AcDbDimStyleTableRecord
  2
ISO-25
 70
     0
  3

  4

  5

  6

  7

 40
1.0
 41
2.5
 42
0.625
 43
3.75
 44
1.25
 45
0.0
 46
0.0
 47
0.0
 48
0.0
140
2.5
141
2.5
142
0.0
143
0.03937007874016
144
1.0
145
0.0
146
1.0
147
0.625
 71
     0
 72
     0
 73
     0
 74
     0
 75
     0
 76
     0
 77
     1
 78
     8
170
     0
171
     3
172
     1
173
     0
174
     0
175
     0
176
     0
177
     0
178
     0
270
     2
271
     2
272
     2
273
     2
274
     3
340
11
275
     0
280
     0
281
     0
282
     0
283
     0
284
     8
285
     0
286
     0
287
     3
288
     0
  0
DIMSTYLE
105
197
330
A
100
AcDbSymbolTableRecord
100
AcDbDimStyleTableRecord
  2
ADD
 70
     0
  3

  4

  5

  6

  7

 40
1.0
 41
2.5
 42
1.0
 43
7.0
 44
0.5
 45
0.0
 46
0.0
 47
0.0
 48
0.0
140
2.5
141
2.5
142
0.0
143
0.03937007874016
144
1.0
145
0.7
146
1.0
147
0.625
 71
     0
 72
     0
 73
     0
 74
     0
 75
     0
 76
     0
 77
     1
 78
     8
170
     0
171
     3
172
     1
173
     0
174
     1
175
     0
176
   144
177
   144
178
     7
270
     2
271
     1
272
     1
273
     2
274
     3
340
18E
275
     0
280
     0
281
     0
282
     0
283
     2
284
     8
285
     0
286
     0
287
     5
288
     0
  0
DIMSTYLE
105
3E6
330
A
100
AcDbSymbolTableRecord
100
AcDbDimStyleTableRecord
  2
ADD$2
 70
     0
  3

  4

  5

  6

  7

 40
1.0
 41
2.5
 42
1.0
 43
7.0
 44
0.5
 45
0.0
 46
0.0
 47
0.0
 48
0.0
140
2.5
141
2.5
142
0.0
143
0.03937007874016
144
1.0
145
0.7
146
1.0
147
0.625
 71
     0
 72
     0
 73
     0
 74
     0
 75
     0
 76
     0
 77
     1
 78
     8
170
     0
171
     3
172
     1
173
     0
174
     1
175
     0
176
   144
177
   144
178
     7
270
     2
271
     1
272
     1
273
     2
274
     3
340
18E
275
     0
280
     0
281
     0
282
     0
283
     2
284
     8
285
     0
286
     0
287
     5
288
     0
  0
DIMSTYLE
105
3E7
330
A
100
AcDbSymbolTableRecord
100
AcDbDimStyleTableRecord
  2
ADD$4
 70
     0
  3

  4

  5

  6

  7

 40
1.0
 41
2.5
 42
1.0
 43
7.0
 44
0.5
 45
0.0
 46
0.0
 47
0.0
 48
0.0
140
2.5
141
2.5
142
0.0
143
0.03937007874016
144
1.0
145
0.0
146
1.0
147
0.625
 71
     0
 72
     0
 73
     0
 74
     0
 75
     0
 76
     0
 77
     1
 78
     8
170
     0
171
     3
172
     1
173
     0
174
     1
175
     0
176
   144
177
   144
178
     7
270
     2
271
     1
272
     1
273
     2
274
     3
340
18E
275
     0
280
     0
281
     0
282
     0
283
     2
284
     8
285
     0
286
     0
287
     5
288
     0
  0
DIMSTYLE
105
3E8
330
A
100
AcDbSymbolTableRecord
100
AcDbDimStyleTableRecord
  2
ADD$3
 70
     0
  3

  4

  5

  6

  7

 40
1.0
 41
2.5
 42
1.0
 43
7.0
 44
0.5
 45
0.0
 46
0.0
 47
0.0
 48
0.0
140
2.5
141
2.5
142
0.0
143
0.03937007874016
144
1.0
145
0.0
146
1.0
147
0.625
 71
     0
 72
     0
 73
     0
 74
     0
 75
     0
 76
     0
 77
     1
 78
     8
170
     0
171
     3
172
     1
173
     0
174
     1
175
     0
176
   144
177
   144
178
     7
270
     2
271
     1
272
     1
273
     2
274
     3
340
18E
275
     0
280
     0
281
     0
282
     0
283
     2
284
     8
285
     0
286
     0
287
     5
288
     0
  0
DIMSTYLE
105
3E9
330
A
100
AcDbSymbolTableRecord
100
AcDbDimStyleTableRecord
  2
ADD$6
 70
     0
  3

  4

  5

  6

  7

 40
1.0
 41
2.5
 42
1.0
 43
7.0
 44
0.5
 45
0.0
 46
0.0
 47
0.0
 48
0.0
140
2.5
141
2.5
142
0.0
143
0.03937007874016
144
1.0
145
0.0
146
1.0
147
0.625
 71
     0
 72
     0
 73
     0
 74
     0
 75
     0
 76
     0
 77
     1
 78
     8
170
     0
171
     3
172
     1
173
     0
174
     1
175
     0
176
   144
177
   144
178
     7
270
     2
271
     1
272
     1
273
     2
274
     3
340
18E
275
     0
280
     0
281
     0
282
     0
283
     2
284
     8
285
     0
286
     0
287
     5
288
     0
  0
DIMSTYLE
105
3EA
330
A
100
AcDbSymbolTableRecord
100
AcDbDimStyleTableRecord
  2
ADD$7
 70
     0
  3

  4

  5

  6

  7

 40
1.0
 41
2.5
 42
1.0
 43
7.0
 44
0.5
 45
0.0
 46
0.0
 47
0.0
 48
0.0
140
2.5
141
2.5
142
0.0
143
0.03937007874016
144
1.0
145
0.0
146
1.0
147
0.625
 71
     0
 72
     0
 73
     0
 74
     0
 75
     0
 76
     0
 77
     0
 78
     8
170
     0
171
     3
172
     1
173
     0
174
     1
175
     0
176
   144
177
   144
178
     7
270
     2
271
     1
272
     1
273
     2
274
     3
340
18E
275
     0
280
     0
281
     0
282
     0
283
     2
284
     8
285
     0
286
     0
287
     5
288
     0
  0
DIMSTYLE
105
518
330
A
100
AcDbSymbolTableRecord
100
AcDbDimStyleTableRecord
  2
STANDARD
 70
     0
  3

  4

  5

  6

  7

 40
1.0
 41
0.18
 42
0.0625
 43
0.38
 44
0.18
 45
0.0
 46
0.0
 47
0.0
 48
0.0
140
0.18
141
0.09
142
0.0
143
25.4
144
1.0
145
0.0
146
1.0
147
0.09
 71
     0
 72
     0
 73
     1
 74
     1
 75
     0
 76
     0
 77
     0
 78
     0
170
     0
171
     2
172
     0
173
     0
174
     0
175
     0
176
     0
177
     0
178
     0
270
     2
271
     4
272
     4
273
     2
274
     2
340
11
275
     0
280
     0
281
     0
282
     0
283
     1
284
     0
285
     0
286
     0
287
     3
288
     0
  0
DIMSTYLE
105
550
330
A
100
AcDbSymbolTableRecord
100
AcDbDimStyleTableRecord
  2
ADD$0
 70
     0
  3

  4

  5

  6

  7

 40
1.0
 41
0.7
 42
1.0
 43
7.0
 44
0.5
 45
0.0
 46
0.0
 47
0.0
 48
0.0
140
2.5
141
2.5
142
0.0
143
0.03937007874016
144
1.0
145
0.7
146
1.0
147
0.625
 71
     0
 72
     0
 73
     0
 74
     0
 75
     0
 76
     0
 77
     1
 78
     8
170
     0
171
     3
172
     1
173
     0
174
     0
175
     0
176
   144
177
   144
178
     7
270
     2
271
     1
272
     1
273
     2
274
     3
340
18E
275
     0
280
     0
281
     0
282
     0
283
     2
284
     8
285
     0
286
     0
287
     5
288
     0
  0
DIMSTYLE
105
59B
330
A
100
AcDbSymbolTableRecord
100
AcDbDimStyleTableRecord
  2
ADD_M
 70
     0
  3

  4

  5

  6

  7

 40
1.0
 41
2.5
 42
1.0
 43
7.0
 44
0.5
 45
0.0
 46
0.0
 47
0.0
 48
0.0
140
2.5
141
2.5
142
0.0
143
0.03937007874016
144
1.0
145
0.7
146
1.0
147
0.625
 71
     0
 72
     0
 73
     0
 74
     0
 75
     0
 76
     0
 77
     1
 78
     8
170
     0
171
     3
172
     1
173
     0
174
     1
175
     0
176
   144
177
   144
178
     7
270
     2
271
     1
272
     1
273
     2
274
     3
340
18E
275
     0
280
     0
281
     0
282
     0
283
     2
284
     8
285
     0
286
     0
287
     5
288
     0
  0
ENDTAB
  0
TABLE
  2
BLOCK_RECORD
  5
1
330
0
100
AcDbSymbolTable
 70
    23
  0
BLOCK_RECORD
  5
1F
102
{ACAD_XDICTIONARY
360
AD0
102
}
330
1
100
AcDbSymbolTableRecord
100
AcDbBlockTableRecord
  2
*MODEL_SPACE
  0
BLOCK_RECORD
  5
1B
102
{ACAD_XDICTIONARY
360
AD2
102
}
330
1
100
AcDbSymbolTableRecord
100
AcDbBlockTableRecord
  2
*PAPER_SPACE
  0
BLOCK_RECORD
  5
192
330
1
100
AcDbSymbolTableRecord
100
AcDbBlockTableRecord
  2
_DOT
  0
BLOCK_RECORD
  5
5CE
330
1
100
AcDbSymbolTableRecord
100
AcDbBlockTableRecord
  2
A3
  0
BLOCK_RECORD
  5
5D6
330
1
100
AcDbSymbolTableRecord
100
AcDbBlockTableRecord
  2
A4
  0
BLOCK_RECORD
  5
5DB
330
1
100
AcDbSymbolTableRecord
100
AcDbBlockTableRecord
  2
A4YOKO
1001
ACAD
1000
DesignCenter Data
1002
{
1070
     1
1070
     4
1002
}
  0
ENDTAB
  0
ENDSEC
  0
SECTION
  2
BLOCKS
  0
BLOCK
  5
20
330
1F
100
AcDbEntity
  8
0
100
AcDbBlockBegin
  2
*MODEL_SPACE
 70
     0
 10
0.0
 20
0.0
 30
0.0
  3
*MODEL_SPACE
  1

  0
ENDBLK
  5
21
330
1F
100
AcDbEntity
  8
0
100
AcDbBlockEnd
  0
BLOCK
  5
1C
330
1B
100
AcDbEntity
 67
     1
  8
0
100
AcDbBlockBegin
  2
*PAPER_SPACE
 70
     0
 10
0.0
 20
0.0
 30
0.0
  3
*PAPER_SPACE
  1

  0
ENDBLK
  5
1D
330
1B
100
AcDbEntity
 67
     1
  8
0
100
AcDbBlockEnd
  0
BLOCK
  5
195
330
192
100
AcDbEntity
  8
0
100
AcDbBlockBegin
  2
_DOT
 70
     0
 10
0.0
 20
0.0
 30
0.0
  3
_DOT
  1

  0
POLYLINE
  5
193
330
192
100
AcDbEntity
  8
0
 62
     0
100
AcDb2dPolyline
 66
     1
 10
0.0
 20
0.0
 30
0.0
 70
     1
 40
0.5
 41
0.5
  0
VERTEX
  5
B58
330
193
100
AcDbEntity
  8
0
 62
     0
100
AcDbVertex
100
AcDb2dVertex
 10
-0.25
 20
0.0
 30
0.0
 42
1.0
  0
VERTEX
  5
B59
330
193
100
AcDbEntity
  8
0
 62
     0
100
AcDbVertex
100
AcDb2dVertex
 10
0.25
 20
0.0
 30
0.0
 42
1.0
  0
SEQEND
  5
B5A
330
193
100
AcDbEntity
  8
0
 62
     0
  0
LINE
  5
194
330
192
100
AcDbEntity
  8
0
 62
     0
100
AcDbLine
 10
-0.5
 20
0.0
 30
0.0
 11
-1.0
 21
0.0
 31
0.0
  0
ENDBLK
  5
196
330
192
100
AcDbEntity
  8
0
100
AcDbBlockEnd
  0
BLOCK
  5
5D1
330
5CE
100
AcDbEntity
  8
0
100
AcDbBlockBegin
  2
A3
 70
     0
 10
0.0
 20
0.0
 30
0.0
  3
A3
  1

  0
POLYLINE
  5
5CF
330
5CE
100
AcDbEntity
  8
HOJO
100
AcDb2dPolyline
 66
     1
 10
0.0
 20
0.0
 30
0.0
 70
     1
  0
VERTEX
  5
B5B
330
5CF
100
AcDbEntity
  8
HOJO
100
AcDbVertex
100
AcDb2dVertex
 10
0.0
 20
0.0
 30
0.0
  0
VERTEX
  5
B5C
330
5CF
100
AcDbEntity
  8
HOJO
100
AcDbVertex
100
AcDb2dVertex
 10
420.0
 20
0.0
 30
0.0
  0
VERTEX
  5
B5D
330
5CF
100
AcDbEntity
  8
HOJO
100
AcDbVertex
100
AcDb2dVertex
 10
420.0
 20
297.0
 30
0.0
  0
VERTEX
  5
B5E
330
5CF
100
AcDbEntity
  8
HOJO
100
AcDbVertex
100
AcDb2dVertex
 10
0.0
 20
297.0
 30
0.0
  0
SEQEND
  5
B5F
330
5CF
100
AcDbEntity
  8
HOJO
  0
POLYLINE
  5
5D0
330
5CE
100
AcDbEntity
  8
HOJO
100
AcDb2dPolyline
 66
     1
 10
0.0
 20
0.0
 30
0.0
 70
     1
  0
VERTEX
  5
B60
330
5D0
100
AcDbEntity
  8
HOJO
100
AcDbVertex
100
AcDb2dVertex
 10
18.0
 20
13.0
 30
0.0
  0
VERTEX
  5
B61
330
5D0
100
AcDbEntity
  8
HOJO
100
AcDbVertex
100
AcDb2dVertex
 10
402.0
 20
13.0
 30
0.0
  0
VERTEX
  5
B62
330
5D0
100
AcDbEntity
  8
HOJO
100
AcDbVertex
100
AcDb2dVertex
 10
402.0
 20
284.0
 30
0.0
  0
VERTEX
  5
B63
330
5D0
100
AcDbEntity
  8
HOJO
100
AcDbVertex
100
AcDb2dVertex
 10
18.0
 20
284.0
 30
0.0
  0
SEQEND
  5
B64
330
5D0
100
AcDbEntity
  8
HOJO
  0
ENDBLK
  5
5D2
330
5CE
100
AcDbEntity
  8
0
100
AcDbBlockEnd
  0
BLOCK
  5
5D9
330
5D6
100
AcDbEntity
  8
0
100
AcDbBlockBegin
  2
A4
 70
     0
 10
0.0
 20
0.0
 30
0.0
  3
A4
  1

  0
POLYLINE
  5
5D7
330
5D6
100
AcDbEntity
  8
HOJO
100
AcDb2dPolyline
 66
     1
 10
0.0
 20
0.0
 30
0.0
 70
     1
  0
VERTEX
  5
B65
330
5D7
100
AcDbEntity
  8
HOJO
100
AcDbVertex
100
AcDb2dVertex
 10
0.0
 20
0.0
 30
0.0
  0
VERTEX
  5
B66
330
5D7
100
AcDbEntity
  8
HOJO
100
AcDbVertex
100
AcDb2dVertex
 10
297.0
 20
0.0
 30
0.0
  0
VERTEX
  5
B67
330
5D7
100
AcDbEntity
  8
HOJO
100
AcDbVertex
100
AcDb2dVertex
 10
297.0
 20
210.0
 30
0.0
  0
VERTEX
  5
B68
330
5D7
100
AcDbEntity
  8
HOJO
100
AcDbVertex
100
AcDb2dVertex
 10
0.0
 20
210.0
 30
0.0
  0
SEQEND
  5
B69
330
5D7
100
AcDbEntity
  8
HOJO
  0
POLYLINE
  5
5D8
330
5D6
100
AcDbEntity
  8
HOJO
100
AcDb2dPolyline
 66
     1
 10
0.0
 20
0.0
 30
0.0
 70
     1
  0
VERTEX
  5
B6A
330
5D8
100
AcDbEntity
  8
HOJO
100
AcDbVertex
100
AcDb2dVertex
 10
18.0
 20
13.0
 30
0.0
  0
VERTEX
  5
B6B
330
5D8
100
AcDbEntity
  8
HOJO
100
AcDbVertex
100
AcDb2dVertex
 10
279.0
 20
13.0
 30
0.0
  0
VERTEX
  5
B6C
330
5D8
100
AcDbEntity
  8
HOJO
100
AcDbVertex
100
AcDb2dVertex
 10
279.0
 20
197.0
 30
0.0
  0
VERTEX
  5
B6D
330
5D8
100
AcDbEntity
  8
HOJO
100
AcDbVertex
100
AcDb2dVertex
 10
18.0
 20
197.0
 30
0.0
  0
SEQEND
  5
B6E
330
5D8
100
AcDbEntity
  8
HOJO
  0
ENDBLK
  5
5DA
330
5D6
100
AcDbEntity
  8
0
100
AcDbBlockEnd
  0
BLOCK
  5
5E9
330
5DB
100
AcDbEntity
  8
0
100
AcDbBlockBegin
  2
A4YOKO
 70
     0
 10
0.0
 20
0.0
 30
0.0
  3
A4YOKO
  1

  0
POLYLINE
  5
5DC
330
5DB
100
AcDbEntity
  8
HOJO
100
AcDb2dPolyline
 66
     1
 10
0.0
 20
0.0
 30
0.0
 70
     1
  0
VERTEX
  5
B6F
330
5DC
100
AcDbEntity
  8
HOJO
100
AcDbVertex
100
AcDb2dVertex
 10
0.0
 20
0.0
 30
0.0
  0
VERTEX
  5
B70
330
5DC
100
AcDbEntity
  8
HOJO
100
AcDbVertex
100
AcDb2dVertex
 10
5940.0
 20
0.0
 30
0.0
  0
VERTEX
  5
B71
330
5DC
100
AcDbEntity
  8
HOJO
100
AcDbVertex
100
AcDb2dVertex
 10
5940.0
 20
4200.0
 30
0.0
  0
VERTEX
  5
B72
330
5DC
100
AcDbEntity
  8
HOJO
100
AcDbVertex
100
AcDb2dVertex
 10
0.0
 20
4200.0
 30
0.0
  0
SEQEND
  5
B73
330
5DC
100
AcDbEntity
  8
HOJO
  0
POLYLINE
  5
5DD
330
5DB
100
AcDbEntity
  8
HOJO
100
AcDb2dPolyline
 66
     1
 10
0.0
 20
0.0
 30
0.0
 70
     1
  0
VERTEX
  5
B74
330
5DD
100
AcDbEntity
  8
HOJO
100
AcDbVertex
100
AcDb2dVertex
 10
360.0
 20
260.0
 30
0.0
  0
VERTEX
  5
B75
330
5DD
100
AcDbEntity
  8
HOJO
100
AcDbVertex
100
AcDb2dVertex
 10
5580.0
 20
260.0
 30
0.0
  0
VERTEX
  5
B76
330
5DD
100
AcDbEntity
  8
HOJO
100
AcDbVertex
100
AcDb2dVertex
 10
5580.0
 20
3940.0
 30
0.0
  0
VERTEX
  5
B77
330
5DD
100
AcDbEntity
  8
HOJO
100
AcDbVertex
100
AcDb2dVertex
 10
360.0
 20
3940.0
 30
0.0
  0
SEQEND
  5
B78
330
5DD
100
AcDbEntity
  8
HOJO
  0
LINE
  5
5DE
330
5DB
100
AcDbEntity
  8
HOJO
100
AcDbLine
 10
360.0
 20
260.0
 30
0.0
 11
5580.0
 21
260.0
 31
0.0
  0
LINE
  5
5DF
330
5DB
100
AcDbEntity
  8
HOJO
100
AcDbLine
 10
360.0
 20
560.0
 30
0.0
 11
5580.0
 21
560.0
 31
0.0
  0
LINE
  5
5E0
330
5DB
100
AcDbEntity
  8
HOJO
100
AcDbLine
 10
360.0
 20
260.0
 30
0.0
 11
360.0
 21
560.0
 31
0.0
  0
LINE
  5
5E1
330
5DB
100
AcDbEntity
  8
HOJO
100
AcDbLine
 10
2360.0
 20
260.0
 30
0.0
 11
2360.0
 21
560.0
 31
0.0
  0
LINE
  5
5E2
330
5DB
100
AcDbEntity
  8
HOJO
100
AcDbLine
 10
3160.0
 20
260.0
 30
0.0
 11
3160.0
 21
560.0
 31
0.0
  0
LINE
  5
5E3
330
5DB
100
AcDbEntity
  8
HOJO
100
AcDbLine
 10
3660.0
 20
260.0
 30
0.0
 11
3660.0
 21
560.0
 31
0.0
  0
MTEXT
  5
5E4
330
5DB
100
AcDbEntity
  8
MOJI
100
AcDbMText
 10
3730.870883051572
 20
452.2726133092146
 30
0.0
 40
100.0
 41
1850.299599999999
 71
     1
 72
     1
  1
千葉県コンクリート製品協同組合
  7
ADD
1001
ACAD
1000
MTEXTBEGIN
1070
    73
1070
     1
1070
    44
1040
1.0
1070
    74
1070
     0
1000
MTEXTEND
1000
MTEXTBEGIN
1070
    73
1070
     1
1070
    44
1040
1.0
1070
    74
1070
     0
1000
MTEXTEND
  0
MTEXT
  5
5E5
330
5DB
100
AcDbEntity
  8
MOJI
100
AcDbMText
 10
3177.510249231658
 20
538.6918916770627
 30
0.0
 40
50.0
 41
247.8594
 71
     1
 72
     1
  1
縮尺
  7
ADD
1001
ACAD
1000
MTEXTBEGIN
1070
    73
1070
     1
1070
    44
1040
1.0
1070
    74
1070
     0
1000
MTEXTEND
1000
MTEXTBEGIN
1070
    73
1070
     1
1070
    44
1040
1.0
1070
    74
1070
     0
1000
MTEXTEND
  0
MTEXT
  5
5E6
330
5DB
100
AcDbEntity
  8
MOJI
100
AcDbMText
 10
2376.290169028722
 20
544.4531736811823
 30
0.0
 40
50.0
 41
322.7937
 71
     1
 72
     1
  1
型式
  7
ADD
1001
ACAD
1000
MTEXTBEGIN
1070
    73
1070
     1
1070
    44
1040
1.0
1070
    74
1070
     0
1000
MTEXTEND
1000
MTEXTBEGIN
1070
    73
1070
     1
1070
    44
1040
1.0
1070
    74
1070
     0
1000
MTEXTEND
  0
MTEXT
  5
5E7
330
5DB
100
AcDbEntity
  8
MOJI
100
AcDbMText
 10
381.8862574011546
 20
538.6918916770627
 30
0.0
 40
50.0
 41
956.8527000000001
 71
     1
 72
     1
  1
製品名
  7
ADD
1001
ACAD
1000
MTEXTBEGIN
1070
    73
1070
     1
1070
    44
1040
1.0
1070
    74
1070
     0
1000
MTEXTEND
1000
MTEXTBEGIN
1070
    73
1070
     1
1070
    44
1040
1.0
1070
    74
1070
     0
1000
MTEXTEND
  0
MTEXT
  5
5E8
330
5DB
100
AcDbEntity
  8
MOJI
100
AcDbMText
 10
3246.680311730542
 20
429.2274732162223
 30
0.0
 40
70.0
 41
380.4354
 71
     1
 72
     1
  1
１／２０
  7
ADD
1001
ACAD
1000
MTEXTBEGIN
1070
    73
1070
     1
1070
    44
1040
1.0
1070
    74
1070
     0
1000
MTEXTEND
1000
MTEXTBEGIN
1070
    73
1070
     1
1070
    44
1040
1.0
1070
    74
1070
     0
1000
MTEXTEND
  0
ENDBLK
  5
5EA
330
5DB
100
AcDbEntity
  8
0
100
AcDbBlockEnd
  0
ENDSEC
  0
SECTION
  2
ENTITIES
  0
LINE
  5
5EE
330
1F
100
AcDbEntity
  8
HOJO
100
AcDbLine
 10
2820.0
 20
260.0
 30
0.0
 11
8040.0
 21
260.0
 31
0.0
  0
LINE
  5
5EF
330
1F
100
AcDbEntity
  8
HOJO
100
AcDbLine
 10
2820.0
 20
560.0
 30
0.0
 11
8040.0
 21
560.0
 31
0.0
  0
LINE
  5
5F0
330
1F
100
AcDbEntity
  8
HOJO
100
AcDbLine
 10
2820.0
 20
260.0
 30
0.0
 11
2820.0
 21
560.0
 31
0.0
  0
LINE
  5
5F1
330
1F
100
AcDbEntity
  8
HOJO
100
AcDbLine
 10
4820.0
 20
260.0
 30
0.0
 11
4820.0
 21
560.0
 31
0.0
  0
LINE
  5
5F2
330
1F
100
AcDbEntity
  8
HOJO
100
AcDbLine
 10
5620.0
 20
260.0
 30
0.0
 11
5620.0
 21
560.0
 31
0.0
  0
LINE
  5
5F3
330
1F
100
AcDbEntity
  8
HOJO
100
AcDbLine
 10
6120.0
 20
260.0
 30
0.0
 11
6120.0
 21
560.0
 31
0.0
  0
LINE
  5
60B
330
1F
100
AcDbEntity
  8
3C1
100
AcDbLine
 10
2958.196826085623
 20
3952.382639168392
 30
0.0
 11
2958.196826085623
 21
2202.382639168392
 31
0.0
  0
LINE
  5
60C
330
1F
100
AcDbEntity
  8
3C1
100
AcDbLine
 10
2958.196826085623
 20
2202.382639168392
 30
0.0
 11
6338.196826085623
 21
2202.382639168392
 31
0.0
  0
LINE
  5
60D
330
1F
100
AcDbEntity
  8
3C1
100
AcDbLine
 10
6338.196826085623
 20
2202.382639168392
 30
0.0
 11
6338.196826085623
 21
3952.382639168392
 31
0.0
  0
LINE
  5
60E
330
1F
100
AcDbEntity
  8
3C1
100
AcDbLine
 10
2958.196826085623
 20
3952.382639168392
 30
0.0
 11
3148.196826085623
 21
3952.382639168392
 31
0.0
  0
LINE
  5
60F
330
1F
100
AcDbEntity
  8
3C1
100
AcDbLine
 10
6338.196826085623
 20
3952.382639168392
 30
0.0
 11
6148.196826085623
 21
3952.382639168392
 31
0.0
  0
LINE
  5
613
330
1F
100
AcDbEntity
  8
3C1
100
AcDbLine
 10
3228.196826085623
 20
2452.382639168392
 30
0.0
 11
6068.196826085624
 21
2452.382639168392
 31
0.0
  0
LINE
  5
614
330
1F
100
AcDbEntity
  8
3C1
100
AcDbLine
 10
3148.196826085623
 20
3952.382639168392
 30
0.0
 11
3207.397465318645
 21
2472.366658342827
 31
0.0
  0
LINE
  5
615
330
1F
100
AcDbEntity
  8
3C1
100
AcDbLine
 10
6148.196826085623
 20
3952.382639168392
 30
0.0
 11
6088.996186852601
 21
2472.366658342828
 31
0.0
  0
LINE
  5
616
330
1F
100
AcDbEntity
  8
3C1
100
AcDbLine
 10
3088.148845270278
 20
3952.382639168392
 30
0.0
 11
3148.148845270278
 21
2452.382639168392
 31
0.0
  0
LINE
  5
617
330
1F
100
AcDbEntity
  8
3C1
100
AcDbLine
 10
6208.244806900967
 20
3952.382639168393
 30
0.0
 11
6148.244806900967
 21
2452.382639168392
 31
0.0
  0
LINE
  5
618
330
1F
100
AcDbEntity
  8
3C1
100
AcDbLine
 10
3068.100864454935
 20
2952.382639168392
 30
0.0
 11
3088.100864454933
 21
2452.382639168392
 31
0.0
  0
LINE
  5
619
330
1F
100
AcDbEntity
  8
3C1
100
AcDbLine
 10
6228.292787716311
 20
2952.382639168392
 30
0.0
 11
6208.292787716313
 21
2452.382639168392
 31
0.0
  0
LINE
  5
61A
330
1F
100
AcDbEntity
  8
3C1
100
AcDbLine
 10
2958.196826085623
 20
2952.382639168392
 30
0.0
 11
3068.100864454935
 21
2952.382639168392
 31
0.0
  0
LINE
  5
61B
330
1F
100
AcDbEntity
  8
3C1
100
AcDbLine
 10
6228.292787716311
 20
2952.382639168392
 30
0.0
 11
6338.196826085623
 21
2952.382639168392
 31
0.0
  0
LINE
  5
61C
330
1F
100
AcDbEntity
  8
3C1
100
AcDbLine
 10
3207.397465318645
 20
2472.366658342827
 30
0.0
 11
3228.196826085623
 21
2452.382639168392
 31
0.0
  0
LINE
  5
61D
330
1F
100
AcDbEntity
  8
3C1
100
AcDbLine
 10
6068.196826085624
 20
2452.382639168392
 30
0.0
 11
6088.996186852601
 21
2472.366658342828
 31
0.0
  0
LINE
  5
61E
330
1F
100
AcDbEntity
  8
3C1
100
AcDbLine
 10
3148.148845270278
 20
2452.382639168392
 30
0.0
 11
3088.100864454933
 21
2452.382639168392
 31
0.0
  0
LINE
  5
61F
330
1F
100
AcDbEntity
  8
3C1
100
AcDbLine
 10
6148.244806900966
 20
2452.382639168392
 30
0.0
 11
6208.292787716313
 21
2452.382639168392
 31
0.0
  0
LINE
  5
620
330
1F
100
AcDbEntity
  8
3C1
100
AcDbLine
 10
2358.196826085622
 20
3952.382639168392
 30
0.0
 11
2358.196826085622
 21
2202.382639168392
 31
0.0
  0
LINE
  5
621
330
1F
100
AcDbEntity
  8
3C1
100
AcDbLine
 10
2358.196826085622
 20
2202.382639168392
 30
0.0
 11
2178.196826085622
 21
2202.382639168392
 31
0.0
  0
LINE
  5
622
330
1F
100
AcDbEntity
  8
3C1
100
AcDbLine
 10
2178.196826085622
 20
2202.382639168392
 30
0.0
 11
2178.196826085622
 21
3952.382639168392
 31
0.0
  0
LINE
  5
623
330
1F
100
AcDbEntity
  8
3C1
100
AcDbLine
 10
2178.196826085622
 20
3952.382639168392
 30
0.0
 11
2358.196826085622
 21
3952.382639168392
 31
0.0
  0
LINE
  5
628
330
1F
100
AcDbEntity
  8
3C1
100
AcDbLine
 10
2358.196826085622
 20
2952.382639168392
 30
0.0
 11
2178.196826085622
 21
2952.382639168392
 31
0.0
  0
LINE
  5
67D
330
1F
100
AcDbEntity
  8
3C1
100
AcDbLine
 10
2228.196826085623
 20
2952.382639168392
 30
0.0
 11
2228.196826085623
 21
3952.382639168392
 31
0.0
  0
LINE
  5
67E
330
1F
100
AcDbEntity
  8
3C1
100
AcDbLine
 10
2308.196826085623
 20
3952.382639168392
 30
0.0
 11
2308.196826085623
 21
2952.382639168392
 31
0.0
  0
LINE
  5
67F
330
1F
100
AcDbEntity
  8
3C1
100
AcDbLine
 10
2233.196826085622
 20
2952.382639168392
 30
0.0
 11
2233.196826085622
 21
3952.382639168392
 31
0.0
  0
LINE
  5
680
330
1F
100
AcDbEntity
  8
3C1
100
AcDbLine
 10
2303.196826085622
 20
3952.382639168392
 30
0.0
 11
2303.196826085622
 21
2952.382639168392
 31
0.0
  0
LINE
  5
681
330
1F
100
AcDbEntity
  8
4H2
100
AcDbLine
 10
2228.299665405353
 20
2944.662085645508
 30
0.0
 11
2228.299665405353
 21
2444.662085645508
 31
0.0
  0
LINE
  5
682
330
1F
100
AcDbEntity
  8
4H2
100
AcDbLine
 10
2228.299665405353
 20
2444.662085645508
 30
0.0
 11
2178.196826085622
 21
2444.662085645508
 31
0.0
  0
LINE
  5
683
330
1F
100
AcDbEntity
  8
4H2
100
AcDbLine
 10
2308.196826085623
 20
2952.382639168392
 30
0.0
 11
2308.196826085623
 21
2452.382639168392
 31
0.0
  0
LINE
  5
684
330
1F
100
AcDbEntity
  8
4H2
100
AcDbLine
 10
2308.196826085623
 20
2452.382639168392
 30
0.0
 11
2358.196826085622
 21
2452.382639168392
 31
0.0
  0
LINE
  5
A33
330
1F
100
AcDbEntity
  8
SUNPO
 62
   144
100
AcDbLine
 10
2178.196826085622
 20
2182.382639168392
 30
0.0
 11
2178.196826085622
 21
1484.586691329361
 31
0.0
  0
LINE
  5
A34
330
1F
100
AcDbEntity
  8
SUNPO
 62
   144
100
AcDbLine
 10
2358.196826085622
 20
2182.382639168392
 30
0.0
 11
2358.196826085622
 21
1484.586691329361
 31
0.0
  0
LINE
  5
A35
330
1F
100
AcDbEntity
  8
SUNPO
 62
   144
100
AcDbLine
 10
2192.196826085623
 20
1494.586691329361
 30
0.0
 11
2344.196826085622
 21
1494.586691329361
 31
0.0
  0
SOLID
  5
A36
330
1F
100
AcDbEntity
  8
SUNPO
 62
   144
100
AcDbTrace
 10
2192.196826085623
 20
1496.920024662694
 30
0.0
 11
2192.196826085623
 21
1492.253357996028
 31
0.0
 12
2178.196826085622
 22
1494.586691329361
 32
0.0
 13
2178.196826085622
 23
1494.586691329361
 33
0.0
  0
SOLID
  5
A37
330
1F
100
AcDbEntity
  8
SUNPO
 62
   144
100
AcDbTrace
 10
2344.196826085622
 20
1496.920024662694
 30
0.0
 11
2344.196826085622
 21
1492.253357996028
 31
0.0
 12
2358.196826085622
 22
1494.586691329361
 32
0.0
 13
2358.196826085622
 23
1494.586691329361
 33
0.0
  0
LINE
  5
A39
330
1F
100
AcDbEntity
  8
SUNPO
 62
   144
100
AcDbLine
 10
3227.397465318645
 20
2452.382639168392
 30
0.0
 11
3454.308137620847
 21
2452.382639168392
 31
0.0
  0
LINE
  5
A3A
330
1F
100
AcDbEntity
  8
SUNPO
 62
   144
100
AcDbLine
 10
3227.397465318645
 20
2472.366658342827
 30
0.0
 11
3454.308137620847
 21
2472.366658342827
 31
0.0
  0
LINE
  5
A3B
330
1F
100
AcDbEntity
  8
SUNPO
 62
   144
100
AcDbLine
 10
3444.308137620847
 20
2438.382639168392
 30
0.0
 11
3444.308137620847
 21
2424.382639168392
 31
0.0
  0
LINE
  5
A3C
330
1F
100
AcDbEntity
  8
SUNPO
 62
   144
100
AcDbLine
 10
3444.308137620847
 20
2486.366658342827
 30
0.0
 11
3444.308137620847
 21
2500.366658342827
 31
0.0
  0
LINE
  5
A3E
330
1F
100
AcDbEntity
  8
SUNPO
 62
   144
100
AcDbLine
 10
3444.308137620847
 20
2452.382639168392
 30
0.0
 11
3444.308137620847
 21
2472.366658342827
 31
0.0
  0
SOLID
  5
A3F
330
1F
100
AcDbEntity
  8
SUNPO
 62
   144
100
AcDbTrace
 10
3441.974804287513
 20
2438.382639168392
 30
0.0
 11
3446.64147095418
 21
2438.382639168392
 31
0.0
 12
3444.308137620847
 22
2452.382639168392
 32
0.0
 13
3444.308137620847
 23
2452.382639168392
 33
0.0
  0
SOLID
  5
A40
330
1F
100
AcDbEntity
  8
SUNPO
 62
   144
100
AcDbTrace
 10
3441.974804287513
 20
2486.366658342827
 30
0.0
 11
3446.64147095418
 21
2486.366658342827
 31
0.0
 12
3444.308137620847
 22
2472.366658342827
 32
0.0
 13
3444.308137620847
 23
2472.366658342827
 33
0.0
  0
LINE
  5
A41
330
1F
100
AcDbEntity
  8
SUNPO
 62
   144
100
AcDbLine
 10
3207.397465318645
 20
2472.382639168392
 30
0.0
 11
3207.397465318645
 21
2678.507650069778
 31
0.0
  0
LINE
  5
A42
330
1F
100
AcDbEntity
  8
SUNPO
 62
   144
100
AcDbLine
 10
3228.196826085623
 20
2472.382639168392
 30
0.0
 11
3228.196826085623
 21
2678.507650069778
 31
0.0
  0
LINE
  5
A43
330
1F
100
AcDbEntity
  8
SUNPO
 62
   144
100
AcDbLine
 10
3193.397465318645
 20
2668.507650069777
 30
0.0
 11
3179.397465318645
 21
2668.507650069777
 31
0.0
  0
LINE
  5
A44
330
1F
100
AcDbEntity
  8
SUNPO
 62
   144
100
AcDbLine
 10
3242.196826085623
 20
2668.507650069777
 30
0.0
 11
3256.196826085623
 21
2668.507650069777
 31
0.0
  0
LINE
  5
A46
330
1F
100
AcDbEntity
  8
SUNPO
 62
   144
100
AcDbLine
 10
3207.397465318645
 20
2668.507650069777
 30
0.0
 11
3228.196826085623
 21
2668.507650069777
 31
0.0
  0
SOLID
  5
A47
330
1F
100
AcDbEntity
  8
SUNPO
 62
   144
100
AcDbTrace
 10
3193.397465318645
 20
2670.840983403111
 30
0.0
 11
3193.397465318645
 21
2666.174316736444
 31
0.0
 12
3207.397465318645
 22
2668.507650069777
 32
0.0
 13
3207.397465318645
 23
2668.507650069777
 33
0.0
  0
SOLID
  5
A48
330
1F
100
AcDbEntity
  8
SUNPO
 62
   144
100
AcDbTrace
 10
3242.196826085623
 20
2670.840983403111
 30
0.0
 11
3242.196826085623
 21
2666.174316736444
 31
0.0
 12
3228.196826085623
 22
2668.507650069777
 32
0.0
 13
3228.196826085623
 23
2668.507650069777
 33
0.0
  0
TEXT
  5
A49
330
1F
100
AcDbEntity
  8
SUNPO
100
AcDbText
 10
4965.748664116722
 20
408.1580982061969
 30
0.0
 40
50.0
  1
1500×3000
  7
ADD
100
AcDbText
  0
TEXT
  5
A4A
330
1F
100
AcDbEntity
  8
SUNPO
100
AcDbText
 10
3035.772925871522
 20
401.3725730101668
 30
0.0
 40
50.0
  1
B型柵渠 杭
  7
ADD
100
AcDbText
  0
LINE
  5
A4B
330
1F
100
AcDbEntity
  8
SUNPO
 62
   144
100
AcDbLine
 10
6148.196826085623
 20
3972.382639168392
 30
0.0
 11
6148.196826085623
 21
4311.475298592774
 31
0.0
  0
LINE
  5
A4C
330
1F
100
AcDbEntity
  8
SUNPO
 62
   144
100
AcDbLine
 10
6208.244806900967
 20
3972.382639168392
 30
0.0
 11
6208.244806900967
 21
4311.475298592774
 31
0.0
  0
LINE
  5
A4D
330
1F
100
AcDbEntity
  8
SUNPO
 62
   144
100
AcDbLine
 10
6162.196826085622
 20
4301.475298592773
 30
0.0
 11
6194.244806900967
 21
4301.475298592773
 31
0.0
  0
SOLID
  5
A4F
330
1F
100
AcDbEntity
  8
SUNPO
 62
   144
100
AcDbTrace
 10
6162.196826085622
 20
4303.808631926107
 30
0.0
 11
6162.196826085622
 21
4299.14196525944
 31
0.0
 12
6148.196826085623
 22
4301.475298592773
 32
0.0
 13
6148.196826085623
 23
4301.475298592773
 33
0.0
  0
SOLID
  5
A50
330
1F
100
AcDbEntity
  8
SUNPO
 62
   144
100
AcDbTrace
 10
6194.244806900967
 20
4303.808631926107
 30
0.0
 11
6194.244806900967
 21
4299.14196525944
 31
0.0
 12
6208.244806900967
 22
4301.475298592773
 32
0.0
 13
6208.244806900967
 23
4301.475298592773
 33
0.0
  0
LINE
  5
A51
330
1F
100
AcDbEntity
  8
SUNPO
 62
   144
100
AcDbLine
 10
3148.196826085623
 20
3972.382639168392
 30
0.0
 11
3148.196826085623
 21
4311.475298592774
 31
0.0
  0
LINE
  5
A52
330
1F
100
AcDbEntity
  8
SUNPO
 62
   144
100
AcDbLine
 10
3088.148845270278
 20
3972.382639168392
 30
0.0
 11
3088.148845270278
 21
4311.475298592774
 31
0.0
  0
LINE
  5
A53
330
1F
100
AcDbEntity
  8
SUNPO
 62
   144
100
AcDbLine
 10
3134.196826085623
 20
4301.475298592773
 30
0.0
 11
3102.148845270278
 21
4301.475298592773
 31
0.0
  0
SOLID
  5
A55
330
1F
100
AcDbEntity
  8
SUNPO
 62
   144
100
AcDbTrace
 10
3134.196826085623
 20
4303.808631926107
 30
0.0
 11
3134.196826085623
 21
4299.14196525944
 31
0.0
 12
3148.196826085623
 22
4301.475298592773
 32
0.0
 13
3148.196826085623
 23
4301.475298592773
 33
0.0
  0
SOLID
  5
A56
330
1F
100
AcDbEntity
  8
SUNPO
 62
   144
100
AcDbTrace
 10
3102.148845270278
 20
4303.808631926107
 30
0.0
 11
3102.148845270278
 21
4299.14196525944
 31
0.0
 12
3088.148845270278
 22
4301.475298592773
 32
0.0
 13
3088.148845270278
 23
4301.475298592773
 33
0.0
  0
LINE
  5
A57
330
1F
100
AcDbEntity
  8
SUNPO
 62
   144
100
AcDbLine
 10
6088.196826085623
 20
2182.382639168392
 30
0.0
 11
6088.196826085623
 21
1787.13803298829
 31
0.0
  0
LINE
  5
A58
330
1F
100
AcDbEntity
  8
SUNPO
 62
   144
100
AcDbLine
 10
6338.196826085623
 20
2182.382639168392
 30
0.0
 11
6338.196826085623
 21
1787.13803298829
 31
0.0
  0
LINE
  5
A59
330
1F
100
AcDbEntity
  8
SUNPO
 62
   144
100
AcDbLine
 10
6102.196826085623
 20
1797.13803298829
 30
0.0
 11
6324.196826085623
 21
1797.13803298829
 31
0.0
  0
SOLID
  5
A5A
330
1F
100
AcDbEntity
  8
SUNPO
 62
   144
100
AcDbTrace
 10
6102.196826085623
 20
1799.471366321624
 30
0.0
 11
6102.196826085623
 21
1794.804699654957
 31
0.0
 12
6088.196826085623
 22
1797.13803298829
 32
0.0
 13
6088.196826085623
 23
1797.13803298829
 33
0.0
  0
SOLID
  5
A5B
330
1F
100
AcDbEntity
  8
SUNPO
 62
   144
100
AcDbTrace
 10
6324.196826085623
 20
1799.471366321624
 30
0.0
 11
6324.196826085623
 21
1794.804699654957
 31
0.0
 12
6338.196826085623
 22
1797.13803298829
 32
0.0
 13
6338.196826085623
 23
1797.13803298829
 33
0.0
  0
LINE
  5
A5D
330
1F
100
AcDbEntity
  8
SUNPO
 62
   144
100
AcDbLine
 10
3208.196826085623
 20
2182.382639168392
 30
0.0
 11
3208.196826085623
 21
1787.13803298829
 31
0.0
  0
LINE
  5
A5E
330
1F
100
AcDbEntity
  8
SUNPO
 62
   144
100
AcDbLine
 10
6088.196826085623
 20
2182.382639168392
 30
0.0
 11
6088.196826085623
 21
1787.13803298829
 31
0.0
  0
LINE
  5
A5F
330
1F
100
AcDbEntity
  8
SUNPO
 62
   144
100
AcDbLine
 10
3222.196826085623
 20
1797.13803298829
 30
0.0
 11
6074.196826085623
 21
1797.13803298829
 31
0.0
  0
SOLID
  5
A60
330
1F
100
AcDbEntity
  8
SUNPO
 62
   144
100
AcDbTrace
 10
3222.196826085623
 20
1799.471366321624
 30
0.0
 11
3222.196826085623
 21
1794.804699654957
 31
0.0
 12
3208.196826085623
 22
1797.13803298829
 32
0.0
 13
3208.196826085623
 23
1797.13803298829
 33
0.0
  0
SOLID
  5
A61
330
1F
100
AcDbEntity
  8
SUNPO
 62
   144
100
AcDbTrace
 10
6074.196826085623
 20
1799.471366321624
 30
0.0
 11
6074.196826085623
 21
1794.804699654957
 31
0.0
 12
6088.196826085623
 22
1797.13803298829
 32
0.0
 13
6088.196826085623
 23
1797.13803298829
 33
0.0
  0
LINE
  5
A63
330
1F
100
AcDbEntity
  8
SUNPO
 62
   144
100
AcDbLine
 10
2958.196826085623
 20
2182.382639168392
 30
0.0
 11
2958.196826085623
 21
1787.13803298829
 31
0.0
  0
LINE
  5
A64
330
1F
100
AcDbEntity
  8
SUNPO
 62
   144
100
AcDbLine
 10
3208.196826085623
 20
2182.382639168392
 30
0.0
 11
3208.196826085623
 21
1787.13803298829
 31
0.0
  0
LINE
  5
A65
330
1F
100
AcDbEntity
  8
SUNPO
 62
   144
100
AcDbLine
 10
2972.196826085623
 20
1797.13803298829
 30
0.0
 11
3194.196826085622
 21
1797.13803298829
 31
0.0
  0
SOLID
  5
A66
330
1F
100
AcDbEntity
  8
SUNPO
 62
   144
100
AcDbTrace
 10
2972.196826085623
 20
1799.471366321624
 30
0.0
 11
2972.196826085623
 21
1794.804699654957
 31
0.0
 12
2958.196826085623
 22
1797.13803298829
 32
0.0
 13
2958.196826085623
 23
1797.13803298829
 33
0.0
  0
SOLID
  5
A67
330
1F
100
AcDbEntity
  8
SUNPO
 62
   144
100
AcDbTrace
 10
3194.196826085622
 20
1799.471366321624
 30
0.0
 11
3194.196826085622
 21
1794.804699654957
 31
0.0
 12
3208.196826085623
 22
1797.13803298829
 32
0.0
 13
3208.196826085623
 23
1797.13803298829
 33
0.0
  0
LINE
  5
A69
330
1F
100
AcDbEntity
  8
SUNPO
 62
   144
100
AcDbLine
 10
2958.196826085623
 20
2182.382639168392
 30
0.0
 11
2958.196826085623
 21
1494.586691329361
 31
0.0
  0
LINE
  5
A6A
330
1F
100
AcDbEntity
  8
SUNPO
 62
   144
100
AcDbLine
 10
6338.196826085623
 20
2182.382639168392
 30
0.0
 11
6338.196826085623
 21
1494.586691329361
 31
0.0
  0
LINE
  5
A6B
330
1F
100
AcDbEntity
  8
SUNPO
 62
   144
100
AcDbLine
 10
2972.196826085623
 20
1504.586691329361
 30
0.0
 11
6324.196826085623
 21
1504.586691329361
 31
0.0
  0
SOLID
  5
A6C
330
1F
100
AcDbEntity
  8
SUNPO
 62
   144
100
AcDbTrace
 10
2972.196826085623
 20
1506.920024662694
 30
0.0
 11
2972.196826085623
 21
1502.253357996027
 31
0.0
 12
2958.196826085623
 22
1504.586691329361
 32
0.0
 13
2958.196826085623
 23
1504.586691329361
 33
0.0
  0
SOLID
  5
A6D
330
1F
100
AcDbEntity
  8
SUNPO
 62
   144
100
AcDbTrace
 10
6324.196826085623
 20
1506.920024662694
 30
0.0
 11
6324.196826085623
 21
1502.253357996027
 31
0.0
 12
6338.196826085623
 22
1504.586691329361
 32
0.0
 13
6338.196826085623
 23
1504.586691329361
 33
0.0
  0
LINE
  5
A6F
330
1F
100
AcDbEntity
  8
SUNPO
 62
   144
100
AcDbLine
 10
2938.196826085622
 20
2452.382639168392
 30
0.0
 11
2790.132521545485
 21
2452.382639168392
 31
0.0
  0
LINE
  5
A70
330
1F
100
AcDbEntity
  8
SUNPO
 62
   144
100
AcDbLine
 10
2938.196826085622
 20
3952.382639168392
 30
0.0
 11
2790.132521545485
 21
3952.382639168392
 31
0.0
  0
LINE
  5
A71
330
1F
100
AcDbEntity
  8
SUNPO
 62
   144
100
AcDbLine
 10
2800.132521545485
 20
2466.382639168392
 30
0.0
 11
2800.132521545485
 21
3938.382639168392
 31
0.0
  0
SOLID
  5
A72
330
1F
100
AcDbEntity
  8
SUNPO
 62
   144
100
AcDbTrace
 10
2797.799188212151
 20
2466.382639168392
 30
0.0
 11
2802.465854878818
 21
2466.382639168392
 31
0.0
 12
2800.132521545485
 22
2452.382639168392
 32
0.0
 13
2800.132521545485
 23
2452.382639168392
 33
0.0
  0
SOLID
  5
A73
330
1F
100
AcDbEntity
  8
SUNPO
 62
   144
100
AcDbTrace
 10
2797.799188212152
 20
3938.382639168392
 30
0.0
 11
2802.465854878819
 21
3938.382639168392
 31
0.0
 12
2800.132521545485
 22
3952.382639168392
 32
0.0
 13
2800.132521545485
 23
3952.382639168392
 33
0.0
  0
LINE
  5
A75
330
1F
100
AcDbEntity
  8
SUNPO
 62
   144
100
AcDbLine
 10
2938.196826085622
 20
2202.382639168392
 30
0.0
 11
2790.132521545485
 21
2202.382639168392
 31
0.0
  0
LINE
  5
A76
330
1F
100
AcDbEntity
  8
SUNPO
 62
   144
100
AcDbLine
 10
2938.196826085622
 20
2452.382639168392
 30
0.0
 11
2790.132521545485
 21
2452.382639168392
 31
0.0
  0
LINE
  5
A77
330
1F
100
AcDbEntity
  8
SUNPO
 62
   144
100
AcDbLine
 10
2800.132521545485
 20
2216.382639168392
 30
0.0
 11
2800.132521545485
 21
2438.382639168392
 31
0.0
  0
SOLID
  5
A78
330
1F
100
AcDbEntity
  8
SUNPO
 62
   144
100
AcDbTrace
 10
2797.799188212152
 20
2216.382639168392
 30
0.0
 11
2802.465854878819
 21
2216.382639168392
 31
0.0
 12
2800.132521545485
 22
2202.382639168392
 32
0.0
 13
2800.132521545485
 23
2202.382639168392
 33
0.0
  0
SOLID
  5
A79
330
1F
100
AcDbEntity
  8
SUNPO
 62
   144
100
AcDbTrace
 10
2797.799188212152
 20
2438.382639168392
 30
0.0
 11
2802.465854878819
 21
2438.382639168392
 31
0.0
 12
2800.132521545485
 22
2452.382639168392
 32
0.0
 13
2800.132521545485
 23
2452.382639168392
 33
0.0
  0
LINE
  5
A7B
330
1F
100
AcDbEntity
  8
SUNPO
 62
   144
100
AcDbLine
 10
2938.196826085622
 20
2202.382639168392
 30
0.0
 11
2634.349998287266
 21
2202.382639168392
 31
0.0
  0
LINE
  5
A7C
330
1F
100
AcDbEntity
  8
SUNPO
 62
   144
100
AcDbLine
 10
2938.196826085622
 20
3952.382639168392
 30
0.0
 11
2634.349998287267
 21
3952.382639168392
 31
0.0
  0
LINE
  5
A7D
330
1F
100
AcDbEntity
  8
SUNPO
 62
   144
100
AcDbLine
 10
2644.349998287267
 20
2216.382639168392
 30
0.0
 11
2644.349998287267
 21
3938.382639168392
 31
0.0
  0
SOLID
  5
A7E
330
1F
100
AcDbEntity
  8
SUNPO
 62
   144
100
AcDbTrace
 10
2642.016664953933
 20
2216.382639168392
 30
0.0
 11
2646.6833316206
 21
2216.382639168392
 31
0.0
 12
2644.349998287267
 22
2202.382639168392
 32
0.0
 13
2644.349998287267
 23
2202.382639168392
 33
0.0
  0
SOLID
  5
A7F
330
1F
100
AcDbEntity
  8
SUNPO
 62
   144
100
AcDbTrace
 10
2642.016664953934
 20
3938.382639168392
 30
0.0
 11
2646.6833316206
 21
3938.382639168392
 31
0.0
 12
2644.349998287267
 22
3952.382639168392
 32
0.0
 13
2644.349998287267
 23
3952.382639168392
 33
0.0
  0
LINE
  5
A81
330
1F
100
AcDbEntity
  8
SUNPO
 62
   144
100
AcDbLine
 10
2233.196826085622
 20
3972.382639168392
 30
0.0
 11
2233.196826085622
 21
4330.578547622388
 31
0.0
  0
LINE
  5
A82
330
1F
100
AcDbEntity
  8
SUNPO
 62
   144
100
AcDbLine
 10
2303.196826085622
 20
3972.382639168392
 30
0.0
 11
2303.196826085622
 21
4330.578547622388
 31
0.0
  0
LINE
  5
A83
330
1F
100
AcDbEntity
  8
SUNPO
 62
   144
100
AcDbLine
 10
2247.196826085623
 20
4320.578547622388
 30
0.0
 11
2289.196826085623
 21
4320.578547622388
 31
0.0
  0
SOLID
  5
A85
330
1F
100
AcDbEntity
  8
SUNPO
 62
   144
100
AcDbTrace
 10
2247.196826085623
 20
4322.911880955721
 30
0.0
 11
2247.196826085623
 21
4318.245214289055
 31
0.0
 12
2233.196826085622
 22
4320.578547622388
 32
0.0
 13
2233.196826085622
 23
4320.578547622388
 33
0.0
  0
SOLID
  5
A86
330
1F
100
AcDbEntity
  8
SUNPO
 62
   144
100
AcDbTrace
 10
2289.196826085623
 20
4322.911880955721
 30
0.0
 11
2289.196826085623
 21
4318.245214289055
 31
0.0
 12
2303.196826085622
 22
4320.578547622388
 32
0.0
 13
2303.196826085622
 23
4320.578547622388
 33
0.0
  0
LINE
  5
A87
330
1F
100
AcDbEntity
  8
SUNPO
 62
   144
100
AcDbLine
 10
2358.196826085622
 20
3972.382639168392
 30
0.0
 11
2358.196826085622
 21
4330.578547622388
 31
0.0
  0
LINE
  5
A88
330
1F
100
AcDbEntity
  8
SUNPO
 62
   144
100
AcDbLine
 10
2308.196826085623
 20
3972.382639168392
 30
0.0
 11
2308.196826085623
 21
4330.578547622388
 31
0.0
  0
LINE
  5
A89
330
1F
100
AcDbEntity
  8
SUNPO
 62
   144
100
AcDbLine
 10
2372.196826085623
 20
4320.578547622388
 30
0.0
 11
2386.196826085623
 21
4320.578547622388
 31
0.0
  0
LINE
  5
A8A
330
1F
100
AcDbEntity
  8
SUNPO
 62
   144
100
AcDbLine
 10
2294.196826085622
 20
4320.578547622388
 30
0.0
 11
2280.196826085622
 21
4320.578547622388
 31
0.0
  0
LINE
  5
A8C
330
1F
100
AcDbEntity
  8
SUNPO
 62
   144
100
AcDbLine
 10
2358.196826085622
 20
4320.578547622388
 30
0.0
 11
2308.196826085623
 21
4320.578547622388
 31
0.0
  0
SOLID
  5
A8D
330
1F
100
AcDbEntity
  8
SUNPO
 62
   144
100
AcDbTrace
 10
2372.196826085623
 20
4322.911880955721
 30
0.0
 11
2372.196826085623
 21
4318.245214289055
 31
0.0
 12
2358.196826085622
 22
4320.578547622388
 32
0.0
 13
2358.196826085622
 23
4320.578547622388
 33
0.0
  0
SOLID
  5
A8E
330
1F
100
AcDbEntity
  8
SUNPO
 62
   144
100
AcDbTrace
 10
2294.196826085622
 20
4322.911880955721
 30
0.0
 11
2294.196826085622
 21
4318.245214289055
 31
0.0
 12
2308.196826085623
 22
4320.578547622388
 32
0.0
 13
2308.196826085623
 23
4320.578547622388
 33
0.0
  0
LINE
  5
A8F
330
1F
100
AcDbEntity
  8
SUNPO
 62
   144
100
AcDbLine
 10
2178.196826085622
 20
3972.382639168392
 30
0.0
 11
2178.196826085622
 21
4330.578547622388
 31
0.0
  0
LINE
  5
A90
330
1F
100
AcDbEntity
  8
SUNPO
 62
   144
100
AcDbLine
 10
2228.196826085623
 20
3972.382639168392
 30
0.0
 11
2228.196826085623
 21
4330.578547622388
 31
0.0
  0
LINE
  5
A91
330
1F
100
AcDbEntity
  8
SUNPO
 62
   144
100
AcDbLine
 10
2164.196826085623
 20
4320.578547622388
 30
0.0
 11
2150.196826085623
 21
4320.578547622388
 31
0.0
  0
LINE
  5
A92
330
1F
100
AcDbEntity
  8
SUNPO
 62
   144
100
AcDbLine
 10
2242.196826085622
 20
4320.578547622388
 30
0.0
 11
2256.196826085623
 21
4320.578547622388
 31
0.0
  0
LINE
  5
A94
330
1F
100
AcDbEntity
  8
SUNPO
 62
   144
100
AcDbLine
 10
2178.196826085622
 20
4320.578547622388
 30
0.0
 11
2228.196826085623
 21
4320.578547622388
 31
0.0
  0
SOLID
  5
A95
330
1F
100
AcDbEntity
  8
SUNPO
 62
   144
100
AcDbTrace
 10
2164.196826085623
 20
4322.911880955721
 30
0.0
 11
2164.196826085623
 21
4318.245214289055
 31
0.0
 12
2178.196826085622
 22
4320.578547622388
 32
0.0
 13
2178.196826085622
 23
4320.578547622388
 33
0.0
  0
SOLID
  5
A96
330
1F
100
AcDbEntity
  8
SUNPO
 62
   144
100
AcDbTrace
 10
2242.196826085622
 20
4322.911880955721
 30
0.0
 11
2242.196826085622
 21
4318.245214289055
 31
0.0
 12
2228.196826085623
 22
4320.578547622388
 32
0.0
 13
2228.196826085623
 23
4320.578547622388
 33
0.0
  0
LINE
  5
A97
330
1F
100
AcDbEntity
  8
SUNPO
 62
   144
100
AcDbLine
 10
6148.196826085623
 20
3972.382639168392
 30
0.0
 11
6148.196826085623
 21
4630.567958017155
 31
0.0
  0
LINE
  5
A98
330
1F
100
AcDbEntity
  8
SUNPO
 62
   144
100
AcDbLine
 10
6338.196826085623
 20
3972.382639168392
 30
0.0
 11
6338.196826085623
 21
4630.567958017155
 31
0.0
  0
LINE
  5
A99
330
1F
100
AcDbEntity
  8
SUNPO
 62
   144
100
AcDbLine
 10
6162.196826085622
 20
4620.567958017154
 30
0.0
 11
6324.196826085623
 21
4620.567958017154
 31
0.0
  0
SOLID
  5
A9A
330
1F
100
AcDbEntity
  8
SUNPO
 62
   144
100
AcDbTrace
 10
6162.196826085622
 20
4622.901291350487
 30
0.0
 11
6162.196826085622
 21
4618.234624683821
 31
0.0
 12
6148.196826085623
 22
4620.567958017154
 32
0.0
 13
6148.196826085623
 23
4620.567958017154
 33
0.0
  0
SOLID
  5
A9B
330
1F
100
AcDbEntity
  8
SUNPO
 62
   144
100
AcDbTrace
 10
6324.196826085623
 20
4622.901291350487
 30
0.0
 11
6324.196826085623
 21
4618.234624683821
 31
0.0
 12
6338.196826085623
 22
4620.567958017154
 32
0.0
 13
6338.196826085623
 23
4620.567958017154
 33
0.0
  0
LINE
  5
A9D
330
1F
100
AcDbEntity
  8
SUNPO
 62
   144
100
AcDbLine
 10
3148.196826085623
 20
3972.382639168392
 30
0.0
 11
3148.196826085623
 21
4630.567958017155
 31
0.0
  0
LINE
  5
A9E
330
1F
100
AcDbEntity
  8
SUNPO
 62
   144
100
AcDbLine
 10
6148.196826085623
 20
3972.382639168392
 30
0.0
 11
6148.196826085623
 21
4630.567958017155
 31
0.0
  0
LINE
  5
A9F
330
1F
100
AcDbEntity
  8
SUNPO
 62
   144
100
AcDbLine
 10
3162.196826085622
 20
4620.567958017154
 30
0.0
 11
6134.196826085623
 21
4620.567958017154
 31
0.0
  0
SOLID
  5
AA0
330
1F
100
AcDbEntity
  8
SUNPO
 62
   144
100
AcDbTrace
 10
3162.196826085622
 20
4622.901291350487
 30
0.0
 11
3162.196826085622
 21
4618.234624683821
 31
0.0
 12
3148.196826085623
 22
4620.567958017154
 32
0.0
 13
3148.196826085623
 23
4620.567958017154
 33
0.0
  0
SOLID
  5
AA1
330
1F
100
AcDbEntity
  8
SUNPO
 62
   144
100
AcDbTrace
 10
6134.196826085623
 20
4622.901291350487
 30
0.0
 11
6134.196826085623
 21
4618.234624683821
 31
0.0
 12
6148.196826085623
 22
4620.567958017154
 32
0.0
 13
6148.196826085623
 23
4620.567958017154
 33
0.0
  0
LINE
  5
AA3
330
1F
100
AcDbEntity
  8
SUNPO
 62
   144
100
AcDbLine
 10
2958.196826085623
 20
3972.382639168392
 30
0.0
 11
2958.196826085623
 21
4630.567958017155
 31
0.0
  0
LINE
  5
AA4
330
1F
100
AcDbEntity
  8
SUNPO
 62
   144
100
AcDbLine
 10
3148.196826085623
 20
3972.382639168392
 30
0.0
 11
3148.196826085623
 21
4630.567958017155
 31
0.0
  0
LINE
  5
AA5
330
1F
100
AcDbEntity
  8
SUNPO
 62
   144
100
AcDbLine
 10
2972.196826085623
 20
4620.567958017154
 30
0.0
 11
3134.196826085623
 21
4620.567958017154
 31
0.0
  0
SOLID
  5
AA6
330
1F
100
AcDbEntity
  8
SUNPO
 62
   144
100
AcDbTrace
 10
2972.196826085623
 20
4622.901291350487
 30
0.0
 11
2972.196826085623
 21
4618.234624683821
 31
0.0
 12
2958.196826085623
 22
4620.567958017154
 32
0.0
 13
2958.196826085623
 23
4620.567958017154
 33
0.0
  0
SOLID
  5
AA7
330
1F
100
AcDbEntity
  8
SUNPO
 62
   144
100
AcDbTrace
 10
3134.196826085623
 20
4622.901291350487
 30
0.0
 11
3134.196826085623
 21
4618.234624683821
 31
0.0
 12
3148.196826085623
 22
4620.567958017154
 32
0.0
 13
3148.196826085623
 23
4620.567958017154
 33
0.0
  0
LINE
  5
AA9
330
1F
100
AcDbEntity
  8
SUNPO
 62
   144
100
AcDbLine
 10
2178.196826085622
 20
3972.382639168392
 30
0.0
 11
2178.196826085622
 21
4630.567958017155
 31
0.0
  0
LINE
  5
AAA
330
1F
100
AcDbEntity
  8
SUNPO
 62
   144
100
AcDbLine
 10
2358.196826085622
 20
3972.382639168392
 30
0.0
 11
2358.196826085622
 21
4630.567958017155
 31
0.0
  0
LINE
  5
AAB
330
1F
100
AcDbEntity
  8
SUNPO
 62
   144
100
AcDbLine
 10
2192.196826085623
 20
4620.567958017154
 30
0.0
 11
2344.196826085622
 21
4620.567958017154
 31
0.0
  0
SOLID
  5
AAC
330
1F
100
AcDbEntity
  8
SUNPO
 62
   144
100
AcDbTrace
 10
2192.196826085623
 20
4622.901291350487
 30
0.0
 11
2192.196826085623
 21
4618.234624683821
 31
0.0
 12
2178.196826085622
 22
4620.567958017154
 32
0.0
 13
2178.196826085622
 23
4620.567958017154
 33
0.0
  0
SOLID
  5
AAD
330
1F
100
AcDbEntity
  8
SUNPO
 62
   144
100
AcDbTrace
 10
2344.196826085622
 20
4622.901291350487
 30
0.0
 11
2344.196826085622
 21
4618.234624683821
 31
0.0
 12
2358.196826085622
 22
4620.567958017154
 32
0.0
 13
2358.196826085622
 23
4620.567958017154
 33
0.0
  0
TEXT
  5
AAF
330
1F
100
AcDbEntity
  8
SUNPO
100
AcDbText
 10
5706.680311730543
 20
359.2274732162223
 30
0.0
 40
70.0
  1
１／２０
  7
ADD
100
AcDbText
  0
TEXT
  5
AB0
330
1F
100
AcDbEntity
  8
SUNPO
100
AcDbText
 10
2841.886257401154
 20
488.6918916770627
 30
0.0
 40
50.0
  1
製品名
  7
ADD
100
AcDbText
  0
TEXT
  5
AB1
330
1F
100
AcDbEntity
  8
SUNPO
100
AcDbText
 10
4836.290169028721
 20
494.4531736811823
 30
0.0
 40
50.0
  1
型式
  7
ADD
100
AcDbText
  0
TEXT
  5
AB2
330
1F
100
AcDbEntity
  8
SUNPO
100
AcDbText
 10
5637.510249231659
 20
488.6918916770627
 30
0.0
 40
50.0
  1
縮尺
  7
ADD
100
AcDbText
  0
TEXT
  5
AB3
330
1F
100
AcDbEntity
  8
SUNPO
100
AcDbText
 10
6190.870883051571
 20
352.2726133092145
 30
0.0
 40
100.0
  1
千葉県コンクリート製品協同組合
  7
ADD
100
AcDbText
  0
LINE
  5
AB4
330
1F
100
AcDbEntity
  8
HOJO
100
AcDbLine
 10
360.0
 20
260.0
 30
0.0
 11
8040.0
 21
260.0
 31
0.0
  0
LINE
  5
AB5
330
1F
100
AcDbEntity
  8
HOJO
100
AcDbLine
 10
8040.0
 20
260.0
 30
0.0
 11
8040.0
 21
5680.0
 31
0.0
  0
LINE
  5
AB6
330
1F
100
AcDbEntity
  8
HOJO
100
AcDbLine
 10
8040.0
 20
5680.0
 30
0.0
 11
360.0
 21
5680.0
 31
0.0
  0
LINE
  5
AB7
330
1F
100
AcDbEntity
  8
HOJO
100
AcDbLine
 10
360.0
 20
5680.0
 30
0.0
 11
360.0
 21
260.0
 31
0.0
  0
LINE
  5
AB8
330
1F
100
AcDbEntity
  8
HOJO
100
AcDbLine
 10
0.0
 20
0.0
 30
0.0
 11
8400.0
 21
0.0
 31
0.0
  0
LINE
  5
AB9
330
1F
100
AcDbEntity
  8
HOJO
100
AcDbLine
 10
8400.0
 20
0.0
 30
0.0
 11
8400.0
 21
5940.0
 31
0.0
  0
LINE
  5
ABA
330
1F
100
AcDbEntity
  8
HOJO
100
AcDbLine
 10
8400.0
 20
5940.0
 30
0.0
 11
0.0
 21
5940.0
 31
0.0
  0
LINE
  5
ABB
330
1F
100
AcDbEntity
  8
HOJO
100
AcDbLine
 10
0.0
 20
5940.0
 30
0.0
 11
0.0
 21
0.0
 31
0.0
  0
TEXT
  5
ABC
330
1F
100
AcDbEntity
  8
SUNPO
 62
     7
100
AcDbText
 10
2193.196826085622
 20
4633.067958017154
 30
0.0
 40
50.0
  1
180
  7
ADD
100
AcDbText
  0
TEXT
  5
ABD
330
1F
100
AcDbEntity
  8
SUNPO
 62
     7
100
AcDbText
 10
2978.196826085623
 20
4633.067958017154
 30
0.0
 40
50.0
  1
190
  7
ADD
100
AcDbText
  0
TEXT
  5
ABE
330
1F
100
AcDbEntity
  8
SUNPO
 62
     7
100
AcDbText
 10
4552.958730847527
 20
4633.067958017154
 30
0.0
 40
50.0
  1
3000
  7
ADD
100
AcDbText
  0
TEXT
  5
ABF
330
1F
100
AcDbEntity
  8
SUNPO
 62
     7
100
AcDbText
 10
6168.196826085623
 20
4633.067958017154
 30
0.0
 40
50.0
  1
190
  7
ADD
100
AcDbText
  0
TEXT
  5
AC0
330
1F
100
AcDbEntity
  8
SUNPO
 62
     7
100
AcDbText
 10
2068.079311675277
 20
4349.328547622388
 30
0.0
 40
50.0
  1
50
  7
ADD
100
AcDbText
  0
TEXT
  5
AC1
330
1F
100
AcDbEntity
  8
SUNPO
 62
     7
100
AcDbText
 10
2365.546285310834
 20
4349.328547622388
 30
0.0
 40
50.0
  1
50
  7
ADD
100
AcDbText
  0
TEXT
  5
AC2
330
1F
100
AcDbEntity
  8
SUNPO
 62
     7
100
AcDbText
 10
2220.577778466575
 20
4349.328547622388
 30
0.0
 40
50.0
  1
70
  7
ADD
100
AcDbText
  0
TEXT
  5
AC3
330
1F
100
AcDbEntity
  8
SUNPO
 62
     7
100
AcDbText
 10
2631.849998287266
 20
2978.573115358869
 30
0.0
 40
50.0
  1
1750
 50
90.0
  7
ADD
100
AcDbText
  0
TEXT
  5
AC4
330
1F
100
AcDbEntity
  8
SUNPO
 62
     7
100
AcDbText
 10
2787.632521545484
 20
2255.954067739821
 30
0.0
 40
50.0
  1
250
 50
90.0
  7
ADD
100
AcDbText
  0
TEXT
  5
AC5
330
1F
100
AcDbEntity
  8
SUNPO
 62
     7
100
AcDbText
 10
2787.632521545484
 20
3103.573115358868
 30
0.0
 40
50.0
  1
1500
 50
90.0
  7
ADD
100
AcDbText
  0
TEXT
  5
AC6
330
1F
100
AcDbEntity
  8
SUNPO
 62
     7
100
AcDbText
 10
4552.958730847527
 20
1517.086691329361
 30
0.0
 40
50.0
  1
3380
  7
ADD
100
AcDbText
  0
TEXT
  5
AC7
330
1F
100
AcDbEntity
  8
SUNPO
 62
     7
100
AcDbText
 10
3011.768254657051
 20
1809.63803298829
 30
0.0
 40
50.0
  1
250
  7
ADD
100
AcDbText
  0
TEXT
  5
AC8
330
1F
100
AcDbEntity
  8
SUNPO
 62
     7
100
AcDbText
 10
4552.958730847527
 20
1809.63803298829
 30
0.0
 40
50.0
  1
2880
  7
ADD
100
AcDbText
  0
TEXT
  5
AC9
330
1F
100
AcDbEntity
  8
SUNPO
 62
     7
100
AcDbText
 10
6141.768254657051
 20
1809.63803298829
 30
0.0
 40
50.0
  1
250
  7
ADD
100
AcDbText
  0
TEXT
  5
ACA
330
1F
100
AcDbEntity
  8
SUNPO
 62
     7
100
AcDbText
 10
3069.363311868427
 20
4330.225298592774
 30
0.0
 40
50.0
  1
60
  7
ADD
100
AcDbText
  0
TEXT
  5
ACB
330
1F
100
AcDbEntity
  8
SUNPO
 62
     7
100
AcDbText
 10
6129.41129268377
 20
4330.225298592774
 30
0.0
 40
50.0
  1
60
  7
ADD
100
AcDbText
  0
TEXT
  5
ACC
330
1F
100
AcDbEntity
  8
SUNPO
 62
     7
100
AcDbText
 10
3170.178098083086
 20
2697.257650069778
 30
0.0
 40
50.0
  1
20
  7
ADD
100
AcDbText
  0
TEXT
  5
ACD
330
1F
100
AcDbEntity
  8
SUNPO
 62
     7
100
AcDbText
 10
3573.058137620846
 20
2414.755601136563
 30
0.0
 40
50.0
  1
20
 50
90.0
  7
ADD
100
AcDbText
  0
TEXT
  5
ACE
330
1F
100
AcDbEntity
  8
SUNPO
 62
     7
100
AcDbText
 10
2193.196826085622
 20
1507.086691329361
 30
0.0
 40
50.0
  1
180
  7
ADD
100
AcDbText
  0
VIEWPORT
  5
72
330
1B
100
AcDbEntity
 67
     1
  8
0
100
AcDbViewport
 10
429.8380103383459
 20
277.0
 30
0.0
 40
948.9782706766918
 41
628.4520000000001
 68
     1
 69
     1
1001
ACAD
1000
MVIEW
1002
{
1070
    16
1010
0.0
1020
0.0
1030
0.0
1010
0.0
1020
0.0
1030
1.0
1040
0.0
1040
628.4520000000001
1040
429.8380103383459
1040
277.0
1040
50.0
1040
0.0
1040
0.0
1070
     0
1070
   100
1070
     1
1070
     1
1070
     0
1070
     0
1070
     0
1070
     0
1040
0.0
1040
0.0
1040
0.0
1040
10.0
1040
10.0
1040
10.0
1040
10.0
1070
     0
1002
{
1002
}
1002
}
  0
VIEWPORT
  5
74
330
1B
100
AcDbEntity
 67
     1
  8
VIEWPORT
100
AcDbViewport
 10
414.3779638919211
 20
277.3177265058034
 30
0.0
 40
840.0353682728887
 41
567.2285469943826
 68
     2
 69
     2
1001
ACAD
1000
MVIEW
1002
{
1070
    16
1010
0.0
1020
0.0
1030
0.0
1010
0.0
1020
0.0
1030
1.0
1040
0.0
1040
579.5583043546323
1040
424.4938908624541
1040
286.1973242720074
1040
50.0
1040
0.0
1040
0.0
1070
     0
1070
   100
1070
     1
1070
     1
1070
     0
1070
     0
1070
     0
1070
     0
1040
0.0
1040
0.0
1040
0.0
1040
10.0
1040
10.0
1040
10.0
1040
10.0
1070
     0
1002
{
1002
}
1002
}
  0
ENDSEC
  0
SECTION
  2
OBJECTS
  0
DICTIONARY
  5
C
330
0
100
AcDbDictionary
  3
ACAD_GROUP
350
D
  3
ACAD_LAYOUT
350
1A
  3
ACAD_MLINESTYLE
350
17
  3
ACAD_PLOTSETTINGS
350
19
  3
DWGPROPS
350
4C7
1001
ACAD
1000
TREAT_AS_HARD
1070
     0
  0
DICTIONARY
  5
AD0
330
1F
100
AcDbDictionary
  3
ACAD_LAYOUTSELFREF
350
B57
1001
ACAD
1000
TREAT_AS_HARD
1070
     1
  0
DICTIONARY
  5
AD2
330
1B
100
AcDbDictionary
  3
ACAD_LAYOUTSELFREF
350
B56
1001
ACAD
1000
TREAT_AS_HARD
1070
     1
  0
DICTIONARY
  5
D
102
{ACAD_REACTORS
330
C
102
}
330
C
100
AcDbDictionary
1001
ACAD
1000
TREAT_AS_HARD
1070
     0
  0
DICTIONARY
  5
1A
102
{ACAD_REACTORS
330
C
102
}
330
C
100
AcDbDictionary
1001
ACAD
1000
TREAT_AS_HARD
1070
     0
  0
DICTIONARY
  5
17
102
{ACAD_REACTORS
330
C
102
}
330
C
100
AcDbDictionary
  3
STANDARD
350
18
1001
ACAD
1000
TREAT_AS_HARD
1070
     0
  0
DICTIONARY
  5
19
102
{ACAD_REACTORS
330
C
102
}
330
C
100
AcDbDictionary
1001
ACAD
1000
TREAT_AS_HARD
1070
     0
  0
XRECORD
  5
4C7
102
{ACAD_REACTORS
330
C
102
}
330
C
100
AcDbXrecord
  1
DWGPROPS COOKIE
  2
印刷用テスト
  3
AutoCAD2000による建築設計
  4
鈴木 裕二
  6

  7

  8
U2
  9

300
=
301
=
302
=
303
=
304
=
305
=
306
=
307
=
308
=
309
=
 40
0.7653446875
 41
2451285.4846114
 42
2451333.689743032
  1

 90
        0
  0
XRECORD
  5
B57
102
{ACAD_REACTORS
330
AD0
102
}
330
AD0
100
AcDbXrecord
340
1F
  0
XRECORD
  5
B56
102
{ACAD_REACTORS
330
AD2
102
}
330
AD2
100
AcDbXrecord
340
1B
  0
MLINESTYLE
  5
18
102
{ACAD_REACTORS
330
17
102
}
330
17
100
AcDbMlineStyle
  2
STANDARD
 70
     0
  3

 62
   256
 51
90.0
 52
90.0
 71
     2
 49
0.5
 62
   256
  6
BYLAYER
 49
-0.5
 62
   256
  6
BYLAYER
  0
ENDSEC
  0
EOF
