  0
SECTION
  2
HEADER
  9
$ACADVER
  1
AC1012
  9
$DWGCODEPAGE
  3
dos932
  9
$INSBASE
 10
0.0
 20
0.0
 30
0.0
  9
$EXTMIN
 10
0.0
 20
0.0
 30
0.0
  9
$EXTMAX
 10
8400.0
 20
5940.0
 30
0.0
  9
$LIMMIN
 10
0.0
 20
0.0
  9
$LIMMAX
 10
8400.0
 20
5940.0
  9
$ORTHOMODE
 70
     0
  9
$REGENMODE
 70
     1
  9
$FILLMODE
 70
     1
  9
$QTEXTMODE
 70
     0
  9
$MIRRTEXT
 70
     0
  9
$DRAGMODE
 70
     2
  9
$LTSCALE
 40
10.0
  9
$OSMODE
 70
    37
  9
$ATTMODE
 70
     1
  9
$TEXTSIZE
 40
50.0
  9
$TRACEWID
 40
1.0
  9
$TEXTSTYLE
  7
ADD
  9
$CLAYER
  8
SUNPO
  9
$CELTYPE
  6
BYLAYER
  9
$CECOLOR
 62
   256
  9
$CELTSCALE
 40
1.0
  9
$DELOBJ
 70
     1
  9
$DISPSILH
 70
     0
  9
$DIMSCALE
 40
20.0
  9
$DIMASZ
 40
2.5
  9
$DIMEXO
 40
1.0
  9
$DIMDLI
 40
7.0
  9
$DIMRND
 40
0.0
  9
$DIMDLE
 40
0.0
  9
$DIMEXE
 40
0.5
  9
$DIMTP
 40
0.0
  9
$DIMTM
 40
0.0
  9
$DIMTXT
 40
2.5
  9
$DIMCEN
 40
2.5
  9
$DIMTSZ
 40
0.0
  9
$DIMTOL
 70
     0
  9
$DIMLIM
 70
     0
  9
$DIMTIH
 70
     0
  9
$DIMTOH
 70
     0
  9
$DIMSE1
 70
     0
  9
$DIMSE2
 70
     0
  9
$DIMTAD
 70
     1
  9
$DIMZIN
 70
     8
  9
$DIMBLK
  1

  9
$DIMASO
 70
     1
  9
$DIMSHO
 70
     1
  9
$DIMPOST
  1

  9
$DIMAPOST
  1

  9
$DIMALT
 70
     0
  9
$DIMALTD
 70
     3
  9
$DIMALTF
 40
0.03937007874016
  9
$DIMLFAC
 40
1.0
  9
$DIMTOFL
 70
     1
  9
$DIMTVP
 40
0.7
  9
$DIMTIX
 70
     1
  9
$DIMSOXD
 70
     0
  9
$DIMSAH
 70
     0
  9
$DIMBLK1
  1

  9
$DIMBLK2
  1

  9
$DIMSTYLE
  2
ADD
  9
$DIMCLRD
 70
   144
  9
$DIMCLRE
 70
   144
  9
$DIMCLRT
 70
     7
  9
$DIMTFAC
 40
1.0
  9
$DIMGAP
 40
0.625
  9
$DIMJUST
 70
     0
  9
$DIMSD1
 70
     0
  9
$DIMSD2
 70
     0
  9
$DIMTOLJ
 70
     2
  9
$DIMTZIN
 70
     8
  9
$DIMALTZ
 70
     0
  9
$DIMALTTZ
 70
     0
  9
$DIMFIT
 70
     5
  9
$DIMUPT
 70
     0
  9
$DIMUNIT
 70
     2
  9
$DIMDEC
 70
     1
  9
$DIMTDEC
 70
     1
  9
$DIMALTU
 70
     2
  9
$DIMALTTD
 70
     3
  9
$DIMTXSTY
  7
ADD
  9
$DIMAUNIT
 70
     0
  9
$LUNITS
 70
     2
  9
$LUPREC
 70
     4
  9
$SKETCHINC
 40
1.0
  9
$FILLETRAD
 40
0.0
  9
$AUNITS
 70
     0
  9
$AUPREC
 70
     1
  9
$MENU
  1
.
  9
$ELEVATION
 40
0.0
  9
$PELEVATION
 40
0.0
  9
$THICKNESS
 40
0.0
  9
$LIMCHECK
 70
     0
  9
$BLIPMODE
 70
     0
  9
$CHAMFERA
 40
20.0
  9
$CHAMFERB
 40
20.0
  9
$CHAMFERC
 40
20.0
  9
$CHAMFERD
 40
0.0
  9
$SKPOLY
 70
     0
  9
$TDCREATE
 40
2451801.605911169
  9
$TDUPDATE
 40
2451865.563298472
  9
$TDINDWG
 40
0.0617081944
  9
$TDUSRTIMER
 40
0.0617081944
  9
$USRTIMER
 70
     1
  9
$ANGBASE
 50
0.0
  9
$ANGDIR
 70
     0
  9
$PDMODE
 70
     0
  9
$PDSIZE
 40
0.0
  9
$PLINEWID
 40
0.0
  9
$COORDS
 70
     2
  9
$SPLFRAME
 70
     0
  9
$SPLINETYPE
 70
     6
  9
$SPLINESEGS
 70
     8
  9
$ATTDIA
 70
     0
  9
$ATTREQ
 70
     1
  9
$HANDLING
 70
 10241
  9
$HANDSEED
  5
F27
  9
$SURFTAB1
 70
     6
  9
$SURFTAB2
 70
     6
  9
$SURFTYPE
 70
     6
  9
$SURFU
 70
     6
  9
$SURFV
 70
     6
  9
$UCSNAME
  2

  9
$UCSORG
 10
0.0
 20
0.0
 30
0.0
  9
$UCSXDIR
 10
1.0
 20
0.0
 30
0.0
  9
$UCSYDIR
 10
0.0
 20
1.0
 30
0.0
  9
$PUCSNAME
  2

  9
$PUCSORG
 10
0.0
 20
0.0
 30
0.0
  9
$PUCSXDIR
 10
1.0
 20
0.0
 30
0.0
  9
$PUCSYDIR
 10
0.0
 20
1.0
 30
0.0
  9
$USERI1
 70
     0
  9
$USERI2
 70
     0
  9
$USERI3
 70
     0
  9
$USERI4
 70
     0
  9
$USERI5
 70
     0
  9
$USERR1
 40
841.0
  9
$USERR2
 40
594.0
  9
$USERR3
 40
1.0
  9
$USERR4
 40
0.0
  9
$USERR5
 40
0.0
  9
$WORLDVIEW
 70
     1
  9
$SHADEDGE
 70
     3
  9
$SHADEDIF
 70
    70
  9
$TILEMODE
 70
     1
  9
$MAXACTVP
 70
    48
  9
$PINSBASE
 10
0.0
 20
0.0
 30
0.0
  9
$PLIMCHECK
 70
     0
  9
$PEXTMIN
 10
-5.662975978526674
 20
-6.331907780761866
 30
-0.0015258207003583
  9
$PEXTMAX
 10
834.4213426047982
 20
560.9663709967471
 30
0.0000000349246037
  9
$PLIMMIN
 10
-7.500000000000001
 20
-20.0
  9
$PLIMMAX
 10
833.5000000000002
 20
574.0000000000001
  9
$UNITMODE
 70
     0
  9
$VISRETAIN
 70
     1
  9
$PLINEGEN
 70
     0
  9
$PSLTSCALE
 70
     1
  9
$TREEDEPTH
 70
  3020
  9
$PICKSTYLE
 70
     1
  9
$CMLSTYLE
  2
STANDARD
  9
$CMLJUST
 70
     0
  9
$CMLSCALE
 40
20.0
  9
$SAVEIMAGES
 70
     1
  0
ENDSEC
  0
SECTION
  2
CLASSES
  0
CLASS
  1
ACDBDICTIONARYWDFLT
  2
AcDbDictionaryWithDefault
  3
AutoCAD 2000
 90
    32768
280
     0
281
     0
  0
CLASS
  1
ACDBPLACEHOLDER
  2
AcDbPlaceHolder
  3
AutoCAD 2000
 90
    32768
280
     0
281
     0
  0
CLASS
  1
LAYOUT
  2
AcDbLayout
  3
AutoCAD 2000
 90
    32768
280
     0
281
     0
  0
CLASS
  1
RTEXT
  2
RText
  3
RText|AutoCAD Express Tool|expresstools@autodesk.com
 90
    32768
280
     0
281
     1
  0
CLASS
  1
DICTIONARYVAR
  2
AcDbDictionaryVar
  3
AutoCAD 2000
 90
    32768
280
     0
281
     0
  0
CLASS
  1
LONG_TRANSACTION
  2
AcDbLongTransaction
  3
AutoCAD 2000
 90
    32768
280
     0
281
     0
  0
CLASS
  1
LWPOLYLINE
  2
AcDbPolyline
  3
AutoCAD 2000
 90
    32768
280
     0
281
     1
  0
CLASS
  1
HATCH
  2
AcDbHatch
  3
AutoCAD 2000
 90
    32768
280
     0
281
     1
  0
CLASS
  1
XRECORD
  2
AcDbXrecord
  3
AutoCAD 2000
 90
    32768
280
     0
281
     0
  0
CLASS
  1
LONG_TRANSACTION
  2
AcDbLongTransaction
  3
AutoCAD 2000
 90
    32768
280
     0
281
     0
  0
CLASS
  1
LWPOLYLINE
  2
AcDbPolyline
  3
AutoCAD 2000
 90
    32768
280
     0
281
     1
  0
CLASS
  1
HATCH
  2
AcDbHatch
  3
AutoCAD 2000
 90
    32768
280
     0
281
     1
  0
CLASS
  1
XRECORD
  2
AcDbXrecord
  3
AutoCAD 2000
 90
    32768
280
     0
281
     0
  0
ENDSEC
  0
SECTION
  2
TABLES
  0
TABLE
  2
VPORT
  5
8
330
0
100
AcDbSymbolTable
 70
     2
  0
VPORT
  5
F03
330
8
100
AcDbSymbolTableRecord
100
AcDbViewportTableRecord
  2
*ACTIVE
 70
     0
 10
0.0
 20
0.0
 11
1.0
 21
1.0
 12
4476.556013664227
 22
3712.792699644777
 13
0.0
 23
0.0
 14
10.0
 24
10.0
 15
10.0
 25
10.0
 16
0.0
 26
0.0
 36
1.0
 17
0.0
 27
0.0
 37
0.0
 40
7344.44055554104
 41
1.496749024707412
 42
50.0
 43
0.0
 44
0.0
 50
0.0
 51
0.0
 71
     0
 72
   100
 73
     1
 74
     1
 75
     0
 76
     0
 77
     0
 78
     0
  0
ENDTAB
  0
TABLE
  2
LTYPE
  5
5
330
0
100
AcDbSymbolTable
 70
     5
  0
LTYPE
  5
14
330
5
100
AcDbSymbolTableRecord
100
AcDbLinetypeTableRecord
  2
BYBLOCK
 70
     0
  3

 72
    65
 73
     0
 40
0.0
  0
LTYPE
  5
15
330
5
100
AcDbSymbolTableRecord
100
AcDbLinetypeTableRecord
  2
BYLAYER
 70
     0
  3

 72
    65
 73
     0
 40
0.0
  0
LTYPE
  5
16
330
5
100
AcDbSymbolTableRecord
100
AcDbLinetypeTableRecord
  2
CONTINUOUS
 70
     0
  3
Solid line
 72
    65
 73
     0
 40
0.0
  0
LTYPE
  5
555
330
5
100
AcDbSymbolTableRecord
100
AcDbLinetypeTableRecord
  2
CENTER
 70
     0
  3
Center ____ _ ____ _ ____ _ ____ _ ____ _ ____
 72
    65
 73
     4
 40
50.8
 49
31.75
 74
     0
 49
-6.349999999999999
 74
     0
 49
6.349999999999999
 74
     0
 49
-6.349999999999999
 74
     0
  0
LTYPE
  5
556
330
5
100
AcDbSymbolTableRecord
100
AcDbLinetypeTableRecord
  2
HIDDEN
 70
     0
  3
Hidden __ __ __ __ __ __ __ __ __ __ __ __ __ _
 72
    65
 73
     2
 40
9.524999999999998
 49
6.349999999999999
 74
     0
 49
-3.174999999999999
 74
     0
  0
LTYPE
  5
557
330
5
100
AcDbSymbolTableRecord
100
AcDbLinetypeTableRecord
  2
HIDDEN2
 70
     0
  3
Hidden (.5x) _ _ _ _ _ _ _ _ _ _ _ _ _ _ _ _ _
 72
    65
 73
     2
 40
4.762499999999999
 49
3.174999999999999
 74
     0
 49
-1.587499999999999
 74
     0
  0
LTYPE
  5
558
330
5
100
AcDbSymbolTableRecord
100
AcDbLinetypeTableRecord
  2
PHANTOM
 70
     0
  3
Phantom ______  __  __  ______  __  __  ______
 72
    65
 73
     6
 40
63.5
 49
31.75
 74
     0
 49
-6.349999999999999
 74
     0
 49
6.349999999999999
 74
     0
 49
-6.349999999999999
 74
     0
 49
6.349999999999999
 74
     0
 49
-6.349999999999999
 74
     0
  0
ENDTAB
  0
TABLE
  2
LAYER
  5
2
330
0
100
AcDbSymbolTable
 70
    22
  0
LAYER
  5
10
330
2
100
AcDbSymbolTableRecord
100
AcDbLayerTableRecord
  2
0
 70
     0
 62
     7
  6
CONTINUOUS
  0
LAYER
  5
75
330
2
100
AcDbSymbolTableRecord
100
AcDbLayerTableRecord
  2
VIEWPORT
 70
     0
 62
     1
  6
CONTINUOUS
  0
LAYER
  5
504
330
2
100
AcDbSymbolTableRecord
100
AcDbLayerTableRecord
  2
DEFPOINTS
 70
     0
 62
     7
  6
CONTINUOUS
  0
LAYER
  5
505
330
2
100
AcDbSymbolTableRecord
100
AcDbLayerTableRecord
  2
1C1
 70
     0
 62
   254
  6
CONTINUOUS
  0
LAYER
  5
506
330
2
100
AcDbSymbolTableRecord
100
AcDbLayerTableRecord
  2
1C2
 70
     0
 62
   254
  6
CONTINUOUS
  0
LAYER
  5
507
330
2
100
AcDbSymbolTableRecord
100
AcDbLayerTableRecord
  2
2C1
 70
     0
 62
   144
  6
CONTINUOUS
  0
LAYER
  5
508
330
2
100
AcDbSymbolTableRecord
100
AcDbLayerTableRecord
  2
2C2
 70
     0
 62
   144
  6
CONTINUOUS
  0
LAYER
  5
509
330
2
100
AcDbSymbolTableRecord
100
AcDbLayerTableRecord
  2
2H1
 70
     0
 62
   144
  6
HIDDEN
  0
LAYER
  5
50A
330
2
100
AcDbSymbolTableRecord
100
AcDbLayerTableRecord
  2
2H2
 70
     0
 62
   144
  6
HIDDEN2
  0
LAYER
  5
50B
330
2
100
AcDbSymbolTableRecord
100
AcDbLayerTableRecord
  2
2P1
 70
     0
 62
   144
  6
PHANTOM
  0
LAYER
  5
50C
330
2
100
AcDbSymbolTableRecord
100
AcDbLayerTableRecord
  2
3C1
 70
     0
 62
     7
  6
CONTINUOUS
  0
LAYER
  5
50D
330
2
100
AcDbSymbolTableRecord
100
AcDbLayerTableRecord
  2
3C2
 70
     0
 62
     7
  6
CONTINUOUS
  0
LAYER
  5
50E
330
2
100
AcDbSymbolTableRecord
100
AcDbLayerTableRecord
  2
3C3
 70
     0
 62
     7
  6
CONTINUOUS
  0
LAYER
  5
50F
330
2
100
AcDbSymbolTableRecord
100
AcDbLayerTableRecord
  2
4H1
 70
     0
 62
     6
  6
HIDDEN
  0
LAYER
  5
510
330
2
100
AcDbSymbolTableRecord
100
AcDbLayerTableRecord
  2
4H2
 70
     0
 62
     6
  6
HIDDEN2
  0
LAYER
  5
511
330
2
100
AcDbSymbolTableRecord
100
AcDbLayerTableRecord
  2
5C1
 70
     0
 62
    55
  6
CONTINUOUS
  0
LAYER
  5
512
330
2
100
AcDbSymbolTableRecord
100
AcDbLayerTableRecord
  2
5C2
 70
     0
 62
    55
  6
CONTINUOUS
  0
LAYER
  5
513
330
2
100
AcDbSymbolTableRecord
100
AcDbLayerTableRecord
  2
8C1
 70
     0
 62
    92
  6
CONTINUOUS
  0
LAYER
  5
514
330
2
100
AcDbSymbolTableRecord
100
AcDbLayerTableRecord
  2
HOJO
 70
     0
 62
     5
  6
CONTINUOUS
  0
LAYER
  5
515
330
2
100
AcDbSymbolTableRecord
100
AcDbLayerTableRecord
  2
KIJUN
 70
     0
 62
     1
  6
CENTER
  0
LAYER
  5
516
330
2
100
AcDbSymbolTableRecord
100
AcDbLayerTableRecord
  2
MOJI
 70
     0
 62
     7
  6
CONTINUOUS
  0
LAYER
  5
517
330
2
100
AcDbSymbolTableRecord
100
AcDbLayerTableRecord
  2
SUNPO
 70
     0
 62
   144
  6
CONTINUOUS
  0
ENDTAB
  0
TABLE
  2
STYLE
  5
3
330
0
100
AcDbSymbolTable
 70
     7
  0
STYLE
  5
11
330
3
100
AcDbSymbolTableRecord
100
AcDbTextStyleTableRecord
  2
STANDARD
 70
     0
 40
0.0
 41
1.0
 50
0.0
 71
     0
 42
2.5
  3
txt
  4

  0
STYLE
  5
2C
330
3
100
AcDbSymbolTableRecord
100
AcDbTextStyleTableRecord
  2

 70
     1
 40
0.0
 41
1.0
 50
0.0
 71
     0
 42
2.5
  3
ltypeshp.shx
  4

  0
STYLE
  5
18E
330
3
100
AcDbSymbolTableRecord
100
AcDbTextStyleTableRecord
  2
ADD
 70
     0
 40
0.0
 41
1.0
 50
0.0
 71
     0
 42
50.0
  3
romans.shx
  4
bigfont.shx
  0
STYLE
  5
191
330
3
100
AcDbSymbolTableRecord
100
AcDbTextStyleTableRecord
  2
MSG
 70
     0
 40
0.0
 41
1.0
 50
0.0
 71
     0
 42
2.5
  3
MS Gothic.ttf
  4

1001
ACAD
1000
MS Gothic
1071
    32817
  0
STYLE
  5
5C8
330
3
100
AcDbSymbolTableRecord
100
AcDbTextStyleTableRecord
  2
STANDARD15
 70
     0
 40
0.0
 41
1.0
 50
15.0
 71
     0
 42
2.5
  3
ROMANS
  4
bigfont
  0
STYLE
  5
5C9
330
3
100
AcDbSymbolTableRecord
100
AcDbTextStyleTableRecord
  2
ROMANS15
 70
     0
 40
0.0
 41
1.0
 50
15.0
 71
     0
 42
2.5
  3
romans
  4

  0
STYLE
  5
5CA
330
3
100
AcDbSymbolTableRecord
100
AcDbTextStyleTableRecord
  2
STANDARD2
 70
     0
 40
0.0
 41
1.0
 50
0.0
 71
     0
 42
2.5
  3
romans.shx
  4
bigfont.shx
  0
ENDTAB
  0
TABLE
  2
VIEW
  5
6
330
0
100
AcDbSymbolTable
 70
     1
  0
VIEW
  5
54D
330
6
100
AcDbSymbolTableRecord
100
AcDbViewTableRecord
  2
ALL
 70
     0
 40
594.0
 10
420.5
 20
297.0
 41
865.125
 11
0.0
 21
0.0
 31
1.0
 12
0.0
 22
0.0
 32
0.0
 42
50.0
 43
0.0
 44
0.0
 50
0.0
 71
     0
  0
ENDTAB
  0
TABLE
  2
UCS
  5
7
330
0
100
AcDbSymbolTable
 70
     0
  0
ENDTAB
  0
TABLE
  2
APPID
  5
9
330
0
100
AcDbSymbolTable
 70
     4
  0
APPID
  5
12
330
9
100
AcDbSymbolTableRecord
100
AcDbRegAppTableRecord
  2
ACAD
 70
     0
  0
APPID
  5
5CB
330
9
100
AcDbSymbolTableRecord
100
AcDbRegAppTableRecord
  2
ARAIGUMI_YOHEKI
 70
     0
  0
APPID
  5
5CC
330
9
100
AcDbSymbolTableRecord
100
AcDbRegAppTableRecord
  2
CONTENTTABDATA
 70
     0
  0
APPID
  5
5CD
330
9
100
AcDbSymbolTableRecord
100
AcDbRegAppTableRecord
  2
CONTENTCURRENTTAB
 70
     0
  0
ENDTAB
  0
TABLE
  2
DIMSTYLE
  5
A
330
0
100
AcDbSymbolTable
 70
    10
  0
DIMSTYLE
105
27
330
A
100
AcDbSymbolTableRecord
100
AcDbDimStyleTableRecord
  2
ISO-25
 70
     0
  3

  4

  5

  6

  7

 40
1.0
 41
2.5
 42
0.625
 43
3.75
 44
1.25
 45
0.0
 46
0.0
 47
0.0
 48
0.0
140
2.5
141
2.5
142
0.0
143
0.03937007874016
144
1.0
145
0.0
146
1.0
147
0.625
 71
     0
 72
     0
 73
     0
 74
     0
 75
     0
 76
     0
 77
     1
 78
     8
170
     0
171
     3
172
     1
173
     0
174
     0
175
     0
176
     0
177
     0
178
     0
270
     2
271
     2
272
     2
273
     2
274
     3
340
11
275
     0
280
     0
281
     0
282
     0
283
     0
284
     8
285
     0
286
     0
287
     3
288
     0
  0
DIMSTYLE
105
197
330
A
100
AcDbSymbolTableRecord
100
AcDbDimStyleTableRecord
  2
ADD
 70
     0
  3

  4

  5

  6

  7

 40
1.0
 41
2.5
 42
1.0
 43
7.0
 44
0.5
 45
0.0
 46
0.0
 47
0.0
 48
0.0
140
2.5
141
2.5
142
0.0
143
0.03937007874016
144
1.0
145
0.7
146
1.0
147
0.625
 71
     0
 72
     0
 73
     0
 74
     0
 75
     0
 76
     0
 77
     1
 78
     8
170
     0
171
     3
172
     1
173
     0
174
     1
175
     0
176
   144
177
   144
178
     7
270
     2
271
     1
272
     1
273
     2
274
     3
340
18E
275
     0
280
     0
281
     0
282
     0
283
     2
284
     8
285
     0
286
     0
287
     5
288
     0
  0
DIMSTYLE
105
3E6
330
A
100
AcDbSymbolTableRecord
100
AcDbDimStyleTableRecord
  2
ADD$2
 70
     0
  3

  4

  5

  6

  7

 40
1.0
 41
2.5
 42
1.0
 43
7.0
 44
0.5
 45
0.0
 46
0.0
 47
0.0
 48
0.0
140
2.5
141
2.5
142
0.0
143
0.03937007874016
144
1.0
145
0.7
146
1.0
147
0.625
 71
     0
 72
     0
 73
     0
 74
     0
 75
     0
 76
     0
 77
     1
 78
     8
170
     0
171
     3
172
     1
173
     0
174
     1
175
     0
176
   144
177
   144
178
     7
270
     2
271
     1
272
     1
273
     2
274
     3
340
18E
275
     0
280
     0
281
     0
282
     0
283
     2
284
     8
285
     0
286
     0
287
     5
288
     0
  0
DIMSTYLE
105
3E7
330
A
100
AcDbSymbolTableRecord
100
AcDbDimStyleTableRecord
  2
ADD$4
 70
     0
  3

  4

  5

  6

  7

 40
1.0
 41
2.5
 42
1.0
 43
7.0
 44
0.5
 45
0.0
 46
0.0
 47
0.0
 48
0.0
140
2.5
141
2.5
142
0.0
143
0.03937007874016
144
1.0
145
0.0
146
1.0
147
0.625
 71
     0
 72
     0
 73
     0
 74
     0
 75
     0
 76
     0
 77
     1
 78
     8
170
     0
171
     3
172
     1
173
     0
174
     1
175
     0
176
   144
177
   144
178
     7
270
     2
271
     1
272
     1
273
     2
274
     3
340
18E
275
     0
280
     0
281
     0
282
     0
283
     2
284
     8
285
     0
286
     0
287
     5
288
     0
  0
DIMSTYLE
105
3E8
330
A
100
AcDbSymbolTableRecord
100
AcDbDimStyleTableRecord
  2
ADD$3
 70
     0
  3

  4

  5

  6

  7

 40
1.0
 41
2.5
 42
1.0
 43
7.0
 44
0.5
 45
0.0
 46
0.0
 47
0.0
 48
0.0
140
2.5
141
2.5
142
0.0
143
0.03937007874016
144
1.0
145
0.0
146
1.0
147
0.625
 71
     0
 72
     0
 73
     0
 74
     0
 75
     0
 76
     0
 77
     1
 78
     8
170
     0
171
     3
172
     1
173
     0
174
     1
175
     0
176
   144
177
   144
178
     7
270
     2
271
     1
272
     1
273
     2
274
     3
340
18E
275
     0
280
     0
281
     0
282
     0
283
     2
284
     8
285
     0
286
     0
287
     5
288
     0
  0
DIMSTYLE
105
3E9
330
A
100
AcDbSymbolTableRecord
100
AcDbDimStyleTableRecord
  2
ADD$6
 70
     0
  3

  4

  5

  6

  7

 40
1.0
 41
2.5
 42
1.0
 43
7.0
 44
0.5
 45
0.0
 46
0.0
 47
0.0
 48
0.0
140
2.5
141
2.5
142
0.0
143
0.03937007874016
144
1.0
145
0.0
146
1.0
147
0.625
 71
     0
 72
     0
 73
     0
 74
     0
 75
     0
 76
     0
 77
     1
 78
     8
170
     0
171
     3
172
     1
173
     0
174
     1
175
     0
176
   144
177
   144
178
     7
270
     2
271
     1
272
     1
273
     2
274
     3
340
18E
275
     0
280
     0
281
     0
282
     0
283
     2
284
     8
285
     0
286
     0
287
     5
288
     0
  0
DIMSTYLE
105
3EA
330
A
100
AcDbSymbolTableRecord
100
AcDbDimStyleTableRecord
  2
ADD$7
 70
     0
  3

  4

  5

  6

  7

 40
1.0
 41
2.5
 42
1.0
 43
7.0
 44
0.5
 45
0.0
 46
0.0
 47
0.0
 48
0.0
140
2.5
141
2.5
142
0.0
143
0.03937007874016
144
1.0
145
0.0
146
1.0
147
0.625
 71
     0
 72
     0
 73
     0
 74
     0
 75
     0
 76
     0
 77
     0
 78
     8
170
     0
171
     3
172
     1
173
     0
174
     1
175
     0
176
   144
177
   144
178
     7
270
     2
271
     1
272
     1
273
     2
274
     3
340
18E
275
     0
280
     0
281
     0
282
     0
283
     2
284
     8
285
     0
286
     0
287
     5
288
     0
  0
DIMSTYLE
105
518
330
A
100
AcDbSymbolTableRecord
100
AcDbDimStyleTableRecord
  2
STANDARD
 70
     0
  3

  4

  5

  6

  7

 40
1.0
 41
0.18
 42
0.0625
 43
0.38
 44
0.18
 45
0.0
 46
0.0
 47
0.0
 48
0.0
140
0.18
141
0.09
142
0.0
143
25.4
144
1.0
145
0.0
146
1.0
147
0.09
 71
     0
 72
     0
 73
     1
 74
     1
 75
     0
 76
     0
 77
     0
 78
     0
170
     0
171
     2
172
     0
173
     0
174
     0
175
     0
176
     0
177
     0
178
     0
270
     2
271
     4
272
     4
273
     2
274
     2
340
11
275
     0
280
     0
281
     0
282
     0
283
     1
284
     0
285
     0
286
     0
287
     3
288
     0
  0
DIMSTYLE
105
550
102
{ACAD_REACTORS
330
DC2
330
7ED
330
7DE
330
72E
330
721
330
714
330
707
330
6FA
330
6ED
330
6E0
330
6D3
330
6C6
330
6A3
330
694
330
685
330
670
330
663
330
656
330
649
102
}
330
A
100
AcDbSymbolTableRecord
100
AcDbDimStyleTableRecord
  2
ADD$0
 70
     0
  3

  4

  5

  6

  7

 40
1.0
 41
0.7
 42
1.0
 43
7.0
 44
0.5
 45
0.0
 46
0.0
 47
0.0
 48
0.0
140
2.5
141
2.5
142
0.0
143
0.03937007874016
144
1.0
145
0.7
146
1.0
147
0.625
 71
     0
 72
     0
 73
     0
 74
     0
 75
     0
 76
     0
 77
     1
 78
     8
170
     0
171
     3
172
     1
173
     0
174
     0
175
     0
176
   144
177
   144
178
     7
270
     2
271
     1
272
     1
273
     2
274
     3
340
18E
275
     0
280
     0
281
     0
282
     0
283
     2
284
     8
285
     0
286
     0
287
     5
288
     0
  0
DIMSTYLE
105
59B
330
A
100
AcDbSymbolTableRecord
100
AcDbDimStyleTableRecord
  2
ADD_M
 70
     0
  3

  4

  5

  6

  7

 40
1.0
 41
2.5
 42
1.0
 43
7.0
 44
0.5
 45
0.0
 46
0.0
 47
0.0
 48
0.0
140
2.5
141
2.5
142
0.0
143
0.03937007874016
144
1.0
145
0.7
146
1.0
147
0.625
 71
     0
 72
     0
 73
     0
 74
     0
 75
     0
 76
     0
 77
     1
 78
     8
170
     0
171
     3
172
     1
173
     0
174
     1
175
     0
176
   144
177
   144
178
     7
270
     2
271
     1
272
     1
273
     2
274
     3
340
18E
275
     0
280
     0
281
     0
282
     0
283
     2
284
     8
285
     0
286
     0
287
     5
288
     0
  0
ENDTAB
  0
TABLE
  2
BLOCK_RECORD
  5
1
330
0
100
AcDbSymbolTable
 70
    23
  0
BLOCK_RECORD
  5
1F
102
{ACAD_XDICTIONARY
360
DD8
102
}
330
1
100
AcDbSymbolTableRecord
100
AcDbBlockTableRecord
  2
*MODEL_SPACE
  0
BLOCK_RECORD
  5
1B
102
{ACAD_XDICTIONARY
360
DDA
102
}
330
1
100
AcDbSymbolTableRecord
100
AcDbBlockTableRecord
  2
*PAPER_SPACE
  0
BLOCK_RECORD
  5
192
330
1
100
AcDbSymbolTableRecord
100
AcDbBlockTableRecord
  2
_DOT
  0
BLOCK_RECORD
  5
5CE
330
1
100
AcDbSymbolTableRecord
100
AcDbBlockTableRecord
  2
A3
  0
BLOCK_RECORD
  5
5D6
330
1
100
AcDbSymbolTableRecord
100
AcDbBlockTableRecord
  2
A4
  0
BLOCK_RECORD
  5
5DB
330
1
100
AcDbSymbolTableRecord
100
AcDbBlockTableRecord
  2
A4YOKO
1001
ACAD
1000
DesignCenter Data
1002
{
1070
     1
1070
     4
1002
}
  0
BLOCK_RECORD
  5
64A
330
1
100
AcDbSymbolTableRecord
100
AcDbBlockTableRecord
  2
*D4
  0
BLOCK_RECORD
  5
657
330
1
100
AcDbSymbolTableRecord
100
AcDbBlockTableRecord
  2
*D5
  0
BLOCK_RECORD
  5
664
330
1
100
AcDbSymbolTableRecord
100
AcDbBlockTableRecord
  2
*D6
  0
BLOCK_RECORD
  5
671
330
1
100
AcDbSymbolTableRecord
100
AcDbBlockTableRecord
  2
*D7
  0
BLOCK_RECORD
  5
686
330
1
100
AcDbSymbolTableRecord
100
AcDbBlockTableRecord
  2
*D8
  0
BLOCK_RECORD
  5
695
330
1
100
AcDbSymbolTableRecord
100
AcDbBlockTableRecord
  2
*D9
  0
BLOCK_RECORD
  5
6A4
330
1
100
AcDbSymbolTableRecord
100
AcDbBlockTableRecord
  2
*D10
  0
BLOCK_RECORD
  5
6C7
330
1
100
AcDbSymbolTableRecord
100
AcDbBlockTableRecord
  2
*D11
  0
BLOCK_RECORD
  5
6D4
330
1
100
AcDbSymbolTableRecord
100
AcDbBlockTableRecord
  2
*D12
  0
BLOCK_RECORD
  5
6E1
330
1
100
AcDbSymbolTableRecord
100
AcDbBlockTableRecord
  2
*D13
  0
BLOCK_RECORD
  5
6EE
330
1
100
AcDbSymbolTableRecord
100
AcDbBlockTableRecord
  2
*D14
  0
BLOCK_RECORD
  5
6FB
330
1
100
AcDbSymbolTableRecord
100
AcDbBlockTableRecord
  2
*D15
  0
BLOCK_RECORD
  5
708
330
1
100
AcDbSymbolTableRecord
100
AcDbBlockTableRecord
  2
*D16
  0
BLOCK_RECORD
  5
715
330
1
100
AcDbSymbolTableRecord
100
AcDbBlockTableRecord
  2
*D17
  0
BLOCK_RECORD
  5
722
330
1
100
AcDbSymbolTableRecord
100
AcDbBlockTableRecord
  2
*D18
  0
BLOCK_RECORD
  5
72F
330
1
100
AcDbSymbolTableRecord
100
AcDbBlockTableRecord
  2
*D19
  0
BLOCK_RECORD
  5
7DF
330
1
100
AcDbSymbolTableRecord
100
AcDbBlockTableRecord
  2
*D20
  0
BLOCK_RECORD
  5
7EE
330
1
100
AcDbSymbolTableRecord
100
AcDbBlockTableRecord
  2
*D21
  0
BLOCK_RECORD
  5
DC3
330
1
100
AcDbSymbolTableRecord
100
AcDbBlockTableRecord
  2
*D22
  0
ENDTAB
  0
ENDSEC
  0
SECTION
  2
BLOCKS
  0
BLOCK
  5
20
330
1F
100
AcDbEntity
  8
0
100
AcDbBlockBegin
  2
*MODEL_SPACE
 70
     0
 10
0.0
 20
0.0
 30
0.0
  3
*MODEL_SPACE
  1

  0
ENDBLK
  5
21
330
1F
100
AcDbEntity
  8
0
100
AcDbBlockEnd
  0
BLOCK
  5
1C
330
1B
100
AcDbEntity
 67
     1
  8
0
100
AcDbBlockBegin
  2
*PAPER_SPACE
 70
     0
 10
0.0
 20
0.0
 30
0.0
  3
*PAPER_SPACE
  1

  0
ENDBLK
  5
1D
330
1B
100
AcDbEntity
 67
     1
  8
0
100
AcDbBlockEnd
  0
BLOCK
  5
195
330
192
100
AcDbEntity
  8
0
100
AcDbBlockBegin
  2
_DOT
 70
     0
 10
0.0
 20
0.0
 30
0.0
  3
_DOT
  1

  0
POLYLINE
  5
193
330
192
100
AcDbEntity
  8
0
 62
     0
100
AcDb2dPolyline
 66
     1
 10
0.0
 20
0.0
 30
0.0
 70
     1
 40
0.5
 41
0.5
  0
VERTEX
  5
F06
330
193
100
AcDbEntity
  8
0
 62
     0
100
AcDbVertex
100
AcDb2dVertex
 10
-0.25
 20
0.0
 30
0.0
 42
1.0
  0
VERTEX
  5
F07
330
193
100
AcDbEntity
  8
0
 62
     0
100
AcDbVertex
100
AcDb2dVertex
 10
0.25
 20
0.0
 30
0.0
 42
1.0
  0
SEQEND
  5
F08
330
193
100
AcDbEntity
  8
0
 62
     0
  0
LINE
  5
194
330
192
100
AcDbEntity
  8
0
 62
     0
100
AcDbLine
 10
-0.5
 20
0.0
 30
0.0
 11
-1.0
 21
0.0
 31
0.0
  0
ENDBLK
  5
196
330
192
100
AcDbEntity
  8
0
100
AcDbBlockEnd
  0
BLOCK
  5
5D1
330
5CE
100
AcDbEntity
  8
0
100
AcDbBlockBegin
  2
A3
 70
     0
 10
0.0
 20
0.0
 30
0.0
  3
A3
  1

  0
POLYLINE
  5
5CF
330
5CE
100
AcDbEntity
  8
HOJO
100
AcDb2dPolyline
 66
     1
 10
0.0
 20
0.0
 30
0.0
 70
     1
  0
VERTEX
  5
F09
330
5CF
100
AcDbEntity
  8
HOJO
100
AcDbVertex
100
AcDb2dVertex
 10
0.0
 20
0.0
 30
0.0
  0
VERTEX
  5
F0A
330
5CF
100
AcDbEntity
  8
HOJO
100
AcDbVertex
100
AcDb2dVertex
 10
420.0
 20
0.0
 30
0.0
  0
VERTEX
  5
F0B
330
5CF
100
AcDbEntity
  8
HOJO
100
AcDbVertex
100
AcDb2dVertex
 10
420.0
 20
297.0
 30
0.0
  0
VERTEX
  5
F0C
330
5CF
100
AcDbEntity
  8
HOJO
100
AcDbVertex
100
AcDb2dVertex
 10
0.0
 20
297.0
 30
0.0
  0
SEQEND
  5
F0D
330
5CF
100
AcDbEntity
  8
HOJO
  0
POLYLINE
  5
5D0
330
5CE
100
AcDbEntity
  8
HOJO
100
AcDb2dPolyline
 66
     1
 10
0.0
 20
0.0
 30
0.0
 70
     1
  0
VERTEX
  5
F0E
330
5D0
100
AcDbEntity
  8
HOJO
100
AcDbVertex
100
AcDb2dVertex
 10
18.0
 20
13.0
 30
0.0
  0
VERTEX
  5
F0F
330
5D0
100
AcDbEntity
  8
HOJO
100
AcDbVertex
100
AcDb2dVertex
 10
402.0
 20
13.0
 30
0.0
  0
VERTEX
  5
F10
330
5D0
100
AcDbEntity
  8
HOJO
100
AcDbVertex
100
AcDb2dVertex
 10
402.0
 20
284.0
 30
0.0
  0
VERTEX
  5
F11
330
5D0
100
AcDbEntity
  8
HOJO
100
AcDbVertex
100
AcDb2dVertex
 10
18.0
 20
284.0
 30
0.0
  0
SEQEND
  5
F12
330
5D0
100
AcDbEntity
  8
HOJO
  0
ENDBLK
  5
5D2
330
5CE
100
AcDbEntity
  8
0
100
AcDbBlockEnd
  0
BLOCK
  5
5D9
330
5D6
100
AcDbEntity
  8
0
100
AcDbBlockBegin
  2
A4
 70
     0
 10
0.0
 20
0.0
 30
0.0
  3
A4
  1

  0
POLYLINE
  5
5D7
330
5D6
100
AcDbEntity
  8
HOJO
100
AcDb2dPolyline
 66
     1
 10
0.0
 20
0.0
 30
0.0
 70
     1
  0
VERTEX
  5
F13
330
5D7
100
AcDbEntity
  8
HOJO
100
AcDbVertex
100
AcDb2dVertex
 10
0.0
 20
0.0
 30
0.0
  0
VERTEX
  5
F14
330
5D7
100
AcDbEntity
  8
HOJO
100
AcDbVertex
100
AcDb2dVertex
 10
297.0
 20
0.0
 30
0.0
  0
VERTEX
  5
F15
330
5D7
100
AcDbEntity
  8
HOJO
100
AcDbVertex
100
AcDb2dVertex
 10
297.0
 20
210.0
 30
0.0
  0
VERTEX
  5
F16
330
5D7
100
AcDbEntity
  8
HOJO
100
AcDbVertex
100
AcDb2dVertex
 10
0.0
 20
210.0
 30
0.0
  0
SEQEND
  5
F17
330
5D7
100
AcDbEntity
  8
HOJO
  0
POLYLINE
  5
5D8
330
5D6
100
AcDbEntity
  8
HOJO
100
AcDb2dPolyline
 66
     1
 10
0.0
 20
0.0
 30
0.0
 70
     1
  0
VERTEX
  5
F18
330
5D8
100
AcDbEntity
  8
HOJO
100
AcDbVertex
100
AcDb2dVertex
 10
18.0
 20
13.0
 30
0.0
  0
VERTEX
  5
F19
330
5D8
100
AcDbEntity
  8
HOJO
100
AcDbVertex
100
AcDb2dVertex
 10
279.0
 20
13.0
 30
0.0
  0
VERTEX
  5
F1A
330
5D8
100
AcDbEntity
  8
HOJO
100
AcDbVertex
100
AcDb2dVertex
 10
279.0
 20
197.0
 30
0.0
  0
VERTEX
  5
F1B
330
5D8
100
AcDbEntity
  8
HOJO
100
AcDbVertex
100
AcDb2dVertex
 10
18.0
 20
197.0
 30
0.0
  0
SEQEND
  5
F1C
330
5D8
100
AcDbEntity
  8
HOJO
  0
ENDBLK
  5
5DA
330
5D6
100
AcDbEntity
  8
0
100
AcDbBlockEnd
  0
BLOCK
  5
5E9
330
5DB
100
AcDbEntity
  8
0
100
AcDbBlockBegin
  2
A4YOKO
 70
     0
 10
0.0
 20
0.0
 30
0.0
  3
A4YOKO
  1

  0
POLYLINE
  5
5DC
330
5DB
100
AcDbEntity
  8
HOJO
100
AcDb2dPolyline
 66
     1
 10
0.0
 20
0.0
 30
0.0
 70
     1
  0
VERTEX
  5
F1D
330
5DC
100
AcDbEntity
  8
HOJO
100
AcDbVertex
100
AcDb2dVertex
 10
0.0
 20
0.0
 30
0.0
  0
VERTEX
  5
F1E
330
5DC
100
AcDbEntity
  8
HOJO
100
AcDbVertex
100
AcDb2dVertex
 10
5940.0
 20
0.0
 30
0.0
  0
VERTEX
  5
F1F
330
5DC
100
AcDbEntity
  8
HOJO
100
AcDbVertex
100
AcDb2dVertex
 10
5940.0
 20
4200.0
 30
0.0
  0
VERTEX
  5
F20
330
5DC
100
AcDbEntity
  8
HOJO
100
AcDbVertex
100
AcDb2dVertex
 10
0.0
 20
4200.0
 30
0.0
  0
SEQEND
  5
F21
330
5DC
100
AcDbEntity
  8
HOJO
  0
POLYLINE
  5
5DD
330
5DB
100
AcDbEntity
  8
HOJO
100
AcDb2dPolyline
 66
     1
 10
0.0
 20
0.0
 30
0.0
 70
     1
  0
VERTEX
  5
F22
330
5DD
100
AcDbEntity
  8
HOJO
100
AcDbVertex
100
AcDb2dVertex
 10
360.0
 20
260.0
 30
0.0
  0
VERTEX
  5
F23
330
5DD
100
AcDbEntity
  8
HOJO
100
AcDbVertex
100
AcDb2dVertex
 10
5580.0
 20
260.0
 30
0.0
  0
VERTEX
  5
F24
330
5DD
100
AcDbEntity
  8
HOJO
100
AcDbVertex
100
AcDb2dVertex
 10
5580.0
 20
3940.0
 30
0.0
  0
VERTEX
  5
F25
330
5DD
100
AcDbEntity
  8
HOJO
100
AcDbVertex
100
AcDb2dVertex
 10
360.0
 20
3940.0
 30
0.0
  0
SEQEND
  5
F26
330
5DD
100
AcDbEntity
  8
HOJO
  0
LINE
  5
5DE
330
5DB
100
AcDbEntity
  8
HOJO
100
AcDbLine
 10
360.0
 20
260.0
 30
0.0
 11
5580.0
 21
260.0
 31
0.0
  0
LINE
  5
5DF
330
5DB
100
AcDbEntity
  8
HOJO
100
AcDbLine
 10
360.0
 20
560.0
 30
0.0
 11
5580.0
 21
560.0
 31
0.0
  0
LINE
  5
5E0
330
5DB
100
AcDbEntity
  8
HOJO
100
AcDbLine
 10
360.0
 20
260.0
 30
0.0
 11
360.0
 21
560.0
 31
0.0
  0
LINE
  5
5E1
330
5DB
100
AcDbEntity
  8
HOJO
100
AcDbLine
 10
2360.0
 20
260.0
 30
0.0
 11
2360.0
 21
560.0
 31
0.0
  0
LINE
  5
5E2
330
5DB
100
AcDbEntity
  8
HOJO
100
AcDbLine
 10
3160.0
 20
260.0
 30
0.0
 11
3160.0
 21
560.0
 31
0.0
  0
LINE
  5
5E3
330
5DB
100
AcDbEntity
  8
HOJO
100
AcDbLine
 10
3660.0
 20
260.0
 30
0.0
 11
3660.0
 21
560.0
 31
0.0
  0
MTEXT
  5
5E4
330
5DB
100
AcDbEntity
  8
MOJI
100
AcDbMText
 10
3730.870883051572
 20
452.2726133092146
 30
0.0
 40
100.0
 41
1850.299599999999
 71
     1
 72
     1
  1
千葉県コンクリート製品協同組合
  7
ADD
1001
ACAD
1000
MTEXTBEGIN
1070
    73
1070
     1
1070
    44
1040
1.0
1070
    74
1070
     0
1000
MTEXTEND
1000
MTEXTBEGIN
1070
    73
1070
     1
1070
    44
1040
1.0
1070
    74
1070
     0
1000
MTEXTEND
  0
MTEXT
  5
5E5
330
5DB
100
AcDbEntity
  8
MOJI
100
AcDbMText
 10
3177.510249231658
 20
538.6918916770627
 30
0.0
 40
50.0
 41
247.8594
 71
     1
 72
     1
  1
縮尺
  7
ADD
1001
ACAD
1000
MTEXTBEGIN
1070
    73
1070
     1
1070
    44
1040
1.0
1070
    74
1070
     0
1000
MTEXTEND
1000
MTEXTBEGIN
1070
    73
1070
     1
1070
    44
1040
1.0
1070
    74
1070
     0
1000
MTEXTEND
  0
MTEXT
  5
5E6
330
5DB
100
AcDbEntity
  8
MOJI
100
AcDbMText
 10
2376.290169028722
 20
544.4531736811823
 30
0.0
 40
50.0
 41
322.7937
 71
     1
 72
     1
  1
型式
  7
ADD
1001
ACAD
1000
MTEXTBEGIN
1070
    73
1070
     1
1070
    44
1040
1.0
1070
    74
1070
     0
1000
MTEXTEND
1000
MTEXTBEGIN
1070
    73
1070
     1
1070
    44
1040
1.0
1070
    74
1070
     0
1000
MTEXTEND
  0
MTEXT
  5
5E7
330
5DB
100
AcDbEntity
  8
MOJI
100
AcDbMText
 10
381.8862574011546
 20
538.6918916770627
 30
0.0
 40
50.0
 41
956.8527000000001
 71
     1
 72
     1
  1
製品名
  7
ADD
1001
ACAD
1000
MTEXTBEGIN
1070
    73
1070
     1
1070
    44
1040
1.0
1070
    74
1070
     0
1000
MTEXTEND
1000
MTEXTBEGIN
1070
    73
1070
     1
1070
    44
1040
1.0
1070
    74
1070
     0
1000
MTEXTEND
  0
MTEXT
  5
5E8
330
5DB
100
AcDbEntity
  8
MOJI
100
AcDbMText
 10
3246.680311730542
 20
429.2274732162223
 30
0.0
 40
70.0
 41
380.4354
 71
     1
 72
     1
  1
１／２０
  7
ADD
1001
ACAD
1000
MTEXTBEGIN
1070
    73
1070
     1
1070
    44
1040
1.0
1070
    74
1070
     0
1000
MTEXTEND
1000
MTEXTBEGIN
1070
    73
1070
     1
1070
    44
1040
1.0
1070
    74
1070
     0
1000
MTEXTEND
  0
ENDBLK
  5
5EA
330
5DB
100
AcDbEntity
  8
0
100
AcDbBlockEnd
  0
BLOCK
  5
654
330
64A
100
AcDbEntity
  8
0
100
AcDbBlockBegin
  2
*D4
 70
     1
 10
0.0
 20
0.0
 30
0.0
  3
*D4
  1

  0
LINE
  5
DB1
330
64A
100
AcDbEntity
  8
SUNPO
 62
   144
100
AcDbLine
 10
1678.196826085622
 20
3972.382639168392
 30
0.0
 11
1678.196826085622
 21
4630.567958017155
 31
0.0
  0
LINE
  5
DB2
330
64A
100
AcDbEntity
  8
SUNPO
 62
   144
100
AcDbLine
 10
1858.196826085622
 20
3972.382639168392
 30
0.0
 11
1858.196826085622
 21
4630.567958017155
 31
0.0
  0
LINE
  5
DB3
330
64A
100
AcDbEntity
  8
SUNPO
 62
   144
100
AcDbLine
 10
1692.196826085623
 20
4620.567958017154
 30
0.0
 11
1844.196826085623
 21
4620.567958017154
 31
0.0
  0
SOLID
  5
DB4
330
64A
100
AcDbEntity
  8
SUNPO
 62
   144
100
AcDbTrace
 10
1692.196826085623
 20
4622.901291350487
 30
0.0
 11
1692.196826085623
 21
4618.234624683821
 31
0.0
 12
1678.196826085622
 22
4620.567958017154
 32
0.0
 13
1678.196826085622
 23
4620.567958017154
 33
0.0
  0
SOLID
  5
DB5
330
64A
100
AcDbEntity
  8
SUNPO
 62
   144
100
AcDbTrace
 10
1844.196826085623
 20
4622.901291350487
 30
0.0
 11
1844.196826085623
 21
4618.234624683821
 31
0.0
 12
1858.196826085622
 22
4620.567958017154
 32
0.0
 13
1858.196826085622
 23
4620.567958017154
 33
0.0
  0
MTEXT
  5
DB6
330
64A
100
AcDbEntity
  8
SUNPO
 62
     7
100
AcDbMText
 10
1768.196826085623
 20
4658.067958017155
 30
0.0
 40
50.0
 41
0.0
 71
     5
 72
     1
  1
\A2;180
  7
ADD
1001
ACAD
1000
MTEXTBEGIN
1070
    73
1070
     1
1070
    44
1040
1.0
1070
    74
1070
     0
1000
MTEXTEND
1000
MTEXTBEGIN
1070
    73
1070
     1
1070
    44
1040
1.0
1070
    74
1070
     0
1000
MTEXTEND
  0
POINT
  5
DB7
330
64A
100
AcDbEntity
  8
DEFPOINTS
 62
     0
100
AcDbPoint
 10
1678.196826085622
 20
3952.382639168392
 30
0.0
  0
POINT
  5
DB8
330
64A
100
AcDbEntity
  8
DEFPOINTS
 62
     0
100
AcDbPoint
 10
1858.196826085622
 20
3952.382639168392
 30
0.0
  0
POINT
  5
DB9
330
64A
100
AcDbEntity
  8
DEFPOINTS
 62
     0
100
AcDbPoint
 10
1858.196826085622
 20
4620.567958017154
 30
0.0
  0
ENDBLK
  5
655
330
64A
100
AcDbEntity
  8
0
100
AcDbBlockEnd
  0
BLOCK
  5
661
330
657
100
AcDbEntity
  8
0
100
AcDbBlockBegin
  2
*D5
 70
     1
 10
0.0
 20
0.0
 30
0.0
  3
*D5
  1

  0
LINE
  5
DA8
330
657
100
AcDbEntity
  8
SUNPO
 62
   144
100
AcDbLine
 10
2458.196826085623
 20
3972.382639168392
 30
0.0
 11
2458.196826085623
 21
4630.567958017155
 31
0.0
  0
LINE
  5
DA9
330
657
100
AcDbEntity
  8
SUNPO
 62
   144
100
AcDbLine
 10
2648.196826085623
 20
3972.382639168392
 30
0.0
 11
2648.196826085623
 21
4630.567958017155
 31
0.0
  0
LINE
  5
DAA
330
657
100
AcDbEntity
  8
SUNPO
 62
   144
100
AcDbLine
 10
2472.196826085623
 20
4620.567958017154
 30
0.0
 11
2634.196826085623
 21
4620.567958017154
 31
0.0
  0
SOLID
  5
DAB
330
657
100
AcDbEntity
  8
SUNPO
 62
   144
100
AcDbTrace
 10
2472.196826085623
 20
4622.901291350487
 30
0.0
 11
2472.196826085623
 21
4618.234624683821
 31
0.0
 12
2458.196826085623
 22
4620.567958017154
 32
0.0
 13
2458.196826085623
 23
4620.567958017154
 33
0.0
  0
SOLID
  5
DAC
330
657
100
AcDbEntity
  8
SUNPO
 62
   144
100
AcDbTrace
 10
2634.196826085623
 20
4622.901291350487
 30
0.0
 11
2634.196826085623
 21
4618.234624683821
 31
0.0
 12
2648.196826085623
 22
4620.567958017154
 32
0.0
 13
2648.196826085623
 23
4620.567958017154
 33
0.0
  0
MTEXT
  5
DAD
330
657
100
AcDbEntity
  8
SUNPO
 62
     7
100
AcDbMText
 10
2553.196826085622
 20
4658.067958017155
 30
0.0
 40
50.0
 41
0.0
 71
     5
 72
     1
  1
\A2;190
  7
ADD
1001
ACAD
1000
MTEXTBEGIN
1070
    73
1070
     1
1070
    44
1040
1.0
1070
    74
1070
     0
1000
MTEXTEND
1000
MTEXTBEGIN
1070
    73
1070
     1
1070
    44
1040
1.0
1070
    74
1070
     0
1000
MTEXTEND
  0
POINT
  5
DAE
330
657
100
AcDbEntity
  8
DEFPOINTS
 62
     0
100
AcDbPoint
 10
2458.196826085623
 20
3952.382639168392
 30
0.0
  0
POINT
  5
DAF
330
657
100
AcDbEntity
  8
DEFPOINTS
 62
     0
100
AcDbPoint
 10
2648.196826085623
 20
3952.382639168392
 30
0.0
  0
POINT
  5
DB0
330
657
100
AcDbEntity
  8
DEFPOINTS
 62
     0
100
AcDbPoint
 10
2648.196826085623
 20
4620.567958017154
 30
0.0
  0
ENDBLK
  5
662
330
657
100
AcDbEntity
  8
0
100
AcDbBlockEnd
  0
BLOCK
  5
66E
330
664
100
AcDbEntity
  8
0
100
AcDbBlockBegin
  2
*D6
 70
     1
 10
0.0
 20
0.0
 30
0.0
  3
*D6
  1

  0
LINE
  5
D9F
330
664
100
AcDbEntity
  8
SUNPO
 62
   144
100
AcDbLine
 10
2648.196826085623
 20
3972.382639168392
 30
0.0
 11
2648.196826085623
 21
4630.567958017155
 31
0.0
  0
LINE
  5
DA0
330
664
100
AcDbEntity
  8
SUNPO
 62
   144
100
AcDbLine
 10
6648.196826085623
 20
3972.382639168392
 30
0.0
 11
6648.196826085623
 21
4630.567958017155
 31
0.0
  0
LINE
  5
DA1
330
664
100
AcDbEntity
  8
SUNPO
 62
   144
100
AcDbLine
 10
2662.196826085622
 20
4620.567958017154
 30
0.0
 11
6634.196826085624
 21
4620.567958017154
 31
0.0
  0
SOLID
  5
DA2
330
664
100
AcDbEntity
  8
SUNPO
 62
   144
100
AcDbTrace
 10
2662.196826085622
 20
4622.901291350487
 30
0.0
 11
2662.196826085622
 21
4618.234624683821
 31
0.0
 12
2648.196826085623
 22
4620.567958017154
 32
0.0
 13
2648.196826085623
 23
4620.567958017154
 33
0.0
  0
SOLID
  5
DA3
330
664
100
AcDbEntity
  8
SUNPO
 62
   144
100
AcDbTrace
 10
6634.196826085624
 20
4622.901291350487
 30
0.0
 11
6634.196826085624
 21
4618.234624683821
 31
0.0
 12
6648.196826085623
 22
4620.567958017154
 32
0.0
 13
6648.196826085623
 23
4620.567958017154
 33
0.0
  0
MTEXT
  5
DA4
330
664
100
AcDbEntity
  8
SUNPO
 62
     7
100
AcDbMText
 10
4648.196826085622
 20
4658.067958017155
 30
0.0
 40
50.0
 41
0.0
 71
     5
 72
     1
  1
\A2;4000
  7
ADD
1001
ACAD
1000
MTEXTBEGIN
1070
    73
1070
     1
1070
    44
1040
1.0
1070
    74
1070
     0
1000
MTEXTEND
1000
MTEXTBEGIN
1070
    73
1070
     1
1070
    44
1040
1.0
1070
    74
1070
     0
1000
MTEXTEND
  0
POINT
  5
DA5
330
664
100
AcDbEntity
  8
DEFPOINTS
 62
     0
100
AcDbPoint
 10
2648.196826085623
 20
3952.382639168392
 30
0.0
  0
POINT
  5
DA6
330
664
100
AcDbEntity
  8
DEFPOINTS
 62
     0
100
AcDbPoint
 10
6648.196826085623
 20
3952.382639168392
 30
0.0
  0
POINT
  5
DA7
330
664
100
AcDbEntity
  8
DEFPOINTS
 62
     0
100
AcDbPoint
 10
6648.196826085623
 20
4620.567958017154
 30
0.0
  0
ENDBLK
  5
66F
330
664
100
AcDbEntity
  8
0
100
AcDbBlockEnd
  0
BLOCK
  5
67B
330
671
100
AcDbEntity
  8
0
100
AcDbBlockBegin
  2
*D7
 70
     1
 10
0.0
 20
0.0
 30
0.0
  3
*D7
  1

  0
LINE
  5
D96
330
671
100
AcDbEntity
  8
SUNPO
 62
   144
100
AcDbLine
 10
6648.196826085623
 20
3972.382639168392
 30
0.0
 11
6648.196826085623
 21
4630.567958017155
 31
0.0
  0
LINE
  5
D97
330
671
100
AcDbEntity
  8
SUNPO
 62
   144
100
AcDbLine
 10
6838.196826085622
 20
3972.382639168392
 30
0.0
 11
6838.196826085622
 21
4630.567958017155
 31
0.0
  0
LINE
  5
D98
330
671
100
AcDbEntity
  8
SUNPO
 62
   144
100
AcDbLine
 10
6662.196826085623
 20
4620.567958017154
 30
0.0
 11
6824.196826085622
 21
4620.567958017154
 31
0.0
  0
SOLID
  5
D99
330
671
100
AcDbEntity
  8
SUNPO
 62
   144
100
AcDbTrace
 10
6662.196826085623
 20
4622.901291350487
 30
0.0
 11
6662.196826085623
 21
4618.234624683821
 31
0.0
 12
6648.196826085623
 22
4620.567958017154
 32
0.0
 13
6648.196826085623
 23
4620.567958017154
 33
0.0
  0
SOLID
  5
D9A
330
671
100
AcDbEntity
  8
SUNPO
 62
   144
100
AcDbTrace
 10
6824.196826085622
 20
4622.901291350487
 30
0.0
 11
6824.196826085622
 21
4618.234624683821
 31
0.0
 12
6838.196826085622
 22
4620.567958017154
 32
0.0
 13
6838.196826085622
 23
4620.567958017154
 33
0.0
  0
MTEXT
  5
D9B
330
671
100
AcDbEntity
  8
SUNPO
 62
     7
100
AcDbMText
 10
6743.196826085622
 20
4658.067958017155
 30
0.0
 40
50.0
 41
0.0
 71
     5
 72
     1
  1
\A2;190
  7
ADD
1001
ACAD
1000
MTEXTBEGIN
1070
    73
1070
     1
1070
    44
1040
1.0
1070
    74
1070
     0
1000
MTEXTEND
1000
MTEXTBEGIN
1070
    73
1070
     1
1070
    44
1040
1.0
1070
    74
1070
     0
1000
MTEXTEND
  0
POINT
  5
D9C
330
671
100
AcDbEntity
  8
DEFPOINTS
 62
     0
100
AcDbPoint
 10
6648.196826085623
 20
3952.382639168392
 30
0.0
  0
POINT
  5
D9D
330
671
100
AcDbEntity
  8
DEFPOINTS
 62
     0
100
AcDbPoint
 10
6838.196826085622
 20
3952.382639168392
 30
0.0
  0
POINT
  5
D9E
330
671
100
AcDbEntity
  8
DEFPOINTS
 62
     0
100
AcDbPoint
 10
6838.196826085622
 20
4620.567958017154
 30
0.0
  0
ENDBLK
  5
67C
330
671
100
AcDbEntity
  8
0
100
AcDbBlockEnd
  0
BLOCK
  5
692
330
686
100
AcDbEntity
  8
0
100
AcDbBlockBegin
  2
*D8
 70
     1
 10
0.0
 20
0.0
 30
0.0
  3
*D8
  1

  0
LINE
  5
D8B
330
686
100
AcDbEntity
  8
SUNPO
 62
   144
100
AcDbLine
 10
1678.196826085622
 20
3972.382639168392
 30
0.0
 11
1678.196826085622
 21
4330.578547622388
 31
0.0
  0
LINE
  5
D8C
330
686
100
AcDbEntity
  8
SUNPO
 62
   144
100
AcDbLine
 10
1728.196826085622
 20
3972.382639168392
 30
0.0
 11
1728.196826085622
 21
4330.578547622388
 31
0.0
  0
LINE
  5
D8D
330
686
100
AcDbEntity
  8
SUNPO
 62
   144
100
AcDbLine
 10
1664.196826085622
 20
4320.578547622388
 30
0.0
 11
1650.196826085623
 21
4320.578547622388
 31
0.0
  0
LINE
  5
D8E
330
686
100
AcDbEntity
  8
SUNPO
 62
   144
100
AcDbLine
 10
1742.196826085622
 20
4320.578547622388
 30
0.0
 11
1756.196826085623
 21
4320.578547622388
 31
0.0
  0
MTEXT
  5
D8F
330
686
100
AcDbEntity
  8
SUNPO
 62
     7
100
AcDbMText
 10
1615.698359294325
 20
4374.328547622388
 30
0.0
 40
50.0
 41
0.0
 71
     5
 72
     1
  1
\A2;50
  7
ADD
1001
ACAD
1000
MTEXTBEGIN
1070
    73
1070
     1
1070
    44
1040
1.0
1070
    74
1070
     0
1000
MTEXTEND
1000
MTEXTBEGIN
1070
    73
1070
     1
1070
    44
1040
1.0
1070
    74
1070
     0
1000
MTEXTEND
  0
LINE
  5
D90
330
686
100
AcDbEntity
  8
SUNPO
 62
   144
100
AcDbLine
 10
1678.196826085622
 20
4320.578547622388
 30
0.0
 11
1728.196826085622
 21
4320.578547622388
 31
0.0
  0
SOLID
  5
D91
330
686
100
AcDbEntity
  8
SUNPO
 62
   144
100
AcDbTrace
 10
1664.196826085622
 20
4322.911880955721
 30
0.0
 11
1664.196826085622
 21
4318.245214289055
 31
0.0
 12
1678.196826085622
 22
4320.578547622388
 32
0.0
 13
1678.196826085622
 23
4320.578547622388
 33
0.0
  0
SOLID
  5
D92
330
686
100
AcDbEntity
  8
SUNPO
 62
   144
100
AcDbTrace
 10
1742.196826085622
 20
4322.911880955721
 30
0.0
 11
1742.196826085622
 21
4318.245214289055
 31
0.0
 12
1728.196826085622
 22
4320.578547622388
 32
0.0
 13
1728.196826085622
 23
4320.578547622388
 33
0.0
  0
POINT
  5
D93
330
686
100
AcDbEntity
  8
DEFPOINTS
 62
     0
100
AcDbPoint
 10
1678.196826085622
 20
3952.382639168392
 30
0.0
  0
POINT
  5
D94
330
686
100
AcDbEntity
  8
DEFPOINTS
 62
     0
100
AcDbPoint
 10
1728.196826085622
 20
3952.382639168392
 30
0.0
  0
POINT
  5
D95
330
686
100
AcDbEntity
  8
DEFPOINTS
 62
     0
100
AcDbPoint
 10
1728.196826085622
 20
4320.578547622388
 30
0.0
  0
ENDBLK
  5
693
330
686
100
AcDbEntity
  8
0
100
AcDbBlockEnd
  0
BLOCK
  5
6A1
330
695
100
AcDbEntity
  8
0
100
AcDbBlockBegin
  2
*D9
 70
     1
 10
0.0
 20
0.0
 30
0.0
  3
*D9
  1

  0
LINE
  5
D80
330
695
100
AcDbEntity
  8
SUNPO
 62
   144
100
AcDbLine
 10
1858.196826085622
 20
3972.382639168392
 30
0.0
 11
1858.196826085622
 21
4330.578547622388
 31
0.0
  0
LINE
  5
D81
330
695
100
AcDbEntity
  8
SUNPO
 62
   144
100
AcDbLine
 10
1808.196826085622
 20
3972.382639168392
 30
0.0
 11
1808.196826085622
 21
4330.578547622388
 31
0.0
  0
LINE
  5
D82
330
695
100
AcDbEntity
  8
SUNPO
 62
   144
100
AcDbLine
 10
1872.196826085622
 20
4320.578547622388
 30
0.0
 11
1886.196826085623
 21
4320.578547622388
 31
0.0
  0
LINE
  5
D83
330
695
100
AcDbEntity
  8
SUNPO
 62
   144
100
AcDbLine
 10
1794.196826085622
 20
4320.578547622388
 30
0.0
 11
1780.196826085622
 21
4320.578547622388
 31
0.0
  0
MTEXT
  5
D84
330
695
100
AcDbEntity
  8
SUNPO
 62
     7
100
AcDbMText
 10
1913.165332929882
 20
4374.328547622388
 30
0.0
 40
50.0
 41
0.0
 71
     5
 72
     1
  1
\A2;50
  7
ADD
1001
ACAD
1000
MTEXTBEGIN
1070
    73
1070
     1
1070
    44
1040
1.0
1070
    74
1070
     0
1000
MTEXTEND
1000
MTEXTBEGIN
1070
    73
1070
     1
1070
    44
1040
1.0
1070
    74
1070
     0
1000
MTEXTEND
  0
LINE
  5
D85
330
695
100
AcDbEntity
  8
SUNPO
 62
   144
100
AcDbLine
 10
1858.196826085622
 20
4320.578547622388
 30
0.0
 11
1808.196826085622
 21
4320.578547622388
 31
0.0
  0
SOLID
  5
D86
330
695
100
AcDbEntity
  8
SUNPO
 62
   144
100
AcDbTrace
 10
1872.196826085622
 20
4322.911880955721
 30
0.0
 11
1872.196826085622
 21
4318.245214289055
 31
0.0
 12
1858.196826085622
 22
4320.578547622388
 32
0.0
 13
1858.196826085622
 23
4320.578547622388
 33
0.0
  0
SOLID
  5
D87
330
695
100
AcDbEntity
  8
SUNPO
 62
   144
100
AcDbTrace
 10
1794.196826085622
 20
4322.911880955721
 30
0.0
 11
1794.196826085622
 21
4318.245214289055
 31
0.0
 12
1808.196826085622
 22
4320.578547622388
 32
0.0
 13
1808.196826085622
 23
4320.578547622388
 33
0.0
  0
POINT
  5
D88
330
695
100
AcDbEntity
  8
DEFPOINTS
 62
     0
100
AcDbPoint
 10
1858.196826085622
 20
3952.382639168392
 30
0.0
  0
POINT
  5
D89
330
695
100
AcDbEntity
  8
DEFPOINTS
 62
     0
100
AcDbPoint
 10
1808.196826085622
 20
3952.382639168392
 30
0.0
  0
POINT
  5
D8A
330
695
100
AcDbEntity
  8
DEFPOINTS
 62
     0
100
AcDbPoint
 10
1808.196826085622
 20
4320.578547622388
 30
0.0
  0
ENDBLK
  5
6A2
330
695
100
AcDbEntity
  8
0
100
AcDbBlockEnd
  0
BLOCK
  5
6AE
330
6A4
100
AcDbEntity
  8
0
100
AcDbBlockBegin
  2
*D10
 70
     1
 10
0.0
 20
0.0
 30
0.0
  3
*D10
  1

  0
LINE
  5
D77
330
6A4
100
AcDbEntity
  8
SUNPO
 62
   144
100
AcDbLine
 10
1733.196826085622
 20
3972.382639168392
 30
0.0
 11
1733.196826085622
 21
4330.578547622388
 31
0.0
  0
LINE
  5
D78
330
6A4
100
AcDbEntity
  8
SUNPO
 62
   144
100
AcDbLine
 10
1803.196826085622
 20
3972.382639168392
 30
0.0
 11
1803.196826085622
 21
4330.578547622388
 31
0.0
  0
LINE
  5
D79
330
6A4
100
AcDbEntity
  8
SUNPO
 62
   144
100
AcDbLine
 10
1747.196826085622
 20
4320.578547622388
 30
0.0
 11
1789.196826085622
 21
4320.578547622388
 31
0.0
  0
MTEXT
  5
D7A
330
6A4
100
AcDbEntity
  8
SUNPO
 62
     7
100
AcDbMText
 10
1768.196826085623
 20
4374.328547622388
 30
0.0
 40
50.0
 41
0.0
 71
     5
 72
     1
  1
\A2;70
  7
ADD
1001
ACAD
1000
MTEXTBEGIN
1070
    73
1070
     1
1070
    44
1040
1.0
1070
    74
1070
     0
1000
MTEXTEND
1000
MTEXTBEGIN
1070
    73
1070
     1
1070
    44
1040
1.0
1070
    74
1070
     0
1000
MTEXTEND
  0
SOLID
  5
D7B
330
6A4
100
AcDbEntity
  8
SUNPO
 62
   144
100
AcDbTrace
 10
1747.196826085622
 20
4322.911880955721
 30
0.0
 11
1747.196826085622
 21
4318.245214289055
 31
0.0
 12
1733.196826085622
 22
4320.578547622388
 32
0.0
 13
1733.196826085622
 23
4320.578547622388
 33
0.0
  0
SOLID
  5
D7C
330
6A4
100
AcDbEntity
  8
SUNPO
 62
   144
100
AcDbTrace
 10
1789.196826085622
 20
4322.911880955721
 30
0.0
 11
1789.196826085622
 21
4318.245214289055
 31
0.0
 12
1803.196826085622
 22
4320.578547622388
 32
0.0
 13
1803.196826085622
 23
4320.578547622388
 33
0.0
  0
POINT
  5
D7D
330
6A4
100
AcDbEntity
  8
DEFPOINTS
 62
     0
100
AcDbPoint
 10
1733.196826085622
 20
3952.382639168392
 30
0.0
  0
POINT
  5
D7E
330
6A4
100
AcDbEntity
  8
DEFPOINTS
 62
     0
100
AcDbPoint
 10
1803.196826085622
 20
3952.382639168392
 30
0.0
  0
POINT
  5
D7F
330
6A4
100
AcDbEntity
  8
DEFPOINTS
 62
     0
100
AcDbPoint
 10
1803.196826085622
 20
4320.578547622388
 30
0.0
  0
ENDBLK
  5
6AF
330
6A4
100
AcDbEntity
  8
0
100
AcDbBlockEnd
  0
BLOCK
  5
6D1
330
6C7
100
AcDbEntity
  8
0
100
AcDbBlockBegin
  2
*D11
 70
     1
 10
0.0
 20
0.0
 30
0.0
  3
*D11
  1

  0
LINE
  5
D6E
330
6C7
100
AcDbEntity
  8
SUNPO
 62
   144
100
AcDbLine
 10
2438.196826085623
 20
2202.382639168392
 30
0.0
 11
2134.349998287266
 21
2202.382639168392
 31
0.0
  0
LINE
  5
D6F
330
6C7
100
AcDbEntity
  8
SUNPO
 62
   144
100
AcDbLine
 10
2438.196826085623
 20
3952.382639168392
 30
0.0
 11
2134.349998287267
 21
3952.382639168392
 31
0.0
  0
LINE
  5
D70
330
6C7
100
AcDbEntity
  8
SUNPO
 62
   144
100
AcDbLine
 10
2144.349998287267
 20
2216.382639168392
 30
0.0
 11
2144.349998287267
 21
3938.382639168392
 31
0.0
  0
SOLID
  5
D71
330
6C7
100
AcDbEntity
  8
SUNPO
 62
   144
100
AcDbTrace
 10
2142.016664953933
 20
2216.382639168392
 30
0.0
 11
2146.6833316206
 21
2216.382639168392
 31
0.0
 12
2144.349998287267
 22
2202.382639168392
 32
0.0
 13
2144.349998287267
 23
2202.382639168392
 33
0.0
  0
SOLID
  5
D72
330
6C7
100
AcDbEntity
  8
SUNPO
 62
   144
100
AcDbTrace
 10
2142.016664953933
 20
3938.382639168392
 30
0.0
 11
2146.6833316206
 21
3938.382639168392
 31
0.0
 12
2144.349998287267
 22
3952.382639168392
 32
0.0
 13
2144.349998287267
 23
3952.382639168392
 33
0.0
  0
MTEXT
  5
D73
330
6C7
100
AcDbEntity
  8
SUNPO
 62
     7
100
AcDbMText
 10
2106.849998287266
 20
3077.382639168392
 30
0.0
 40
50.0
 41
0.0
 71
     5
 72
     1
  1
\A2;1750
  7
ADD
 11
0.0000000000000001
 21
1.0
 31
0.0
1001
ACAD
1000
MTEXTBEGIN
1070
    73
1070
     1
1070
    44
1040
1.0
1070
    74
1070
     0
1000
MTEXTEND
1000
MTEXTBEGIN
1070
    73
1070
     1
1070
    44
1040
1.0
1070
    74
1070
     0
1000
MTEXTEND
  0
POINT
  5
D74
330
6C7
100
AcDbEntity
  8
DEFPOINTS
 62
     0
100
AcDbPoint
 10
2458.196826085623
 20
2202.382639168392
 30
0.0
  0
POINT
  5
D75
330
6C7
100
AcDbEntity
  8
DEFPOINTS
 62
     0
100
AcDbPoint
 10
2458.196826085623
 20
3952.382639168392
 30
0.0
  0
POINT
  5
D76
330
6C7
100
AcDbEntity
  8
DEFPOINTS
 62
     0
100
AcDbPoint
 10
2144.349998287267
 20
3952.382639168392
 30
0.0
  0
ENDBLK
  5
6D2
330
6C7
100
AcDbEntity
  8
0
100
AcDbBlockEnd
  0
BLOCK
  5
6DE
330
6D4
100
AcDbEntity
  8
0
100
AcDbBlockBegin
  2
*D12
 70
     1
 10
0.0
 20
0.0
 30
0.0
  3
*D12
  1

  0
LINE
  5
D65
330
6D4
100
AcDbEntity
  8
SUNPO
 62
   144
100
AcDbLine
 10
2438.196826085623
 20
2202.382639168392
 30
0.0
 11
2290.132521545485
 21
2202.382639168392
 31
0.0
  0
LINE
  5
D66
330
6D4
100
AcDbEntity
  8
SUNPO
 62
   144
100
AcDbLine
 10
2438.196826085623
 20
2452.382639168392
 30
0.0
 11
2290.132521545485
 21
2452.382639168392
 31
0.0
  0
LINE
  5
D67
330
6D4
100
AcDbEntity
  8
SUNPO
 62
   144
100
AcDbLine
 10
2300.132521545485
 20
2216.382639168392
 30
0.0
 11
2300.132521545485
 21
2438.382639168392
 31
0.0
  0
SOLID
  5
D68
330
6D4
100
AcDbEntity
  8
SUNPO
 62
   144
100
AcDbTrace
 10
2297.799188212152
 20
2216.382639168392
 30
0.0
 11
2302.465854878819
 21
2216.382639168392
 31
0.0
 12
2300.132521545485
 22
2202.382639168392
 32
0.0
 13
2300.132521545485
 23
2202.382639168392
 33
0.0
  0
SOLID
  5
D69
330
6D4
100
AcDbEntity
  8
SUNPO
 62
   144
100
AcDbTrace
 10
2297.799188212152
 20
2438.382639168392
 30
0.0
 11
2302.465854878819
 21
2438.382639168392
 31
0.0
 12
2300.132521545485
 22
2452.382639168392
 32
0.0
 13
2300.132521545485
 23
2452.382639168392
 33
0.0
  0
MTEXT
  5
D6A
330
6D4
100
AcDbEntity
  8
SUNPO
 62
     7
100
AcDbMText
 10
2262.632521545484
 20
2327.382639168392
 30
0.0
 40
50.0
 41
0.0
 71
     5
 72
     1
  1
\A2;250
  7
ADD
 11
0.0000000000000001
 21
1.0
 31
0.0
1001
ACAD
1000
MTEXTBEGIN
1070
    73
1070
     1
1070
    44
1040
1.0
1070
    74
1070
     0
1000
MTEXTEND
1000
MTEXTBEGIN
1070
    73
1070
     1
1070
    44
1040
1.0
1070
    74
1070
     0
1000
MTEXTEND
  0
POINT
  5
D6B
330
6D4
100
AcDbEntity
  8
DEFPOINTS
 62
     0
100
AcDbPoint
 10
2458.196826085623
 20
2202.382639168392
 30
0.0
  0
POINT
  5
D6C
330
6D4
100
AcDbEntity
  8
DEFPOINTS
 62
     0
100
AcDbPoint
 10
2458.196826085623
 20
2452.382639168392
 30
0.0
  0
POINT
  5
D6D
330
6D4
100
AcDbEntity
  8
DEFPOINTS
 62
     0
100
AcDbPoint
 10
2300.132521545485
 20
2452.382639168392
 30
0.0
  0
ENDBLK
  5
6DF
330
6D4
100
AcDbEntity
  8
0
100
AcDbBlockEnd
  0
BLOCK
  5
6EB
330
6E1
100
AcDbEntity
  8
0
100
AcDbBlockBegin
  2
*D13
 70
     1
 10
0.0
 20
0.0
 30
0.0
  3
*D13
  1

  0
LINE
  5
D5C
330
6E1
100
AcDbEntity
  8
SUNPO
 62
   144
100
AcDbLine
 10
2438.196826085623
 20
2452.382639168392
 30
0.0
 11
2290.132521545485
 21
2452.382639168392
 31
0.0
  0
LINE
  5
D5D
330
6E1
100
AcDbEntity
  8
SUNPO
 62
   144
100
AcDbLine
 10
2438.196826085623
 20
3952.382639168392
 30
0.0
 11
2290.132521545485
 21
3952.382639168392
 31
0.0
  0
LINE
  5
D5E
330
6E1
100
AcDbEntity
  8
SUNPO
 62
   144
100
AcDbLine
 10
2300.132521545485
 20
2466.382639168392
 30
0.0
 11
2300.132521545485
 21
3938.382639168392
 31
0.0
  0
SOLID
  5
D5F
330
6E1
100
AcDbEntity
  8
SUNPO
 62
   144
100
AcDbTrace
 10
2297.799188212151
 20
2466.382639168392
 30
0.0
 11
2302.465854878818
 21
2466.382639168392
 31
0.0
 12
2300.132521545485
 22
2452.382639168392
 32
0.0
 13
2300.132521545485
 23
2452.382639168392
 33
0.0
  0
SOLID
  5
D60
330
6E1
100
AcDbEntity
  8
SUNPO
 62
   144
100
AcDbTrace
 10
2297.799188212152
 20
3938.382639168392
 30
0.0
 11
2302.465854878819
 21
3938.382639168392
 31
0.0
 12
2300.132521545485
 22
3952.382639168392
 32
0.0
 13
2300.132521545485
 23
3952.382639168392
 33
0.0
  0
MTEXT
  5
D61
330
6E1
100
AcDbEntity
  8
SUNPO
 62
     7
100
AcDbMText
 10
2262.632521545484
 20
3202.382639168392
 30
0.0
 40
50.0
 41
0.0
 71
     5
 72
     1
  1
\A2;1500
  7
ADD
 11
0.0000000000000001
 21
1.0
 31
0.0
1001
ACAD
1000
MTEXTBEGIN
1070
    73
1070
     1
1070
    44
1040
1.0
1070
    74
1070
     0
1000
MTEXTEND
1000
MTEXTBEGIN
1070
    73
1070
     1
1070
    44
1040
1.0
1070
    74
1070
     0
1000
MTEXTEND
  0
POINT
  5
D62
330
6E1
100
AcDbEntity
  8
DEFPOINTS
 62
     0
100
AcDbPoint
 10
2458.196826085623
 20
2452.382639168392
 30
0.0
  0
POINT
  5
D63
330
6E1
100
AcDbEntity
  8
DEFPOINTS
 62
     0
100
AcDbPoint
 10
2458.196826085623
 20
3952.382639168392
 30
0.0
  0
POINT
  5
D64
330
6E1
100
AcDbEntity
  8
DEFPOINTS
 62
     0
100
AcDbPoint
 10
2300.132521545485
 20
3952.382639168392
 30
0.0
  0
ENDBLK
  5
6EC
330
6E1
100
AcDbEntity
  8
0
100
AcDbBlockEnd
  0
BLOCK
  5
6F8
330
6EE
100
AcDbEntity
  8
0
100
AcDbBlockBegin
  2
*D14
 70
     1
 10
0.0
 20
0.0
 30
0.0
  3
*D14
  1

  0
LINE
  5
D53
330
6EE
100
AcDbEntity
  8
SUNPO
 62
   144
100
AcDbLine
 10
2458.196826085623
 20
2182.382639168392
 30
0.0
 11
2458.196826085623
 21
1494.586691329361
 31
0.0
  0
LINE
  5
D54
330
6EE
100
AcDbEntity
  8
SUNPO
 62
   144
100
AcDbLine
 10
6838.196826085622
 20
2182.382639168392
 30
0.0
 11
6838.196826085622
 21
1494.586691329361
 31
0.0
  0
LINE
  5
D55
330
6EE
100
AcDbEntity
  8
SUNPO
 62
   144
100
AcDbLine
 10
2472.196826085623
 20
1504.586691329361
 30
0.0
 11
6824.196826085622
 21
1504.586691329361
 31
0.0
  0
SOLID
  5
D56
330
6EE
100
AcDbEntity
  8
SUNPO
 62
   144
100
AcDbTrace
 10
2472.196826085623
 20
1506.920024662694
 30
0.0
 11
2472.196826085623
 21
1502.253357996027
 31
0.0
 12
2458.196826085623
 22
1504.586691329361
 32
0.0
 13
2458.196826085623
 23
1504.586691329361
 33
0.0
  0
SOLID
  5
D57
330
6EE
100
AcDbEntity
  8
SUNPO
 62
   144
100
AcDbTrace
 10
6824.196826085622
 20
1506.920024662694
 30
0.0
 11
6824.196826085622
 21
1502.253357996027
 31
0.0
 12
6838.196826085622
 22
1504.586691329361
 32
0.0
 13
6838.196826085622
 23
1504.586691329361
 33
0.0
  0
MTEXT
  5
D58
330
6EE
100
AcDbEntity
  8
SUNPO
 62
     7
100
AcDbMText
 10
4648.196826085622
 20
1542.086691329361
 30
0.0
 40
50.0
 41
0.0
 71
     5
 72
     1
  1
\A2;4380
  7
ADD
1001
ACAD
1000
MTEXTBEGIN
1070
    73
1070
     1
1070
    44
1040
1.0
1070
    74
1070
     0
1000
MTEXTEND
1000
MTEXTBEGIN
1070
    73
1070
     1
1070
    44
1040
1.0
1070
    74
1070
     0
1000
MTEXTEND
  0
POINT
  5
D59
330
6EE
100
AcDbEntity
  8
DEFPOINTS
 62
     0
100
AcDbPoint
 10
2458.196826085623
 20
2202.382639168392
 30
0.0
  0
POINT
  5
D5A
330
6EE
100
AcDbEntity
  8
DEFPOINTS
 62
     0
100
AcDbPoint
 10
6838.196826085622
 20
2202.382639168392
 30
0.0
  0
POINT
  5
D5B
330
6EE
100
AcDbEntity
  8
DEFPOINTS
 62
     0
100
AcDbPoint
 10
6838.196826085622
 20
1504.586691329361
 30
0.0
  0
ENDBLK
  5
6F9
330
6EE
100
AcDbEntity
  8
0
100
AcDbBlockEnd
  0
BLOCK
  5
705
330
6FB
100
AcDbEntity
  8
0
100
AcDbBlockBegin
  2
*D15
 70
     1
 10
0.0
 20
0.0
 30
0.0
  3
*D15
  1

  0
LINE
  5
D4A
330
6FB
100
AcDbEntity
  8
SUNPO
 62
   144
100
AcDbLine
 10
2458.196826085623
 20
2182.382639168392
 30
0.0
 11
2458.196826085623
 21
1787.13803298829
 31
0.0
  0
LINE
  5
D4B
330
6FB
100
AcDbEntity
  8
SUNPO
 62
   144
100
AcDbLine
 10
2708.196826085623
 20
2182.382639168392
 30
0.0
 11
2708.196826085623
 21
1787.13803298829
 31
0.0
  0
LINE
  5
D4C
330
6FB
100
AcDbEntity
  8
SUNPO
 62
   144
100
AcDbLine
 10
2472.196826085623
 20
1797.13803298829
 30
0.0
 11
2694.196826085622
 21
1797.13803298829
 31
0.0
  0
SOLID
  5
D4D
330
6FB
100
AcDbEntity
  8
SUNPO
 62
   144
100
AcDbTrace
 10
2472.196826085623
 20
1799.471366321624
 30
0.0
 11
2472.196826085623
 21
1794.804699654957
 31
0.0
 12
2458.196826085623
 22
1797.13803298829
 32
0.0
 13
2458.196826085623
 23
1797.13803298829
 33
0.0
  0
SOLID
  5
D4E
330
6FB
100
AcDbEntity
  8
SUNPO
 62
   144
100
AcDbTrace
 10
2694.196826085622
 20
1799.471366321624
 30
0.0
 11
2694.196826085622
 21
1794.804699654957
 31
0.0
 12
2708.196826085623
 22
1797.13803298829
 32
0.0
 13
2708.196826085623
 23
1797.13803298829
 33
0.0
  0
MTEXT
  5
D4F
330
6FB
100
AcDbEntity
  8
SUNPO
 62
     7
100
AcDbMText
 10
2583.196826085623
 20
1834.63803298829
 30
0.0
 40
50.0
 41
0.0
 71
     5
 72
     1
  1
\A2;250
  7
ADD
1001
ACAD
1000
MTEXTBEGIN
1070
    73
1070
     1
1070
    44
1040
1.0
1070
    74
1070
     0
1000
MTEXTEND
1000
MTEXTBEGIN
1070
    73
1070
     1
1070
    44
1040
1.0
1070
    74
1070
     0
1000
MTEXTEND
  0
POINT
  5
D50
330
6FB
100
AcDbEntity
  8
DEFPOINTS
 62
     0
100
AcDbPoint
 10
2458.196826085623
 20
2202.382639168392
 30
0.0
  0
POINT
  5
D51
330
6FB
100
AcDbEntity
  8
DEFPOINTS
 62
     0
100
AcDbPoint
 10
2708.196826085623
 20
2202.382639168392
 30
0.0
  0
POINT
  5
D52
330
6FB
100
AcDbEntity
  8
DEFPOINTS
 62
     0
100
AcDbPoint
 10
2708.196826085623
 20
1797.13803298829
 30
0.0
  0
ENDBLK
  5
706
330
6FB
100
AcDbEntity
  8
0
100
AcDbBlockEnd
  0
BLOCK
  5
712
330
708
100
AcDbEntity
  8
0
100
AcDbBlockBegin
  2
*D16
 70
     1
 10
0.0
 20
0.0
 30
0.0
  3
*D16
  1

  0
LINE
  5
D41
330
708
100
AcDbEntity
  8
SUNPO
 62
   144
100
AcDbLine
 10
2708.196826085623
 20
2182.382639168392
 30
0.0
 11
2708.196826085623
 21
1787.13803298829
 31
0.0
  0
LINE
  5
D42
330
708
100
AcDbEntity
  8
SUNPO
 62
   144
100
AcDbLine
 10
6588.196826085622
 20
2182.382639168392
 30
0.0
 11
6588.196826085622
 21
1787.13803298829
 31
0.0
  0
LINE
  5
D43
330
708
100
AcDbEntity
  8
SUNPO
 62
   144
100
AcDbLine
 10
2722.196826085623
 20
1797.13803298829
 30
0.0
 11
6574.196826085622
 21
1797.13803298829
 31
0.0
  0
SOLID
  5
D44
330
708
100
AcDbEntity
  8
SUNPO
 62
   144
100
AcDbTrace
 10
2722.196826085623
 20
1799.471366321624
 30
0.0
 11
2722.196826085623
 21
1794.804699654957
 31
0.0
 12
2708.196826085623
 22
1797.13803298829
 32
0.0
 13
2708.196826085623
 23
1797.13803298829
 33
0.0
  0
SOLID
  5
D45
330
708
100
AcDbEntity
  8
SUNPO
 62
   144
100
AcDbTrace
 10
6574.196826085622
 20
1799.471366321624
 30
0.0
 11
6574.196826085622
 21
1794.804699654957
 31
0.0
 12
6588.196826085622
 22
1797.13803298829
 32
0.0
 13
6588.196826085622
 23
1797.13803298829
 33
0.0
  0
MTEXT
  5
D46
330
708
100
AcDbEntity
  8
SUNPO
 62
     7
100
AcDbMText
 10
4648.196826085622
 20
1834.63803298829
 30
0.0
 40
50.0
 41
0.0
 71
     5
 72
     1
  1
\A2;3880
  7
ADD
1001
ACAD
1000
MTEXTBEGIN
1070
    73
1070
     1
1070
    44
1040
1.0
1070
    74
1070
     0
1000
MTEXTEND
1000
MTEXTBEGIN
1070
    73
1070
     1
1070
    44
1040
1.0
1070
    74
1070
     0
1000
MTEXTEND
  0
POINT
  5
D47
330
708
100
AcDbEntity
  8
DEFPOINTS
 62
     0
100
AcDbPoint
 10
2708.196826085623
 20
2202.382639168392
 30
0.0
  0
POINT
  5
D48
330
708
100
AcDbEntity
  8
DEFPOINTS
 62
     0
100
AcDbPoint
 10
6588.196826085622
 20
2202.382639168392
 30
0.0
  0
POINT
  5
D49
330
708
100
AcDbEntity
  8
DEFPOINTS
 62
     0
100
AcDbPoint
 10
6588.196826085622
 20
1797.13803298829
 30
0.0
  0
ENDBLK
  5
713
330
708
100
AcDbEntity
  8
0
100
AcDbBlockEnd
  0
BLOCK
  5
71F
330
715
100
AcDbEntity
  8
0
100
AcDbBlockBegin
  2
*D17
 70
     1
 10
0.0
 20
0.0
 30
0.0
  3
*D17
  1

  0
LINE
  5
D38
330
715
100
AcDbEntity
  8
SUNPO
 62
   144
100
AcDbLine
 10
6588.196826085622
 20
2182.382639168392
 30
0.0
 11
6588.196826085622
 21
1787.13803298829
 31
0.0
  0
LINE
  5
D39
330
715
100
AcDbEntity
  8
SUNPO
 62
   144
100
AcDbLine
 10
6838.196826085622
 20
2182.382639168392
 30
0.0
 11
6838.196826085622
 21
1787.13803298829
 31
0.0
  0
LINE
  5
D3A
330
715
100
AcDbEntity
  8
SUNPO
 62
   144
100
AcDbLine
 10
6602.196826085623
 20
1797.13803298829
 30
0.0
 11
6824.196826085622
 21
1797.13803298829
 31
0.0
  0
SOLID
  5
D3B
330
715
100
AcDbEntity
  8
SUNPO
 62
   144
100
AcDbTrace
 10
6602.196826085623
 20
1799.471366321624
 30
0.0
 11
6602.196826085623
 21
1794.804699654957
 31
0.0
 12
6588.196826085622
 22
1797.13803298829
 32
0.0
 13
6588.196826085622
 23
1797.13803298829
 33
0.0
  0
SOLID
  5
D3C
330
715
100
AcDbEntity
  8
SUNPO
 62
   144
100
AcDbTrace
 10
6824.196826085622
 20
1799.471366321624
 30
0.0
 11
6824.196826085622
 21
1794.804699654957
 31
0.0
 12
6838.196826085622
 22
1797.13803298829
 32
0.0
 13
6838.196826085622
 23
1797.13803298829
 33
0.0
  0
MTEXT
  5
D3D
330
715
100
AcDbEntity
  8
SUNPO
 62
     7
100
AcDbMText
 10
6713.196826085622
 20
1834.63803298829
 30
0.0
 40
50.0
 41
0.0
 71
     5
 72
     1
  1
\A2;250
  7
ADD
1001
ACAD
1000
MTEXTBEGIN
1070
    73
1070
     1
1070
    44
1040
1.0
1070
    74
1070
     0
1000
MTEXTEND
1000
MTEXTBEGIN
1070
    73
1070
     1
1070
    44
1040
1.0
1070
    74
1070
     0
1000
MTEXTEND
  0
POINT
  5
D3E
330
715
100
AcDbEntity
  8
DEFPOINTS
 62
     0
100
AcDbPoint
 10
6588.196826085622
 20
2202.382639168392
 30
0.0
  0
POINT
  5
D3F
330
715
100
AcDbEntity
  8
DEFPOINTS
 62
     0
100
AcDbPoint
 10
6838.196826085622
 20
2202.382639168392
 30
0.0
  0
POINT
  5
D40
330
715
100
AcDbEntity
  8
DEFPOINTS
 62
     0
100
AcDbPoint
 10
6838.196826085622
 20
1797.13803298829
 30
0.0
  0
ENDBLK
  5
720
330
715
100
AcDbEntity
  8
0
100
AcDbBlockEnd
  0
BLOCK
  5
72C
330
722
100
AcDbEntity
  8
0
100
AcDbBlockBegin
  2
*D18
 70
     1
 10
0.0
 20
0.0
 30
0.0
  3
*D18
  1

  0
LINE
  5
D2F
330
722
100
AcDbEntity
  8
SUNPO
 62
   144
100
AcDbLine
 10
2648.196826085623
 20
3972.382639168392
 30
0.0
 11
2648.196826085623
 21
4311.475298592774
 31
0.0
  0
LINE
  5
D30
330
722
100
AcDbEntity
  8
SUNPO
 62
   144
100
AcDbLine
 10
2588.148845270278
 20
3972.382639168392
 30
0.0
 11
2588.148845270278
 21
4311.475298592774
 31
0.0
  0
LINE
  5
D31
330
722
100
AcDbEntity
  8
SUNPO
 62
   144
100
AcDbLine
 10
2634.196826085623
 20
4301.475298592773
 30
0.0
 11
2602.148845270278
 21
4301.475298592773
 31
0.0
  0
MTEXT
  5
D32
330
722
100
AcDbEntity
  8
SUNPO
 62
     7
100
AcDbMText
 10
2618.172835677951
 20
4355.225298592773
 30
0.0
 40
50.0
 41
0.0
 71
     5
 72
     1
  1
\A2;60
  7
ADD
1001
ACAD
1000
MTEXTBEGIN
1070
    73
1070
     1
1070
    44
1040
1.0
1070
    74
1070
     0
1000
MTEXTEND
1000
MTEXTBEGIN
1070
    73
1070
     1
1070
    44
1040
1.0
1070
    74
1070
     0
1000
MTEXTEND
  0
SOLID
  5
D33
330
722
100
AcDbEntity
  8
SUNPO
 62
   144
100
AcDbTrace
 10
2634.196826085623
 20
4303.808631926107
 30
0.0
 11
2634.196826085623
 21
4299.14196525944
 31
0.0
 12
2648.196826085623
 22
4301.475298592773
 32
0.0
 13
2648.196826085623
 23
4301.475298592773
 33
0.0
  0
SOLID
  5
D34
330
722
100
AcDbEntity
  8
SUNPO
 62
   144
100
AcDbTrace
 10
2602.148845270278
 20
4303.808631926107
 30
0.0
 11
2602.148845270278
 21
4299.14196525944
 31
0.0
 12
2588.148845270278
 22
4301.475298592773
 32
0.0
 13
2588.148845270278
 23
4301.475298592773
 33
0.0
  0
POINT
  5
D35
330
722
100
AcDbEntity
  8
DEFPOINTS
 62
     0
100
AcDbPoint
 10
2648.196826085623
 20
3952.382639168392
 30
0.0
  0
POINT
  5
D36
330
722
100
AcDbEntity
  8
DEFPOINTS
 62
     0
100
AcDbPoint
 10
2588.148845270278
 20
3952.382639168392
 30
0.0
  0
POINT
  5
D37
330
722
100
AcDbEntity
  8
DEFPOINTS
 62
     0
100
AcDbPoint
 10
2588.148845270278
 20
4301.475298592773
 30
0.0
  0
ENDBLK
  5
72D
330
722
100
AcDbEntity
  8
0
100
AcDbBlockEnd
  0
BLOCK
  5
739
330
72F
100
AcDbEntity
  8
0
100
AcDbBlockBegin
  2
*D19
 70
     1
 10
0.0
 20
0.0
 30
0.0
  3
*D19
  1

  0
LINE
  5
D26
330
72F
100
AcDbEntity
  8
SUNPO
 62
   144
100
AcDbLine
 10
6648.196826085623
 20
3972.382639168392
 30
0.0
 11
6648.196826085623
 21
4311.475298592774
 31
0.0
  0
LINE
  5
D27
330
72F
100
AcDbEntity
  8
SUNPO
 62
   144
100
AcDbLine
 10
6708.244806900967
 20
3972.382639168392
 30
0.0
 11
6708.244806900967
 21
4311.475298592774
 31
0.0
  0
LINE
  5
D28
330
72F
100
AcDbEntity
  8
SUNPO
 62
   144
100
AcDbLine
 10
6662.196826085623
 20
4301.475298592773
 30
0.0
 11
6694.244806900967
 21
4301.475298592773
 31
0.0
  0
MTEXT
  5
D29
330
72F
100
AcDbEntity
  8
SUNPO
 62
     7
100
AcDbMText
 10
6678.220816493293
 20
4355.225298592773
 30
0.0
 40
50.0
 41
0.0
 71
     5
 72
     1
  1
\A2;60
  7
ADD
1001
ACAD
1000
MTEXTBEGIN
1070
    73
1070
     1
1070
    44
1040
1.0
1070
    74
1070
     0
1000
MTEXTEND
1000
MTEXTBEGIN
1070
    73
1070
     1
1070
    44
1040
1.0
1070
    74
1070
     0
1000
MTEXTEND
  0
SOLID
  5
D2A
330
72F
100
AcDbEntity
  8
SUNPO
 62
   144
100
AcDbTrace
 10
6662.196826085623
 20
4303.808631926107
 30
0.0
 11
6662.196826085623
 21
4299.14196525944
 31
0.0
 12
6648.196826085623
 22
4301.475298592773
 32
0.0
 13
6648.196826085623
 23
4301.475298592773
 33
0.0
  0
SOLID
  5
D2B
330
72F
100
AcDbEntity
  8
SUNPO
 62
   144
100
AcDbTrace
 10
6694.244806900967
 20
4303.808631926107
 30
0.0
 11
6694.244806900967
 21
4299.14196525944
 31
0.0
 12
6708.244806900967
 22
4301.475298592773
 32
0.0
 13
6708.244806900967
 23
4301.475298592773
 33
0.0
  0
POINT
  5
D2C
330
72F
100
AcDbEntity
  8
DEFPOINTS
 62
     0
100
AcDbPoint
 10
6648.196826085623
 20
3952.382639168392
 30
0.0
  0
POINT
  5
D2D
330
72F
100
AcDbEntity
  8
DEFPOINTS
 62
     0
100
AcDbPoint
 10
6708.244806900967
 20
3952.382639168392
 30
0.0
  0
POINT
  5
D2E
330
72F
100
AcDbEntity
  8
DEFPOINTS
 62
     0
100
AcDbPoint
 10
6708.244806900967
 20
4301.475298592773
 30
0.0
  0
ENDBLK
  5
73A
330
72F
100
AcDbEntity
  8
0
100
AcDbBlockEnd
  0
BLOCK
  5
7EB
330
7DF
100
AcDbEntity
  8
0
100
AcDbBlockBegin
  2
*D20
 70
     1
 10
0.0
 20
0.0
 30
0.0
  3
*D20
  1

  0
LINE
  5
D1B
330
7DF
100
AcDbEntity
  8
SUNPO
 62
   144
100
AcDbLine
 10
2707.397465318645
 20
2472.382639168392
 30
0.0
 11
2707.397465318645
 21
2678.507650069778
 31
0.0
  0
LINE
  5
D1C
330
7DF
100
AcDbEntity
  8
SUNPO
 62
   144
100
AcDbLine
 10
2728.196826085623
 20
2472.382639168392
 30
0.0
 11
2728.196826085623
 21
2678.507650069778
 31
0.0
  0
LINE
  5
D1D
330
7DF
100
AcDbEntity
  8
SUNPO
 62
   144
100
AcDbLine
 10
2693.397465318645
 20
2668.507650069777
 30
0.0
 11
2679.397465318645
 21
2668.507650069777
 31
0.0
  0
LINE
  5
D1E
330
7DF
100
AcDbEntity
  8
SUNPO
 62
   144
100
AcDbLine
 10
2742.196826085622
 20
2668.507650069777
 30
0.0
 11
2756.196826085623
 21
2668.507650069777
 31
0.0
  0
MTEXT
  5
D1F
330
7DF
100
AcDbEntity
  8
SUNPO
 62
     7
100
AcDbMText
 10
2717.797145702133
 20
2722.257650069778
 30
0.0
 40
50.0
 41
0.0
 71
     5
 72
     1
  1
\A2;20
  7
ADD
1001
ACAD
1000
MTEXTBEGIN
1070
    73
1070
     1
1070
    44
1040
1.0
1070
    74
1070
     0
1000
MTEXTEND
1000
MTEXTBEGIN
1070
    73
1070
     1
1070
    44
1040
1.0
1070
    74
1070
     0
1000
MTEXTEND
  0
LINE
  5
D20
330
7DF
100
AcDbEntity
  8
SUNPO
 62
   144
100
AcDbLine
 10
2707.397465318645
 20
2668.507650069777
 30
0.0
 11
2728.196826085623
 21
2668.507650069777
 31
0.0
  0
SOLID
  5
D21
330
7DF
100
AcDbEntity
  8
SUNPO
 62
   144
100
AcDbTrace
 10
2693.397465318645
 20
2670.840983403111
 30
0.0
 11
2693.397465318645
 21
2666.174316736444
 31
0.0
 12
2707.397465318645
 22
2668.507650069777
 32
0.0
 13
2707.397465318645
 23
2668.507650069777
 33
0.0
  0
SOLID
  5
D22
330
7DF
100
AcDbEntity
  8
SUNPO
 62
   144
100
AcDbTrace
 10
2742.196826085622
 20
2670.840983403111
 30
0.0
 11
2742.196826085622
 21
2666.174316736444
 31
0.0
 12
2728.196826085623
 22
2668.507650069777
 32
0.0
 13
2728.196826085623
 23
2668.507650069777
 33
0.0
  0
POINT
  5
D23
330
7DF
100
AcDbEntity
  8
DEFPOINTS
 62
     0
100
AcDbPoint
 10
2707.397465318645
 20
2452.382639168392
 30
0.0
  0
POINT
  5
D24
330
7DF
100
AcDbEntity
  8
DEFPOINTS
 62
     0
100
AcDbPoint
 10
2728.196826085623
 20
2452.382639168392
 30
0.0
  0
POINT
  5
D25
330
7DF
100
AcDbEntity
  8
DEFPOINTS
 62
     0
100
AcDbPoint
 10
2728.196826085623
 20
2668.507650069777
 30
0.0
  0
ENDBLK
  5
7EC
330
7DF
100
AcDbEntity
  8
0
100
AcDbBlockEnd
  0
BLOCK
  5
7FA
330
7EE
100
AcDbEntity
  8
0
100
AcDbBlockBegin
  2
*D21
 70
     1
 10
0.0
 20
0.0
 30
0.0
  3
*D21
  1

  0
LINE
  5
D10
330
7EE
100
AcDbEntity
  8
SUNPO
 62
   144
100
AcDbLine
 10
2727.397465318645
 20
2452.382639168392
 30
0.0
 11
2954.308137620846
 21
2452.382639168392
 31
0.0
  0
LINE
  5
D11
330
7EE
100
AcDbEntity
  8
SUNPO
 62
   144
100
AcDbLine
 10
2727.397465318645
 20
2472.366658342827
 30
0.0
 11
2954.308137620846
 21
2472.366658342827
 31
0.0
  0
LINE
  5
D12
330
7EE
100
AcDbEntity
  8
SUNPO
 62
   144
100
AcDbLine
 10
2944.308137620846
 20
2438.382639168392
 30
0.0
 11
2944.308137620846
 21
2424.382639168392
 31
0.0
  0
LINE
  5
D13
330
7EE
100
AcDbEntity
  8
SUNPO
 62
   144
100
AcDbLine
 10
2944.308137620846
 20
2486.366658342827
 30
0.0
 11
2944.308137620846
 21
2500.366658342827
 31
0.0
  0
MTEXT
  5
D14
330
7EE
100
AcDbEntity
  8
SUNPO
 62
     7
100
AcDbMText
 10
3048.058137620846
 20
2462.37464875561
 30
0.0
 40
50.0
 41
0.0
 71
     5
 72
     1
  1
\A2;20
  7
ADD
 11
0.0000000000000001
 21
1.0
 31
0.0
1001
ACAD
1000
MTEXTBEGIN
1070
    73
1070
     1
1070
    44
1040
1.0
1070
    74
1070
     0
1000
MTEXTEND
1000
MTEXTBEGIN
1070
    73
1070
     1
1070
    44
1040
1.0
1070
    74
1070
     0
1000
MTEXTEND
  0
LINE
  5
D15
330
7EE
100
AcDbEntity
  8
SUNPO
 62
   144
100
AcDbLine
 10
2944.308137620846
 20
2452.382639168392
 30
0.0
 11
2944.308137620846
 21
2472.366658342827
 31
0.0
  0
SOLID
  5
D16
330
7EE
100
AcDbEntity
  8
SUNPO
 62
   144
100
AcDbTrace
 10
2941.974804287513
 20
2438.382639168392
 30
0.0
 11
2946.64147095418
 21
2438.382639168392
 31
0.0
 12
2944.308137620846
 22
2452.382639168392
 32
0.0
 13
2944.308137620846
 23
2452.382639168392
 33
0.0
  0
SOLID
  5
D17
330
7EE
100
AcDbEntity
  8
SUNPO
 62
   144
100
AcDbTrace
 10
2941.974804287513
 20
2486.366658342827
 30
0.0
 11
2946.64147095418
 21
2486.366658342827
 31
0.0
 12
2944.308137620846
 22
2472.366658342827
 32
0.0
 13
2944.308137620846
 23
2472.366658342827
 33
0.0
  0
POINT
  5
D18
330
7EE
100
AcDbEntity
  8
DEFPOINTS
 62
     0
100
AcDbPoint
 10
2707.397465318645
 20
2452.382639168392
 30
0.0
  0
POINT
  5
D19
330
7EE
100
AcDbEntity
  8
DEFPOINTS
 62
     0
100
AcDbPoint
 10
2707.397465318645
 20
2472.366658342827
 30
0.0
  0
POINT
  5
D1A
330
7EE
100
AcDbEntity
  8
DEFPOINTS
 62
     0
100
AcDbPoint
 10
2944.308137620846
 20
2472.366658342827
 30
0.0
  0
ENDBLK
  5
7FB
330
7EE
100
AcDbEntity
  8
0
100
AcDbBlockEnd
  0
BLOCK
  5
DCD
330
DC3
100
AcDbEntity
  8
0
100
AcDbBlockBegin
  2
*D22
 70
     1
 10
0.0
 20
0.0
 30
0.0
  3
*D22
  1

  0
LINE
  5
DC4
330
DC3
100
AcDbEntity
  8
SUNPO
 62
   144
100
AcDbLine
 10
1678.196826085622
 20
2182.382639168392
 30
0.0
 11
1678.196826085622
 21
1484.586691329361
 31
0.0
  0
LINE
  5
DC5
330
DC3
100
AcDbEntity
  8
SUNPO
 62
   144
100
AcDbLine
 10
1858.196826085622
 20
2182.382639168392
 30
0.0
 11
1858.196826085622
 21
1484.586691329361
 31
0.0
  0
LINE
  5
DC6
330
DC3
100
AcDbEntity
  8
SUNPO
 62
   144
100
AcDbLine
 10
1692.196826085623
 20
1494.586691329361
 30
0.0
 11
1844.196826085623
 21
1494.586691329361
 31
0.0
  0
SOLID
  5
DC7
330
DC3
100
AcDbEntity
  8
SUNPO
 62
   144
100
AcDbTrace
 10
1692.196826085623
 20
1496.920024662694
 30
0.0
 11
1692.196826085623
 21
1492.253357996028
 31
0.0
 12
1678.196826085622
 22
1494.586691329361
 32
0.0
 13
1678.196826085622
 23
1494.586691329361
 33
0.0
  0
SOLID
  5
DC8
330
DC3
100
AcDbEntity
  8
SUNPO
 62
   144
100
AcDbTrace
 10
1844.196826085623
 20
1496.920024662694
 30
0.0
 11
1844.196826085623
 21
1492.253357996028
 31
0.0
 12
1858.196826085622
 22
1494.586691329361
 32
0.0
 13
1858.196826085622
 23
1494.586691329361
 33
0.0
  0
MTEXT
  5
DC9
330
DC3
100
AcDbEntity
  8
SUNPO
 62
     7
100
AcDbMText
 10
1768.196826085623
 20
1532.086691329361
 30
0.0
 40
50.0
 41
0.0
 71
     5
 72
     1
  1
\A2;180
  7
ADD
1001
ACAD
1000
MTEXTBEGIN
1070
    73
1070
     1
1070
    44
1040
1.0
1070
    74
1070
     0
1000
MTEXTEND
1000
MTEXTBEGIN
1070
    73
1070
     1
1070
    44
1040
1.0
1070
    74
1070
     0
1000
MTEXTEND
  0
POINT
  5
DCA
330
DC3
100
AcDbEntity
  8
DEFPOINTS
 62
     0
100
AcDbPoint
 10
1678.196826085622
 20
2202.382639168392
 30
0.0
  0
POINT
  5
DCB
330
DC3
100
AcDbEntity
  8
DEFPOINTS
 62
     0
100
AcDbPoint
 10
1858.196826085622
 20
2202.382639168392
 30
0.0
  0
POINT
  5
DCC
330
DC3
100
AcDbEntity
  8
DEFPOINTS
 62
     0
100
AcDbPoint
 10
1858.196826085622
 20
1494.586691329361
 30
0.0
  0
ENDBLK
  5
DCE
330
DC3
100
AcDbEntity
  8
0
100
AcDbBlockEnd
  0
ENDSEC
  0
SECTION
  2
ENTITIES
  0
LINE
  5
5EE
330
1F
100
AcDbEntity
  8
HOJO
100
AcDbLine
 10
2820.0
 20
260.0
 30
0.0
 11
8040.0
 21
260.0
 31
0.0
  0
LINE
  5
5EF
330
1F
100
AcDbEntity
  8
HOJO
100
AcDbLine
 10
2820.0
 20
560.0
 30
0.0
 11
8040.0
 21
560.0
 31
0.0
  0
LINE
  5
5F0
330
1F
100
AcDbEntity
  8
HOJO
100
AcDbLine
 10
2820.0
 20
260.0
 30
0.0
 11
2820.0
 21
560.0
 31
0.0
  0
LINE
  5
5F1
330
1F
100
AcDbEntity
  8
HOJO
100
AcDbLine
 10
4820.0
 20
260.0
 30
0.0
 11
4820.0
 21
560.0
 31
0.0
  0
LINE
  5
5F2
330
1F
100
AcDbEntity
  8
HOJO
100
AcDbLine
 10
5620.0
 20
260.0
 30
0.0
 11
5620.0
 21
560.0
 31
0.0
  0
LINE
  5
5F3
330
1F
100
AcDbEntity
  8
HOJO
100
AcDbLine
 10
6120.0
 20
260.0
 30
0.0
 11
6120.0
 21
560.0
 31
0.0
  0
LINE
  5
60B
330
1F
100
AcDbEntity
  8
3C1
100
AcDbLine
 10
2458.196826085623
 20
3952.382639168392
 30
0.0
 11
2458.196826085623
 21
2202.382639168392
 31
0.0
  0
LINE
  5
60C
330
1F
100
AcDbEntity
  8
3C1
100
AcDbLine
 10
2458.196826085623
 20
2202.382639168392
 30
0.0
 11
6838.196826085622
 21
2202.382639168392
 31
0.0
  0
LINE
  5
60D
330
1F
100
AcDbEntity
  8
3C1
100
AcDbLine
 10
6838.196826085622
 20
2202.382639168392
 30
0.0
 11
6838.196826085622
 21
3952.382639168392
 31
0.0
  0
LINE
  5
60E
330
1F
100
AcDbEntity
  8
3C1
100
AcDbLine
 10
2458.196826085623
 20
3952.382639168392
 30
0.0
 11
2648.196826085623
 21
3952.382639168392
 31
0.0
  0
LINE
  5
60F
330
1F
100
AcDbEntity
  8
3C1
100
AcDbLine
 10
6838.196826085622
 20
3952.382639168392
 30
0.0
 11
6648.196826085623
 21
3952.382639168392
 31
0.0
  0
LINE
  5
613
330
1F
100
AcDbEntity
  8
3C1
100
AcDbLine
 10
2728.196826085623
 20
2452.382639168392
 30
0.0
 11
6568.196826085624
 21
2452.382639168392
 31
0.0
  0
LINE
  5
614
330
1F
100
AcDbEntity
  8
3C1
100
AcDbLine
 10
2648.196826085623
 20
3952.382639168392
 30
0.0
 11
2707.397465318645
 21
2472.366658342827
 31
0.0
  0
LINE
  5
615
330
1F
100
AcDbEntity
  8
3C1
100
AcDbLine
 10
6648.196826085623
 20
3952.382639168392
 30
0.0
 11
6588.996186852601
 21
2472.366658342828
 31
0.0
  0
LINE
  5
616
330
1F
100
AcDbEntity
  8
3C1
100
AcDbLine
 10
2588.148845270278
 20
3952.382639168392
 30
0.0
 11
2648.148845270278
 21
2452.382639168392
 31
0.0
  0
LINE
  5
617
330
1F
100
AcDbEntity
  8
3C1
100
AcDbLine
 10
6708.244806900967
 20
3952.382639168393
 30
0.0
 11
6648.244806900968
 21
2452.382639168392
 31
0.0
  0
LINE
  5
618
330
1F
100
AcDbEntity
  8
3C1
100
AcDbLine
 10
2568.100864454935
 20
2952.382639168392
 30
0.0
 11
2588.100864454933
 21
2452.382639168392
 31
0.0
  0
LINE
  5
619
330
1F
100
AcDbEntity
  8
3C1
100
AcDbLine
 10
6728.292787716312
 20
2952.382639168392
 30
0.0
 11
6708.292787716314
 21
2452.382639168392
 31
0.0
  0
LINE
  5
61A
330
1F
100
AcDbEntity
  8
3C1
100
AcDbLine
 10
2458.196826085623
 20
2952.382639168392
 30
0.0
 11
2568.100864454935
 21
2952.382639168392
 31
0.0
  0
LINE
  5
61B
330
1F
100
AcDbEntity
  8
3C1
100
AcDbLine
 10
6728.292787716312
 20
2952.382639168392
 30
0.0
 11
6838.196826085622
 21
2952.382639168392
 31
0.0
  0
LINE
  5
61C
330
1F
100
AcDbEntity
  8
3C1
100
AcDbLine
 10
2707.397465318645
 20
2472.366658342827
 30
0.0
 11
2728.196826085623
 21
2452.382639168392
 31
0.0
  0
LINE
  5
61D
330
1F
100
AcDbEntity
  8
3C1
100
AcDbLine
 10
6568.196826085624
 20
2452.382639168392
 30
0.0
 11
6588.996186852601
 21
2472.366658342828
 31
0.0
  0
LINE
  5
61E
330
1F
100
AcDbEntity
  8
3C1
100
AcDbLine
 10
2648.148845270278
 20
2452.382639168392
 30
0.0
 11
2588.100864454933
 21
2452.382639168392
 31
0.0
  0
LINE
  5
61F
330
1F
100
AcDbEntity
  8
3C1
100
AcDbLine
 10
6648.244806900966
 20
2452.382639168392
 30
0.0
 11
6708.292787716314
 21
2452.382639168392
 31
0.0
  0
LINE
  5
620
330
1F
100
AcDbEntity
  8
3C1
100
AcDbLine
 10
1858.196826085622
 20
3952.382639168392
 30
0.0
 11
1858.196826085622
 21
2202.382639168392
 31
0.0
  0
LINE
  5
621
330
1F
100
AcDbEntity
  8
3C1
100
AcDbLine
 10
1858.196826085622
 20
2202.382639168392
 30
0.0
 11
1678.196826085622
 21
2202.382639168392
 31
0.0
  0
LINE
  5
622
330
1F
100
AcDbEntity
  8
3C1
100
AcDbLine
 10
1678.196826085622
 20
2202.382639168392
 30
0.0
 11
1678.196826085622
 21
3952.382639168392
 31
0.0
  0
LINE
  5
623
330
1F
100
AcDbEntity
  8
3C1
100
AcDbLine
 10
1678.196826085622
 20
3952.382639168392
 30
0.0
 11
1858.196826085622
 21
3952.382639168392
 31
0.0
  0
LINE
  5
628
330
1F
100
AcDbEntity
  8
3C1
100
AcDbLine
 10
1858.196826085622
 20
2952.382639168392
 30
0.0
 11
1678.196826085622
 21
2952.382639168392
 31
0.0
  0
LINE
  5
67D
330
1F
100
AcDbEntity
  8
3C1
100
AcDbLine
 10
1728.196826085622
 20
2952.382639168392
 30
0.0
 11
1728.196826085622
 21
3952.382639168392
 31
0.0
  0
LINE
  5
67E
330
1F
100
AcDbEntity
  8
3C1
100
AcDbLine
 10
1808.196826085622
 20
3952.382639168392
 30
0.0
 11
1808.196826085622
 21
2952.382639168392
 31
0.0
  0
LINE
  5
67F
330
1F
100
AcDbEntity
  8
3C1
100
AcDbLine
 10
1733.196826085622
 20
2952.382639168392
 30
0.0
 11
1733.196826085622
 21
3952.382639168392
 31
0.0
  0
LINE
  5
680
330
1F
100
AcDbEntity
  8
3C1
100
AcDbLine
 10
1803.196826085622
 20
3952.382639168392
 30
0.0
 11
1803.196826085622
 21
2952.382639168392
 31
0.0
  0
LINE
  5
681
330
1F
100
AcDbEntity
  8
4H2
100
AcDbLine
 10
1728.299665405353
 20
2944.662085645508
 30
0.0
 11
1728.299665405353
 21
2444.662085645508
 31
0.0
  0
LINE
  5
682
330
1F
100
AcDbEntity
  8
4H2
100
AcDbLine
 10
1728.299665405353
 20
2444.662085645508
 30
0.0
 11
1678.196826085622
 21
2444.662085645508
 31
0.0
  0
LINE
  5
683
330
1F
100
AcDbEntity
  8
4H2
100
AcDbLine
 10
1808.196826085622
 20
2952.382639168392
 30
0.0
 11
1808.196826085622
 21
2452.382639168392
 31
0.0
  0
LINE
  5
684
330
1F
100
AcDbEntity
  8
4H2
100
AcDbLine
 10
1808.196826085622
 20
2452.382639168392
 30
0.0
 11
1858.196826085622
 21
2452.382639168392
 31
0.0
  0
LINE
  5
E67
330
1F
100
AcDbEntity
  8
SUNPO
 62
   144
100
AcDbLine
 10
1678.196826085622
 20
2182.382639168392
 30
0.0
 11
1678.196826085622
 21
1484.586691329361
 31
0.0
  0
LINE
  5
E68
330
1F
100
AcDbEntity
  8
SUNPO
 62
   144
100
AcDbLine
 10
1858.196826085622
 20
2182.382639168392
 30
0.0
 11
1858.196826085622
 21
1484.586691329361
 31
0.0
  0
LINE
  5
E69
330
1F
100
AcDbEntity
  8
SUNPO
 62
   144
100
AcDbLine
 10
1692.196826085623
 20
1494.586691329361
 30
0.0
 11
1844.196826085623
 21
1494.586691329361
 31
0.0
  0
SOLID
  5
E6A
330
1F
100
AcDbEntity
  8
SUNPO
 62
   144
100
AcDbTrace
 10
1692.196826085623
 20
1496.920024662694
 30
0.0
 11
1692.196826085623
 21
1492.253357996028
 31
0.0
 12
1678.196826085622
 22
1494.586691329361
 32
0.0
 13
1678.196826085622
 23
1494.586691329361
 33
0.0
  0
SOLID
  5
E6B
330
1F
100
AcDbEntity
  8
SUNPO
 62
   144
100
AcDbTrace
 10
1844.196826085623
 20
1496.920024662694
 30
0.0
 11
1844.196826085623
 21
1492.253357996028
 31
0.0
 12
1858.196826085622
 22
1494.586691329361
 32
0.0
 13
1858.196826085622
 23
1494.586691329361
 33
0.0
  0
LINE
  5
E6D
330
1F
100
AcDbEntity
  8
SUNPO
 62
   144
100
AcDbLine
 10
2727.397465318645
 20
2452.382639168392
 30
0.0
 11
2954.308137620846
 21
2452.382639168392
 31
0.0
  0
LINE
  5
E6E
330
1F
100
AcDbEntity
  8
SUNPO
 62
   144
100
AcDbLine
 10
2727.397465318645
 20
2472.366658342827
 30
0.0
 11
2954.308137620846
 21
2472.366658342827
 31
0.0
  0
LINE
  5
E6F
330
1F
100
AcDbEntity
  8
SUNPO
 62
   144
100
AcDbLine
 10
2944.308137620846
 20
2438.382639168392
 30
0.0
 11
2944.308137620846
 21
2424.382639168392
 31
0.0
  0
LINE
  5
E70
330
1F
100
AcDbEntity
  8
SUNPO
 62
   144
100
AcDbLine
 10
2944.308137620846
 20
2486.366658342827
 30
0.0
 11
2944.308137620846
 21
2500.366658342827
 31
0.0
  0
LINE
  5
E72
330
1F
100
AcDbEntity
  8
SUNPO
 62
   144
100
AcDbLine
 10
2944.308137620846
 20
2452.382639168392
 30
0.0
 11
2944.308137620846
 21
2472.366658342827
 31
0.0
  0
SOLID
  5
E73
330
1F
100
AcDbEntity
  8
SUNPO
 62
   144
100
AcDbTrace
 10
2941.974804287513
 20
2438.382639168392
 30
0.0
 11
2946.64147095418
 21
2438.382639168392
 31
0.0
 12
2944.308137620846
 22
2452.382639168392
 32
0.0
 13
2944.308137620846
 23
2452.382639168392
 33
0.0
  0
SOLID
  5
E74
330
1F
100
AcDbEntity
  8
SUNPO
 62
   144
100
AcDbTrace
 10
2941.974804287513
 20
2486.366658342827
 30
0.0
 11
2946.64147095418
 21
2486.366658342827
 31
0.0
 12
2944.308137620846
 22
2472.366658342827
 32
0.0
 13
2944.308137620846
 23
2472.366658342827
 33
0.0
  0
LINE
  5
E75
330
1F
100
AcDbEntity
  8
SUNPO
 62
   144
100
AcDbLine
 10
2707.397465318645
 20
2472.382639168392
 30
0.0
 11
2707.397465318645
 21
2678.507650069778
 31
0.0
  0
LINE
  5
E76
330
1F
100
AcDbEntity
  8
SUNPO
 62
   144
100
AcDbLine
 10
2728.196826085623
 20
2472.382639168392
 30
0.0
 11
2728.196826085623
 21
2678.507650069778
 31
0.0
  0
LINE
  5
E77
330
1F
100
AcDbEntity
  8
SUNPO
 62
   144
100
AcDbLine
 10
2693.397465318645
 20
2668.507650069777
 30
0.0
 11
2679.397465318645
 21
2668.507650069777
 31
0.0
  0
LINE
  5
E78
330
1F
100
AcDbEntity
  8
SUNPO
 62
   144
100
AcDbLine
 10
2742.196826085622
 20
2668.507650069777
 30
0.0
 11
2756.196826085623
 21
2668.507650069777
 31
0.0
  0
LINE
  5
E7A
330
1F
100
AcDbEntity
  8
SUNPO
 62
   144
100
AcDbLine
 10
2707.397465318645
 20
2668.507650069777
 30
0.0
 11
2728.196826085623
 21
2668.507650069777
 31
0.0
  0
SOLID
  5
E7B
330
1F
100
AcDbEntity
  8
SUNPO
 62
   144
100
AcDbTrace
 10
2693.397465318645
 20
2670.840983403111
 30
0.0
 11
2693.397465318645
 21
2666.174316736444
 31
0.0
 12
2707.397465318645
 22
2668.507650069777
 32
0.0
 13
2707.397465318645
 23
2668.507650069777
 33
0.0
  0
SOLID
  5
E7C
330
1F
100
AcDbEntity
  8
SUNPO
 62
   144
100
AcDbTrace
 10
2742.196826085622
 20
2670.840983403111
 30
0.0
 11
2742.196826085622
 21
2666.174316736444
 31
0.0
 12
2728.196826085623
 22
2668.507650069777
 32
0.0
 13
2728.196826085623
 23
2668.507650069777
 33
0.0
  0
TEXT
  5
E7D
330
1F
100
AcDbEntity
  8
SUNPO
100
AcDbText
 10
4965.748664116722
 20
408.1580982061969
 30
0.0
 40
50.0
  1
1500×4000
  7
ADD
100
AcDbText
1001
ACAD
1000
MTEXTBEGIN
1070
    73
1070
     1
1070
    44
1040
1.0
1070
    74
1070
     0
1000
MTEXTEND
  0
TEXT
  5
E7E
330
1F
100
AcDbEntity
  8
SUNPO
100
AcDbText
 10
3035.772925871522
 20
401.3725730101668
 30
0.0
 40
50.0
  1
B型柵渠 杭
  7
ADD
100
AcDbText
1001
ACAD
1000
MTEXTBEGIN
1070
    73
1070
     1
1070
    44
1040
1.0
1070
    74
1070
     0
1000
MTEXTEND
  0
LINE
  5
E7F
330
1F
100
AcDbEntity
  8
SUNPO
 62
   144
100
AcDbLine
 10
6648.196826085623
 20
3972.382639168392
 30
0.0
 11
6648.196826085623
 21
4311.475298592774
 31
0.0
  0
LINE
  5
E80
330
1F
100
AcDbEntity
  8
SUNPO
 62
   144
100
AcDbLine
 10
6708.244806900967
 20
3972.382639168392
 30
0.0
 11
6708.244806900967
 21
4311.475298592774
 31
0.0
  0
LINE
  5
E81
330
1F
100
AcDbEntity
  8
SUNPO
 62
   144
100
AcDbLine
 10
6662.196826085623
 20
4301.475298592773
 30
0.0
 11
6694.244806900967
 21
4301.475298592773
 31
0.0
  0
SOLID
  5
E83
330
1F
100
AcDbEntity
  8
SUNPO
 62
   144
100
AcDbTrace
 10
6662.196826085623
 20
4303.808631926107
 30
0.0
 11
6662.196826085623
 21
4299.14196525944
 31
0.0
 12
6648.196826085623
 22
4301.475298592773
 32
0.0
 13
6648.196826085623
 23
4301.475298592773
 33
0.0
  0
SOLID
  5
E84
330
1F
100
AcDbEntity
  8
SUNPO
 62
   144
100
AcDbTrace
 10
6694.244806900967
 20
4303.808631926107
 30
0.0
 11
6694.244806900967
 21
4299.14196525944
 31
0.0
 12
6708.244806900967
 22
4301.475298592773
 32
0.0
 13
6708.244806900967
 23
4301.475298592773
 33
0.0
  0
LINE
  5
E85
330
1F
100
AcDbEntity
  8
SUNPO
 62
   144
100
AcDbLine
 10
2648.196826085623
 20
3972.382639168392
 30
0.0
 11
2648.196826085623
 21
4311.475298592774
 31
0.0
  0
LINE
  5
E86
330
1F
100
AcDbEntity
  8
SUNPO
 62
   144
100
AcDbLine
 10
2588.148845270278
 20
3972.382639168392
 30
0.0
 11
2588.148845270278
 21
4311.475298592774
 31
0.0
  0
LINE
  5
E87
330
1F
100
AcDbEntity
  8
SUNPO
 62
   144
100
AcDbLine
 10
2634.196826085623
 20
4301.475298592773
 30
0.0
 11
2602.148845270278
 21
4301.475298592773
 31
0.0
  0
SOLID
  5
E89
330
1F
100
AcDbEntity
  8
SUNPO
 62
   144
100
AcDbTrace
 10
2634.196826085623
 20
4303.808631926107
 30
0.0
 11
2634.196826085623
 21
4299.14196525944
 31
0.0
 12
2648.196826085623
 22
4301.475298592773
 32
0.0
 13
2648.196826085623
 23
4301.475298592773
 33
0.0
  0
SOLID
  5
E8A
330
1F
100
AcDbEntity
  8
SUNPO
 62
   144
100
AcDbTrace
 10
2602.148845270278
 20
4303.808631926107
 30
0.0
 11
2602.148845270278
 21
4299.14196525944
 31
0.0
 12
2588.148845270278
 22
4301.475298592773
 32
0.0
 13
2588.148845270278
 23
4301.475298592773
 33
0.0
  0
LINE
  5
E8B
330
1F
100
AcDbEntity
  8
SUNPO
 62
   144
100
AcDbLine
 10
6588.196826085622
 20
2182.382639168392
 30
0.0
 11
6588.196826085622
 21
1787.13803298829
 31
0.0
  0
LINE
  5
E8C
330
1F
100
AcDbEntity
  8
SUNPO
 62
   144
100
AcDbLine
 10
6838.196826085622
 20
2182.382639168392
 30
0.0
 11
6838.196826085622
 21
1787.13803298829
 31
0.0
  0
LINE
  5
E8D
330
1F
100
AcDbEntity
  8
SUNPO
 62
   144
100
AcDbLine
 10
6602.196826085623
 20
1797.13803298829
 30
0.0
 11
6824.196826085622
 21
1797.13803298829
 31
0.0
  0
SOLID
  5
E8E
330
1F
100
AcDbEntity
  8
SUNPO
 62
   144
100
AcDbTrace
 10
6602.196826085623
 20
1799.471366321624
 30
0.0
 11
6602.196826085623
 21
1794.804699654957
 31
0.0
 12
6588.196826085622
 22
1797.13803298829
 32
0.0
 13
6588.196826085622
 23
1797.13803298829
 33
0.0
  0
SOLID
  5
E8F
330
1F
100
AcDbEntity
  8
SUNPO
 62
   144
100
AcDbTrace
 10
6824.196826085622
 20
1799.471366321624
 30
0.0
 11
6824.196826085622
 21
1794.804699654957
 31
0.0
 12
6838.196826085622
 22
1797.13803298829
 32
0.0
 13
6838.196826085622
 23
1797.13803298829
 33
0.0
  0
LINE
  5
E91
330
1F
100
AcDbEntity
  8
SUNPO
 62
   144
100
AcDbLine
 10
2708.196826085623
 20
2182.382639168392
 30
0.0
 11
2708.196826085623
 21
1787.13803298829
 31
0.0
  0
LINE
  5
E92
330
1F
100
AcDbEntity
  8
SUNPO
 62
   144
100
AcDbLine
 10
6588.196826085622
 20
2182.382639168392
 30
0.0
 11
6588.196826085622
 21
1787.13803298829
 31
0.0
  0
LINE
  5
E93
330
1F
100
AcDbEntity
  8
SUNPO
 62
   144
100
AcDbLine
 10
2722.196826085623
 20
1797.13803298829
 30
0.0
 11
6574.196826085622
 21
1797.13803298829
 31
0.0
  0
SOLID
  5
E94
330
1F
100
AcDbEntity
  8
SUNPO
 62
   144
100
AcDbTrace
 10
2722.196826085623
 20
1799.471366321624
 30
0.0
 11
2722.196826085623
 21
1794.804699654957
 31
0.0
 12
2708.196826085623
 22
1797.13803298829
 32
0.0
 13
2708.196826085623
 23
1797.13803298829
 33
0.0
  0
SOLID
  5
E95
330
1F
100
AcDbEntity
  8
SUNPO
 62
   144
100
AcDbTrace
 10
6574.196826085622
 20
1799.471366321624
 30
0.0
 11
6574.196826085622
 21
1794.804699654957
 31
0.0
 12
6588.196826085622
 22
1797.13803298829
 32
0.0
 13
6588.196826085622
 23
1797.13803298829
 33
0.0
  0
LINE
  5
E97
330
1F
100
AcDbEntity
  8
SUNPO
 62
   144
100
AcDbLine
 10
2458.196826085623
 20
2182.382639168392
 30
0.0
 11
2458.196826085623
 21
1787.13803298829
 31
0.0
  0
LINE
  5
E98
330
1F
100
AcDbEntity
  8
SUNPO
 62
   144
100
AcDbLine
 10
2708.196826085623
 20
2182.382639168392
 30
0.0
 11
2708.196826085623
 21
1787.13803298829
 31
0.0
  0
LINE
  5
E99
330
1F
100
AcDbEntity
  8
SUNPO
 62
   144
100
AcDbLine
 10
2472.196826085623
 20
1797.13803298829
 30
0.0
 11
2694.196826085622
 21
1797.13803298829
 31
0.0
  0
SOLID
  5
E9A
330
1F
100
AcDbEntity
  8
SUNPO
 62
   144
100
AcDbTrace
 10
2472.196826085623
 20
1799.471366321624
 30
0.0
 11
2472.196826085623
 21
1794.804699654957
 31
0.0
 12
2458.196826085623
 22
1797.13803298829
 32
0.0
 13
2458.196826085623
 23
1797.13803298829
 33
0.0
  0
SOLID
  5
E9B
330
1F
100
AcDbEntity
  8
SUNPO
 62
   144
100
AcDbTrace
 10
2694.196826085622
 20
1799.471366321624
 30
0.0
 11
2694.196826085622
 21
1794.804699654957
 31
0.0
 12
2708.196826085623
 22
1797.13803298829
 32
0.0
 13
2708.196826085623
 23
1797.13803298829
 33
0.0
  0
LINE
  5
E9D
330
1F
100
AcDbEntity
  8
SUNPO
 62
   144
100
AcDbLine
 10
2458.196826085623
 20
2182.382639168392
 30
0.0
 11
2458.196826085623
 21
1494.586691329361
 31
0.0
  0
LINE
  5
E9E
330
1F
100
AcDbEntity
  8
SUNPO
 62
   144
100
AcDbLine
 10
6838.196826085622
 20
2182.382639168392
 30
0.0
 11
6838.196826085622
 21
1494.586691329361
 31
0.0
  0
LINE
  5
E9F
330
1F
100
AcDbEntity
  8
SUNPO
 62
   144
100
AcDbLine
 10
2472.196826085623
 20
1504.586691329361
 30
0.0
 11
6824.196826085622
 21
1504.586691329361
 31
0.0
  0
SOLID
  5
EA0
330
1F
100
AcDbEntity
  8
SUNPO
 62
   144
100
AcDbTrace
 10
2472.196826085623
 20
1506.920024662694
 30
0.0
 11
2472.196826085623
 21
1502.253357996027
 31
0.0
 12
2458.196826085623
 22
1504.586691329361
 32
0.0
 13
2458.196826085623
 23
1504.586691329361
 33
0.0
  0
SOLID
  5
EA1
330
1F
100
AcDbEntity
  8
SUNPO
 62
   144
100
AcDbTrace
 10
6824.196826085622
 20
1506.920024662694
 30
0.0
 11
6824.196826085622
 21
1502.253357996027
 31
0.0
 12
6838.196826085622
 22
1504.586691329361
 32
0.0
 13
6838.196826085622
 23
1504.586691329361
 33
0.0
  0
LINE
  5
EA3
330
1F
100
AcDbEntity
  8
SUNPO
 62
   144
100
AcDbLine
 10
2438.196826085623
 20
2452.382639168392
 30
0.0
 11
2290.132521545485
 21
2452.382639168392
 31
0.0
  0
LINE
  5
EA4
330
1F
100
AcDbEntity
  8
SUNPO
 62
   144
100
AcDbLine
 10
2438.196826085623
 20
3952.382639168392
 30
0.0
 11
2290.132521545485
 21
3952.382639168392
 31
0.0
  0
LINE
  5
EA5
330
1F
100
AcDbEntity
  8
SUNPO
 62
   144
100
AcDbLine
 10
2300.132521545485
 20
2466.382639168392
 30
0.0
 11
2300.132521545485
 21
3938.382639168392
 31
0.0
  0
SOLID
  5
EA6
330
1F
100
AcDbEntity
  8
SUNPO
 62
   144
100
AcDbTrace
 10
2297.799188212151
 20
2466.382639168392
 30
0.0
 11
2302.465854878818
 21
2466.382639168392
 31
0.0
 12
2300.132521545485
 22
2452.382639168392
 32
0.0
 13
2300.132521545485
 23
2452.382639168392
 33
0.0
  0
SOLID
  5
EA7
330
1F
100
AcDbEntity
  8
SUNPO
 62
   144
100
AcDbTrace
 10
2297.799188212152
 20
3938.382639168392
 30
0.0
 11
2302.465854878819
 21
3938.382639168392
 31
0.0
 12
2300.132521545485
 22
3952.382639168392
 32
0.0
 13
2300.132521545485
 23
3952.382639168392
 33
0.0
  0
LINE
  5
EA9
330
1F
100
AcDbEntity
  8
SUNPO
 62
   144
100
AcDbLine
 10
2438.196826085623
 20
2202.382639168392
 30
0.0
 11
2290.132521545485
 21
2202.382639168392
 31
0.0
  0
LINE
  5
EAA
330
1F
100
AcDbEntity
  8
SUNPO
 62
   144
100
AcDbLine
 10
2438.196826085623
 20
2452.382639168392
 30
0.0
 11
2290.132521545485
 21
2452.382639168392
 31
0.0
  0
LINE
  5
EAB
330
1F
100
AcDbEntity
  8
SUNPO
 62
   144
100
AcDbLine
 10
2300.132521545485
 20
2216.382639168392
 30
0.0
 11
2300.132521545485
 21
2438.382639168392
 31
0.0
  0
SOLID
  5
EAC
330
1F
100
AcDbEntity
  8
SUNPO
 62
   144
100
AcDbTrace
 10
2297.799188212152
 20
2216.382639168392
 30
0.0
 11
2302.465854878819
 21
2216.382639168392
 31
0.0
 12
2300.132521545485
 22
2202.382639168392
 32
0.0
 13
2300.132521545485
 23
2202.382639168392
 33
0.0
  0
SOLID
  5
EAD
330
1F
100
AcDbEntity
  8
SUNPO
 62
   144
100
AcDbTrace
 10
2297.799188212152
 20
2438.382639168392
 30
0.0
 11
2302.465854878819
 21
2438.382639168392
 31
0.0
 12
2300.132521545485
 22
2452.382639168392
 32
0.0
 13
2300.132521545485
 23
2452.382639168392
 33
0.0
  0
LINE
  5
EAF
330
1F
100
AcDbEntity
  8
SUNPO
 62
   144
100
AcDbLine
 10
2438.196826085623
 20
2202.382639168392
 30
0.0
 11
2134.349998287266
 21
2202.382639168392
 31
0.0
  0
LINE
  5
EB0
330
1F
100
AcDbEntity
  8
SUNPO
 62
   144
100
AcDbLine
 10
2438.196826085623
 20
3952.382639168392
 30
0.0
 11
2134.349998287267
 21
3952.382639168392
 31
0.0
  0
LINE
  5
EB1
330
1F
100
AcDbEntity
  8
SUNPO
 62
   144
100
AcDbLine
 10
2144.349998287267
 20
2216.382639168392
 30
0.0
 11
2144.349998287267
 21
3938.382639168392
 31
0.0
  0
SOLID
  5
EB2
330
1F
100
AcDbEntity
  8
SUNPO
 62
   144
100
AcDbTrace
 10
2142.016664953933
 20
2216.382639168392
 30
0.0
 11
2146.6833316206
 21
2216.382639168392
 31
0.0
 12
2144.349998287267
 22
2202.382639168392
 32
0.0
 13
2144.349998287267
 23
2202.382639168392
 33
0.0
  0
SOLID
  5
EB3
330
1F
100
AcDbEntity
  8
SUNPO
 62
   144
100
AcDbTrace
 10
2142.016664953933
 20
3938.382639168392
 30
0.0
 11
2146.6833316206
 21
3938.382639168392
 31
0.0
 12
2144.349998287267
 22
3952.382639168392
 32
0.0
 13
2144.349998287267
 23
3952.382639168392
 33
0.0
  0
LINE
  5
EB5
330
1F
100
AcDbEntity
  8
SUNPO
 62
   144
100
AcDbLine
 10
1733.196826085622
 20
3972.382639168392
 30
0.0
 11
1733.196826085622
 21
4330.578547622388
 31
0.0
  0
LINE
  5
EB6
330
1F
100
AcDbEntity
  8
SUNPO
 62
   144
100
AcDbLine
 10
1803.196826085622
 20
3972.382639168392
 30
0.0
 11
1803.196826085622
 21
4330.578547622388
 31
0.0
  0
LINE
  5
EB7
330
1F
100
AcDbEntity
  8
SUNPO
 62
   144
100
AcDbLine
 10
1747.196826085622
 20
4320.578547622388
 30
0.0
 11
1789.196826085622
 21
4320.578547622388
 31
0.0
  0
SOLID
  5
EB9
330
1F
100
AcDbEntity
  8
SUNPO
 62
   144
100
AcDbTrace
 10
1747.196826085622
 20
4322.911880955721
 30
0.0
 11
1747.196826085622
 21
4318.245214289055
 31
0.0
 12
1733.196826085622
 22
4320.578547622388
 32
0.0
 13
1733.196826085622
 23
4320.578547622388
 33
0.0
  0
SOLID
  5
EBA
330
1F
100
AcDbEntity
  8
SUNPO
 62
   144
100
AcDbTrace
 10
1789.196826085622
 20
4322.911880955721
 30
0.0
 11
1789.196826085622
 21
4318.245214289055
 31
0.0
 12
1803.196826085622
 22
4320.578547622388
 32
0.0
 13
1803.196826085622
 23
4320.578547622388
 33
0.0
  0
LINE
  5
EBB
330
1F
100
AcDbEntity
  8
SUNPO
 62
   144
100
AcDbLine
 10
1858.196826085622
 20
3972.382639168392
 30
0.0
 11
1858.196826085622
 21
4330.578547622388
 31
0.0
  0
LINE
  5
EBC
330
1F
100
AcDbEntity
  8
SUNPO
 62
   144
100
AcDbLine
 10
1808.196826085622
 20
3972.382639168392
 30
0.0
 11
1808.196826085622
 21
4330.578547622388
 31
0.0
  0
LINE
  5
EBD
330
1F
100
AcDbEntity
  8
SUNPO
 62
   144
100
AcDbLine
 10
1872.196826085622
 20
4320.578547622388
 30
0.0
 11
1886.196826085623
 21
4320.578547622388
 31
0.0
  0
LINE
  5
EBE
330
1F
100
AcDbEntity
  8
SUNPO
 62
   144
100
AcDbLine
 10
1794.196826085622
 20
4320.578547622388
 30
0.0
 11
1780.196826085622
 21
4320.578547622388
 31
0.0
  0
LINE
  5
EC0
330
1F
100
AcDbEntity
  8
SUNPO
 62
   144
100
AcDbLine
 10
1858.196826085622
 20
4320.578547622388
 30
0.0
 11
1808.196826085622
 21
4320.578547622388
 31
0.0
  0
SOLID
  5
EC1
330
1F
100
AcDbEntity
  8
SUNPO
 62
   144
100
AcDbTrace
 10
1872.196826085622
 20
4322.911880955721
 30
0.0
 11
1872.196826085622
 21
4318.245214289055
 31
0.0
 12
1858.196826085622
 22
4320.578547622388
 32
0.0
 13
1858.196826085622
 23
4320.578547622388
 33
0.0
  0
SOLID
  5
EC2
330
1F
100
AcDbEntity
  8
SUNPO
 62
   144
100
AcDbTrace
 10
1794.196826085622
 20
4322.911880955721
 30
0.0
 11
1794.196826085622
 21
4318.245214289055
 31
0.0
 12
1808.196826085622
 22
4320.578547622388
 32
0.0
 13
1808.196826085622
 23
4320.578547622388
 33
0.0
  0
LINE
  5
EC3
330
1F
100
AcDbEntity
  8
SUNPO
 62
   144
100
AcDbLine
 10
1678.196826085622
 20
3972.382639168392
 30
0.0
 11
1678.196826085622
 21
4330.578547622388
 31
0.0
  0
LINE
  5
EC4
330
1F
100
AcDbEntity
  8
SUNPO
 62
   144
100
AcDbLine
 10
1728.196826085622
 20
3972.382639168392
 30
0.0
 11
1728.196826085622
 21
4330.578547622388
 31
0.0
  0
LINE
  5
EC5
330
1F
100
AcDbEntity
  8
SUNPO
 62
   144
100
AcDbLine
 10
1664.196826085622
 20
4320.578547622388
 30
0.0
 11
1650.196826085623
 21
4320.578547622388
 31
0.0
  0
LINE
  5
EC6
330
1F
100
AcDbEntity
  8
SUNPO
 62
   144
100
AcDbLine
 10
1742.196826085622
 20
4320.578547622388
 30
0.0
 11
1756.196826085623
 21
4320.578547622388
 31
0.0
  0
LINE
  5
EC8
330
1F
100
AcDbEntity
  8
SUNPO
 62
   144
100
AcDbLine
 10
1678.196826085622
 20
4320.578547622388
 30
0.0
 11
1728.196826085622
 21
4320.578547622388
 31
0.0
  0
SOLID
  5
EC9
330
1F
100
AcDbEntity
  8
SUNPO
 62
   144
100
AcDbTrace
 10
1664.196826085622
 20
4322.911880955721
 30
0.0
 11
1664.196826085622
 21
4318.245214289055
 31
0.0
 12
1678.196826085622
 22
4320.578547622388
 32
0.0
 13
1678.196826085622
 23
4320.578547622388
 33
0.0
  0
SOLID
  5
ECA
330
1F
100
AcDbEntity
  8
SUNPO
 62
   144
100
AcDbTrace
 10
1742.196826085622
 20
4322.911880955721
 30
0.0
 11
1742.196826085622
 21
4318.245214289055
 31
0.0
 12
1728.196826085622
 22
4320.578547622388
 32
0.0
 13
1728.196826085622
 23
4320.578547622388
 33
0.0
  0
LINE
  5
ECB
330
1F
100
AcDbEntity
  8
SUNPO
 62
   144
100
AcDbLine
 10
6648.196826085623
 20
3972.382639168392
 30
0.0
 11
6648.196826085623
 21
4630.567958017155
 31
0.0
  0
LINE
  5
ECC
330
1F
100
AcDbEntity
  8
SUNPO
 62
   144
100
AcDbLine
 10
6838.196826085622
 20
3972.382639168392
 30
0.0
 11
6838.196826085622
 21
4630.567958017155
 31
0.0
  0
LINE
  5
ECD
330
1F
100
AcDbEntity
  8
SUNPO
 62
   144
100
AcDbLine
 10
6662.196826085623
 20
4620.567958017154
 30
0.0
 11
6824.196826085622
 21
4620.567958017154
 31
0.0
  0
SOLID
  5
ECE
330
1F
100
AcDbEntity
  8
SUNPO
 62
   144
100
AcDbTrace
 10
6662.196826085623
 20
4622.901291350487
 30
0.0
 11
6662.196826085623
 21
4618.234624683821
 31
0.0
 12
6648.196826085623
 22
4620.567958017154
 32
0.0
 13
6648.196826085623
 23
4620.567958017154
 33
0.0
  0
SOLID
  5
ECF
330
1F
100
AcDbEntity
  8
SUNPO
 62
   144
100
AcDbTrace
 10
6824.196826085622
 20
4622.901291350487
 30
0.0
 11
6824.196826085622
 21
4618.234624683821
 31
0.0
 12
6838.196826085622
 22
4620.567958017154
 32
0.0
 13
6838.196826085622
 23
4620.567958017154
 33
0.0
  0
LINE
  5
ED1
330
1F
100
AcDbEntity
  8
SUNPO
 62
   144
100
AcDbLine
 10
2648.196826085623
 20
3972.382639168392
 30
0.0
 11
2648.196826085623
 21
4630.567958017155
 31
0.0
  0
LINE
  5
ED2
330
1F
100
AcDbEntity
  8
SUNPO
 62
   144
100
AcDbLine
 10
6648.196826085623
 20
3972.382639168392
 30
0.0
 11
6648.196826085623
 21
4630.567958017155
 31
0.0
  0
LINE
  5
ED3
330
1F
100
AcDbEntity
  8
SUNPO
 62
   144
100
AcDbLine
 10
2662.196826085622
 20
4620.567958017154
 30
0.0
 11
6634.196826085624
 21
4620.567958017154
 31
0.0
  0
SOLID
  5
ED4
330
1F
100
AcDbEntity
  8
SUNPO
 62
   144
100
AcDbTrace
 10
2662.196826085622
 20
4622.901291350487
 30
0.0
 11
2662.196826085622
 21
4618.234624683821
 31
0.0
 12
2648.196826085623
 22
4620.567958017154
 32
0.0
 13
2648.196826085623
 23
4620.567958017154
 33
0.0
  0
SOLID
  5
ED5
330
1F
100
AcDbEntity
  8
SUNPO
 62
   144
100
AcDbTrace
 10
6634.196826085624
 20
4622.901291350487
 30
0.0
 11
6634.196826085624
 21
4618.234624683821
 31
0.0
 12
6648.196826085623
 22
4620.567958017154
 32
0.0
 13
6648.196826085623
 23
4620.567958017154
 33
0.0
  0
LINE
  5
ED7
330
1F
100
AcDbEntity
  8
SUNPO
 62
   144
100
AcDbLine
 10
2458.196826085623
 20
3972.382639168392
 30
0.0
 11
2458.196826085623
 21
4630.567958017155
 31
0.0
  0
LINE
  5
ED8
330
1F
100
AcDbEntity
  8
SUNPO
 62
   144
100
AcDbLine
 10
2648.196826085623
 20
3972.382639168392
 30
0.0
 11
2648.196826085623
 21
4630.567958017155
 31
0.0
  0
LINE
  5
ED9
330
1F
100
AcDbEntity
  8
SUNPO
 62
   144
100
AcDbLine
 10
2472.196826085623
 20
4620.567958017154
 30
0.0
 11
2634.196826085623
 21
4620.567958017154
 31
0.0
  0
SOLID
  5
EDA
330
1F
100
AcDbEntity
  8
SUNPO
 62
   144
100
AcDbTrace
 10
2472.196826085623
 20
4622.901291350487
 30
0.0
 11
2472.196826085623
 21
4618.234624683821
 31
0.0
 12
2458.196826085623
 22
4620.567958017154
 32
0.0
 13
2458.196826085623
 23
4620.567958017154
 33
0.0
  0
SOLID
  5
EDB
330
1F
100
AcDbEntity
  8
SUNPO
 62
   144
100
AcDbTrace
 10
2634.196826085623
 20
4622.901291350487
 30
0.0
 11
2634.196826085623
 21
4618.234624683821
 31
0.0
 12
2648.196826085623
 22
4620.567958017154
 32
0.0
 13
2648.196826085623
 23
4620.567958017154
 33
0.0
  0
LINE
  5
EDD
330
1F
100
AcDbEntity
  8
SUNPO
 62
   144
100
AcDbLine
 10
1678.196826085622
 20
3972.382639168392
 30
0.0
 11
1678.196826085622
 21
4630.567958017155
 31
0.0
  0
LINE
  5
EDE
330
1F
100
AcDbEntity
  8
SUNPO
 62
   144
100
AcDbLine
 10
1858.196826085622
 20
3972.382639168392
 30
0.0
 11
1858.196826085622
 21
4630.567958017155
 31
0.0
  0
LINE
  5
EDF
330
1F
100
AcDbEntity
  8
SUNPO
 62
   144
100
AcDbLine
 10
1692.196826085623
 20
4620.567958017154
 30
0.0
 11
1844.196826085623
 21
4620.567958017154
 31
0.0
  0
SOLID
  5
EE0
330
1F
100
AcDbEntity
  8
SUNPO
 62
   144
100
AcDbTrace
 10
1692.196826085623
 20
4622.901291350487
 30
0.0
 11
1692.196826085623
 21
4618.234624683821
 31
0.0
 12
1678.196826085622
 22
4620.567958017154
 32
0.0
 13
1678.196826085622
 23
4620.567958017154
 33
0.0
  0
SOLID
  5
EE1
330
1F
100
AcDbEntity
  8
SUNPO
 62
   144
100
AcDbTrace
 10
1844.196826085623
 20
4622.901291350487
 30
0.0
 11
1844.196826085623
 21
4618.234624683821
 31
0.0
 12
1858.196826085622
 22
4620.567958017154
 32
0.0
 13
1858.196826085622
 23
4620.567958017154
 33
0.0
  0
TEXT
  5
EE3
330
1F
100
AcDbEntity
  8
SUNPO
100
AcDbText
 10
5706.680311730543
 20
359.2274732162223
 30
0.0
 40
70.0
  1
１／２０
  7
ADD
100
AcDbText
1001
ACAD
1000
MTEXTBEGIN
1070
    73
1070
     1
1070
    44
1040
1.0
1070
    74
1070
     0
1000
MTEXTEND
  0
TEXT
  5
EE4
330
1F
100
AcDbEntity
  8
SUNPO
100
AcDbText
 10
2841.886257401154
 20
488.6918916770627
 30
0.0
 40
50.0
  1
製品名
  7
ADD
100
AcDbText
1001
ACAD
1000
MTEXTBEGIN
1070
    73
1070
     1
1070
    44
1040
1.0
1070
    74
1070
     0
1000
MTEXTEND
  0
TEXT
  5
EE5
330
1F
100
AcDbEntity
  8
SUNPO
100
AcDbText
 10
4836.290169028721
 20
494.4531736811823
 30
0.0
 40
50.0
  1
型式
  7
ADD
100
AcDbText
1001
ACAD
1000
MTEXTBEGIN
1070
    73
1070
     1
1070
    44
1040
1.0
1070
    74
1070
     0
1000
MTEXTEND
  0
TEXT
  5
EE6
330
1F
100
AcDbEntity
  8
SUNPO
100
AcDbText
 10
5637.510249231659
 20
488.6918916770627
 30
0.0
 40
50.0
  1
縮尺
  7
ADD
100
AcDbText
1001
ACAD
1000
MTEXTBEGIN
1070
    73
1070
     1
1070
    44
1040
1.0
1070
    74
1070
     0
1000
MTEXTEND
  0
TEXT
  5
EE7
330
1F
100
AcDbEntity
  8
SUNPO
100
AcDbText
 10
6190.870883051571
 20
352.2726133092145
 30
0.0
 40
100.0
  1
千葉県コンクリート製品協同組合
  7
ADD
100
AcDbText
1001
ACAD
1000
MTEXTBEGIN
1070
    73
1070
     1
1070
    44
1040
1.0
1070
    74
1070
     0
1000
MTEXTEND
  0
LINE
  5
EE8
330
1F
100
AcDbEntity
  8
HOJO
100
AcDbLine
 10
360.0
 20
260.0
 30
0.0
 11
8040.0
 21
260.0
 31
0.0
  0
LINE
  5
EE9
330
1F
100
AcDbEntity
  8
HOJO
100
AcDbLine
 10
8040.0
 20
260.0
 30
0.0
 11
8040.0
 21
5680.0
 31
0.0
  0
LINE
  5
EEA
330
1F
100
AcDbEntity
  8
HOJO
100
AcDbLine
 10
8040.0
 20
5680.0
 30
0.0
 11
360.0
 21
5680.0
 31
0.0
  0
LINE
  5
EEB
330
1F
100
AcDbEntity
  8
HOJO
100
AcDbLine
 10
360.0
 20
5680.0
 30
0.0
 11
360.0
 21
260.0
 31
0.0
  0
LINE
  5
EEC
330
1F
100
AcDbEntity
  8
HOJO
100
AcDbLine
 10
0.0
 20
0.0
 30
0.0
 11
8400.0
 21
0.0
 31
0.0
  0
LINE
  5
EED
330
1F
100
AcDbEntity
  8
HOJO
100
AcDbLine
 10
8400.0
 20
0.0
 30
0.0
 11
8400.0
 21
5940.0
 31
0.0
  0
LINE
  5
EEE
330
1F
100
AcDbEntity
  8
HOJO
100
AcDbLine
 10
8400.0
 20
5940.0
 30
0.0
 11
0.0
 21
5940.0
 31
0.0
  0
LINE
  5
EEF
330
1F
100
AcDbEntity
  8
HOJO
100
AcDbLine
 10
0.0
 20
5940.0
 30
0.0
 11
0.0
 21
0.0
 31
0.0
  0
TEXT
  5
EF0
330
1F
100
AcDbEntity
  8
SUNPO
 62
     7
100
AcDbText
 10
1693.196826085623
 20
4633.067958017154
 30
0.0
 40
50.0
  1
180
  7
ADD
100
AcDbText
1001
ACAD
1000
MTEXTBEGIN
1070
    73
1070
     1
1070
    44
1040
1.0
1070
    74
1070
     0
1000
MTEXTEND
  0
TEXT
  5
EF1
330
1F
100
AcDbEntity
  8
SUNPO
 62
     7
100
AcDbText
 10
2478.196826085623
 20
4633.067958017154
 30
0.0
 40
50.0
  1
190
  7
ADD
100
AcDbText
1001
ACAD
1000
MTEXTBEGIN
1070
    73
1070
     1
1070
    44
1040
1.0
1070
    74
1070
     0
1000
MTEXTEND
  0
TEXT
  5
EF2
330
1F
100
AcDbEntity
  8
SUNPO
 62
     7
100
AcDbText
 10
4552.958730847527
 20
4633.067958017154
 30
0.0
 40
50.0
  1
4000
  7
ADD
100
AcDbText
1001
ACAD
1000
MTEXTBEGIN
1070
    73
1070
     1
1070
    44
1040
1.0
1070
    74
1070
     0
1000
MTEXTEND
  0
TEXT
  5
EF3
330
1F
100
AcDbEntity
  8
SUNPO
 62
     7
100
AcDbText
 10
6668.196826085623
 20
4633.067958017154
 30
0.0
 40
50.0
  1
190
  7
ADD
100
AcDbText
1001
ACAD
1000
MTEXTBEGIN
1070
    73
1070
     1
1070
    44
1040
1.0
1070
    74
1070
     0
1000
MTEXTEND
  0
TEXT
  5
EF4
330
1F
100
AcDbEntity
  8
SUNPO
 62
     7
100
AcDbText
 10
1568.079311675277
 20
4349.328547622388
 30
0.0
 40
50.0
  1
50
  7
ADD
100
AcDbText
1001
ACAD
1000
MTEXTBEGIN
1070
    73
1070
     1
1070
    44
1040
1.0
1070
    74
1070
     0
1000
MTEXTEND
  0
TEXT
  5
EF5
330
1F
100
AcDbEntity
  8
SUNPO
 62
     7
100
AcDbText
 10
1865.546285310835
 20
4349.328547622388
 30
0.0
 40
50.0
  1
50
  7
ADD
100
AcDbText
1001
ACAD
1000
MTEXTBEGIN
1070
    73
1070
     1
1070
    44
1040
1.0
1070
    74
1070
     0
1000
MTEXTEND
  0
TEXT
  5
EF6
330
1F
100
AcDbEntity
  8
SUNPO
 62
     7
100
AcDbText
 10
1720.577778466575
 20
4349.328547622388
 30
0.0
 40
50.0
  1
70
  7
ADD
100
AcDbText
1001
ACAD
1000
MTEXTBEGIN
1070
    73
1070
     1
1070
    44
1040
1.0
1070
    74
1070
     0
1000
MTEXTEND
  0
TEXT
  5
EF7
330
1F
100
AcDbEntity
  8
SUNPO
 62
     7
100
AcDbText
 10
2131.849998287266
 20
2978.573115358869
 30
0.0
 40
50.0
  1
1750
 50
90.0
  7
ADD
100
AcDbText
1001
ACAD
1000
MTEXTBEGIN
1070
    73
1070
     1
1070
    44
1040
1.0
1070
    74
1070
     0
1000
MTEXTEND
  0
TEXT
  5
EF8
330
1F
100
AcDbEntity
  8
SUNPO
 62
     7
100
AcDbText
 10
2287.632521545484
 20
2255.954067739821
 30
0.0
 40
50.0
  1
250
 50
90.0
  7
ADD
100
AcDbText
1001
ACAD
1000
MTEXTBEGIN
1070
    73
1070
     1
1070
    44
1040
1.0
1070
    74
1070
     0
1000
MTEXTEND
  0
TEXT
  5
EF9
330
1F
100
AcDbEntity
  8
SUNPO
 62
     7
100
AcDbText
 10
2287.632521545484
 20
3103.573115358868
 30
0.0
 40
50.0
  1
1500
 50
90.0
  7
ADD
100
AcDbText
1001
ACAD
1000
MTEXTBEGIN
1070
    73
1070
     1
1070
    44
1040
1.0
1070
    74
1070
     0
1000
MTEXTEND
  0
TEXT
  5
EFA
330
1F
100
AcDbEntity
  8
SUNPO
 62
     7
100
AcDbText
 10
4552.958730847527
 20
1517.086691329361
 30
0.0
 40
50.0
  1
4380
  7
ADD
100
AcDbText
1001
ACAD
1000
MTEXTBEGIN
1070
    73
1070
     1
1070
    44
1040
1.0
1070
    74
1070
     0
1000
MTEXTEND
  0
TEXT
  5
EFB
330
1F
100
AcDbEntity
  8
SUNPO
 62
     7
100
AcDbText
 10
2511.768254657051
 20
1809.63803298829
 30
0.0
 40
50.0
  1
250
  7
ADD
100
AcDbText
1001
ACAD
1000
MTEXTBEGIN
1070
    73
1070
     1
1070
    44
1040
1.0
1070
    74
1070
     0
1000
MTEXTEND
  0
TEXT
  5
EFC
330
1F
100
AcDbEntity
  8
SUNPO
 62
     7
100
AcDbText
 10
4552.958730847527
 20
1809.63803298829
 30
0.0
 40
50.0
  1
3880
  7
ADD
100
AcDbText
1001
ACAD
1000
MTEXTBEGIN
1070
    73
1070
     1
1070
    44
1040
1.0
1070
    74
1070
     0
1000
MTEXTEND
  0
TEXT
  5
EFD
330
1F
100
AcDbEntity
  8
SUNPO
 62
     7
100
AcDbText
 10
6641.768254657051
 20
1809.63803298829
 30
0.0
 40
50.0
  1
250
  7
ADD
100
AcDbText
1001
ACAD
1000
MTEXTBEGIN
1070
    73
1070
     1
1070
    44
1040
1.0
1070
    74
1070
     0
1000
MTEXTEND
  0
TEXT
  5
EFE
330
1F
100
AcDbEntity
  8
SUNPO
 62
     7
100
AcDbText
 10
2569.363311868427
 20
4330.225298592774
 30
0.0
 40
50.0
  1
60
  7
ADD
100
AcDbText
1001
ACAD
1000
MTEXTBEGIN
1070
    73
1070
     1
1070
    44
1040
1.0
1070
    74
1070
     0
1000
MTEXTEND
  0
TEXT
  5
EFF
330
1F
100
AcDbEntity
  8
SUNPO
 62
     7
100
AcDbText
 10
6629.411292683771
 20
4330.225298592774
 30
0.0
 40
50.0
  1
60
  7
ADD
100
AcDbText
1001
ACAD
1000
MTEXTBEGIN
1070
    73
1070
     1
1070
    44
1040
1.0
1070
    74
1070
     0
1000
MTEXTEND
  0
TEXT
  5
F00
330
1F
100
AcDbEntity
  8
SUNPO
 62
     7
100
AcDbText
 10
2670.178098083086
 20
2697.257650069778
 30
0.0
 40
50.0
  1
20
  7
ADD
100
AcDbText
1001
ACAD
1000
MTEXTBEGIN
1070
    73
1070
     1
1070
    44
1040
1.0
1070
    74
1070
     0
1000
MTEXTEND
  0
TEXT
  5
F01
330
1F
100
AcDbEntity
  8
SUNPO
 62
     7
100
AcDbText
 10
3073.058137620846
 20
2414.755601136562
 30
0.0
 40
50.0
  1
20
 50
90.0
  7
ADD
100
AcDbText
1001
ACAD
1000
MTEXTBEGIN
1070
    73
1070
     1
1070
    44
1040
1.0
1070
    74
1070
     0
1000
MTEXTEND
  0
TEXT
  5
F02
330
1F
100
AcDbEntity
  8
SUNPO
 62
     7
100
AcDbText
 10
1693.196826085623
 20
1507.086691329361
 30
0.0
 40
50.0
  1
180
  7
ADD
100
AcDbText
1001
ACAD
1000
MTEXTBEGIN
1070
    73
1070
     1
1070
    44
1040
1.0
1070
    74
1070
     0
1000
MTEXTEND
  0
VIEWPORT
  5
72
330
1B
100
AcDbEntity
 67
     1
  8
0
100
AcDbViewport
 10
429.8380103383459
 20
277.0
 30
0.0
 40
948.9782706766918
 41
628.4520000000001
 68
     1
 69
     1
1001
ACAD
1000
MVIEW
1002
{
1070
    16
1010
0.0
1020
0.0
1030
0.0
1010
0.0
1020
0.0
1030
1.0
1040
0.0
1040
628.4520000000001
1040
429.8380103383459
1040
277.0
1040
50.0
1040
0.0
1040
0.0
1070
     0
1070
   100
1070
     1
1070
     1
1070
     0
1070
     0
1070
     0
1070
     0
1040
0.0
1040
0.0
1040
0.0
1040
10.0
1040
10.0
1040
10.0
1040
10.0
1070
     0
1002
{
1002
}
1002
}
  0
VIEWPORT
  5
74
330
1B
100
AcDbEntity
 67
     1
  8
VIEWPORT
100
AcDbViewport
 10
414.3779638919211
 20
277.3177265058034
 30
0.0
 40
840.0353682728887
 41
567.2285469943826
 68
     2
 69
     2
1001
ACAD
1000
MVIEW
1002
{
1070
    16
1010
0.0
1020
0.0
1030
0.0
1010
0.0
1020
0.0
1030
1.0
1040
0.0
1040
579.5583043546323
1040
424.4938908624541
1040
286.1973242720074
1040
50.0
1040
0.0
1040
0.0
1070
     0
1070
   100
1070
     1
1070
     1
1070
     0
1070
     0
1070
     0
1070
     0
1040
0.0
1040
0.0
1040
0.0
1040
10.0
1040
10.0
1040
10.0
1040
10.0
1070
     0
1002
{
1002
}
1002
}
  0
ENDSEC
  0
SECTION
  2
OBJECTS
  0
DICTIONARY
  5
C
330
0
100
AcDbDictionary
  3
ACAD_GROUP
350
D
  3
ACAD_LAYOUT
350
1A
  3
ACAD_MLINESTYLE
350
17
  3
ACAD_PLOTSETTINGS
350
19
  3
DWGPROPS
350
4C7
1001
ACAD
1000
TREAT_AS_HARD
1070
     0
  0
DICTIONARY
  5
DD8
330
1F
100
AcDbDictionary
  3
ACAD_LAYOUTSELFREF
350
F05
1001
ACAD
1000
TREAT_AS_HARD
1070
     1
  0
DICTIONARY
  5
DDA
330
1B
100
AcDbDictionary
  3
ACAD_LAYOUTSELFREF
350
F04
1001
ACAD
1000
TREAT_AS_HARD
1070
     1
  0
DICTIONARY
  5
D
102
{ACAD_REACTORS
330
C
102
}
330
C
100
AcDbDictionary
1001
ACAD
1000
TREAT_AS_HARD
1070
     0
  0
DICTIONARY
  5
1A
102
{ACAD_REACTORS
330
C
102
}
330
C
100
AcDbDictionary
1001
ACAD
1000
TREAT_AS_HARD
1070
     0
  0
DICTIONARY
  5
17
102
{ACAD_REACTORS
330
C
102
}
330
C
100
AcDbDictionary
  3
STANDARD
350
18
1001
ACAD
1000
TREAT_AS_HARD
1070
     0
  0
DICTIONARY
  5
19
102
{ACAD_REACTORS
330
C
102
}
330
C
100
AcDbDictionary
1001
ACAD
1000
TREAT_AS_HARD
1070
     0
  0
XRECORD
  5
4C7
102
{ACAD_REACTORS
330
C
102
}
330
C
100
AcDbXrecord
  1
DWGPROPS COOKIE
  2
印刷用テスト
  3
AutoCAD2000による建築設計
  4
鈴木 裕二
  6

  7

  8
U2
  9

300
=
301
=
302
=
303
=
304
=
305
=
306
=
307
=
308
=
309
=
 40
0.7653446875
 41
2451285.4846114
 42
2451333.689743032
  1

 90
        0
  0
XRECORD
  5
F05
102
{ACAD_REACTORS
330
DD8
102
}
330
DD8
100
AcDbXrecord
340
1F
  0
XRECORD
  5
F04
102
{ACAD_REACTORS
330
DDA
102
}
330
DDA
100
AcDbXrecord
340
1B
  0
MLINESTYLE
  5
18
102
{ACAD_REACTORS
330
17
102
}
330
17
100
AcDbMlineStyle
  2
STANDARD
 70
     0
  3

 62
   256
 51
90.0
 52
90.0
 71
     2
 49
0.5
 62
   256
  6
BYLAYER
 49
-0.5
 62
   256
  6
BYLAYER
  0
ENDSEC
  0
EOF
