  0
SECTION
  2
HEADER
  9
$ACADVER
  1
AC1012
  9
$DWGCODEPAGE
  3
dos932
  9
$INSBASE
 10
0.0
 20
0.0
 30
0.0
  9
$EXTMIN
 10
0.0
 20
0.0
 30
0.0
  9
$EXTMAX
 10
8400.0
 20
5940.0
 30
0.0
  9
$LIMMIN
 10
0.0
 20
0.0
  9
$LIMMAX
 10
8400.0
 20
5940.0
  9
$ORTHOMODE
 70
     0
  9
$REGENMODE
 70
     1
  9
$FILLMODE
 70
     1
  9
$QTEXTMODE
 70
     0
  9
$MIRRTEXT
 70
     0
  9
$DRAGMODE
 70
     2
  9
$LTSCALE
 40
10.0
  9
$OSMODE
 70
    37
  9
$ATTMODE
 70
     1
  9
$TEXTSIZE
 40
50.0
  9
$TRACEWID
 40
1.0
  9
$TEXTSTYLE
  7
ADD
  9
$CLAYER
  8
SUNPO
  9
$CELTYPE
  6
BYLAYER
  9
$CECOLOR
 62
   256
  9
$CELTSCALE
 40
1.0
  9
$DELOBJ
 70
     1
  9
$DISPSILH
 70
     0
  9
$DIMSCALE
 40
20.0
  9
$DIMASZ
 40
2.5
  9
$DIMEXO
 40
1.0
  9
$DIMDLI
 40
7.0
  9
$DIMRND
 40
0.0
  9
$DIMDLE
 40
0.0
  9
$DIMEXE
 40
0.5
  9
$DIMTP
 40
0.0
  9
$DIMTM
 40
0.0
  9
$DIMTXT
 40
2.5
  9
$DIMCEN
 40
2.5
  9
$DIMTSZ
 40
0.0
  9
$DIMTOL
 70
     0
  9
$DIMLIM
 70
     0
  9
$DIMTIH
 70
     0
  9
$DIMTOH
 70
     0
  9
$DIMSE1
 70
     0
  9
$DIMSE2
 70
     0
  9
$DIMTAD
 70
     1
  9
$DIMZIN
 70
     8
  9
$DIMBLK
  1

  9
$DIMASO
 70
     1
  9
$DIMSHO
 70
     1
  9
$DIMPOST
  1

  9
$DIMAPOST
  1

  9
$DIMALT
 70
     0
  9
$DIMALTD
 70
     3
  9
$DIMALTF
 40
0.03937007874016
  9
$DIMLFAC
 40
1.0
  9
$DIMTOFL
 70
     1
  9
$DIMTVP
 40
0.7
  9
$DIMTIX
 70
     1
  9
$DIMSOXD
 70
     0
  9
$DIMSAH
 70
     0
  9
$DIMBLK1
  1

  9
$DIMBLK2
  1

  9
$DIMSTYLE
  2
ADD
  9
$DIMCLRD
 70
   144
  9
$DIMCLRE
 70
   144
  9
$DIMCLRT
 70
     7
  9
$DIMTFAC
 40
1.0
  9
$DIMGAP
 40
0.625
  9
$DIMJUST
 70
     0
  9
$DIMSD1
 70
     0
  9
$DIMSD2
 70
     0
  9
$DIMTOLJ
 70
     2
  9
$DIMTZIN
 70
     8
  9
$DIMALTZ
 70
     0
  9
$DIMALTTZ
 70
     0
  9
$DIMFIT
 70
     5
  9
$DIMUPT
 70
     0
  9
$DIMUNIT
 70
     2
  9
$DIMDEC
 70
     1
  9
$DIMTDEC
 70
     1
  9
$DIMALTU
 70
     2
  9
$DIMALTTD
 70
     3
  9
$DIMTXSTY
  7
ADD
  9
$DIMAUNIT
 70
     0
  9
$LUNITS
 70
     2
  9
$LUPREC
 70
     4
  9
$SKETCHINC
 40
1.0
  9
$FILLETRAD
 40
0.0
  9
$AUNITS
 70
     0
  9
$AUPREC
 70
     1
  9
$MENU
  1
.
  9
$ELEVATION
 40
0.0
  9
$PELEVATION
 40
0.0
  9
$THICKNESS
 40
0.0
  9
$LIMCHECK
 70
     0
  9
$BLIPMODE
 70
     0
  9
$CHAMFERA
 40
20.0
  9
$CHAMFERB
 40
20.0
  9
$CHAMFERC
 40
20.0
  9
$CHAMFERD
 40
0.0
  9
$SKPOLY
 70
     0
  9
$TDCREATE
 40
2451801.605911169
  9
$TDUPDATE
 40
2451865.564398322
  9
$TDINDWG
 40
0.0621096296
  9
$TDUSRTIMER
 40
0.0621096296
  9
$USRTIMER
 70
     1
  9
$ANGBASE
 50
0.0
  9
$ANGDIR
 70
     0
  9
$PDMODE
 70
     0
  9
$PDSIZE
 40
0.0
  9
$PLINEWID
 40
0.0
  9
$COORDS
 70
     2
  9
$SPLFRAME
 70
     0
  9
$SPLINETYPE
 70
     6
  9
$SPLINESEGS
 70
     8
  9
$ATTDIA
 70
     0
  9
$ATTREQ
 70
     1
  9
$HANDLING
 70
 10241
  9
$HANDSEED
  5
1110
  9
$SURFTAB1
 70
     6
  9
$SURFTAB2
 70
     6
  9
$SURFTYPE
 70
     6
  9
$SURFU
 70
     6
  9
$SURFV
 70
     6
  9
$UCSNAME
  2

  9
$UCSORG
 10
0.0
 20
0.0
 30
0.0
  9
$UCSXDIR
 10
1.0
 20
0.0
 30
0.0
  9
$UCSYDIR
 10
0.0
 20
1.0
 30
0.0
  9
$PUCSNAME
  2

  9
$PUCSORG
 10
0.0
 20
0.0
 30
0.0
  9
$PUCSXDIR
 10
1.0
 20
0.0
 30
0.0
  9
$PUCSYDIR
 10
0.0
 20
1.0
 30
0.0
  9
$USERI1
 70
     0
  9
$USERI2
 70
     0
  9
$USERI3
 70
     0
  9
$USERI4
 70
     0
  9
$USERI5
 70
     0
  9
$USERR1
 40
841.0
  9
$USERR2
 40
594.0
  9
$USERR3
 40
1.0
  9
$USERR4
 40
0.0
  9
$USERR5
 40
0.0
  9
$WORLDVIEW
 70
     1
  9
$SHADEDGE
 70
     3
  9
$SHADEDIF
 70
    70
  9
$TILEMODE
 70
     1
  9
$MAXACTVP
 70
    48
  9
$PINSBASE
 10
0.0
 20
0.0
 30
0.0
  9
$PLIMCHECK
 70
     0
  9
$PEXTMIN
 10
-5.662975978526674
 20
-6.331907780761866
 30
-0.0015258207003583
  9
$PEXTMAX
 10
834.4213426047982
 20
560.9663709967471
 30
0.0000000349246037
  9
$PLIMMIN
 10
-7.500000000000001
 20
-20.0
  9
$PLIMMAX
 10
833.5000000000002
 20
574.0000000000001
  9
$UNITMODE
 70
     0
  9
$VISRETAIN
 70
     1
  9
$PLINEGEN
 70
     0
  9
$PSLTSCALE
 70
     1
  9
$TREEDEPTH
 70
  3020
  9
$PICKSTYLE
 70
     1
  9
$CMLSTYLE
  2
STANDARD
  9
$CMLJUST
 70
     0
  9
$CMLSCALE
 40
20.0
  9
$SAVEIMAGES
 70
     1
  0
ENDSEC
  0
SECTION
  2
CLASSES
  0
CLASS
  1
ACDBDICTIONARYWDFLT
  2
AcDbDictionaryWithDefault
  3
AutoCAD 2000
 90
    32768
280
     0
281
     0
  0
CLASS
  1
ACDBPLACEHOLDER
  2
AcDbPlaceHolder
  3
AutoCAD 2000
 90
    32768
280
     0
281
     0
  0
CLASS
  1
LAYOUT
  2
AcDbLayout
  3
AutoCAD 2000
 90
    32768
280
     0
281
     0
  0
CLASS
  1
RTEXT
  2
RText
  3
RText|AutoCAD Express Tool|expresstools@autodesk.com
 90
    32768
280
     0
281
     1
  0
CLASS
  1
DICTIONARYVAR
  2
AcDbDictionaryVar
  3
AutoCAD 2000
 90
    32768
280
     0
281
     0
  0
CLASS
  1
LONG_TRANSACTION
  2
AcDbLongTransaction
  3
AutoCAD 2000
 90
    32768
280
     0
281
     0
  0
CLASS
  1
LWPOLYLINE
  2
AcDbPolyline
  3
AutoCAD 2000
 90
    32768
280
     0
281
     1
  0
CLASS
  1
HATCH
  2
AcDbHatch
  3
AutoCAD 2000
 90
    32768
280
     0
281
     1
  0
CLASS
  1
XRECORD
  2
AcDbXrecord
  3
AutoCAD 2000
 90
    32768
280
     0
281
     0
  0
CLASS
  1
LONG_TRANSACTION
  2
AcDbLongTransaction
  3
AutoCAD 2000
 90
    32768
280
     0
281
     0
  0
CLASS
  1
LWPOLYLINE
  2
AcDbPolyline
  3
AutoCAD 2000
 90
    32768
280
     0
281
     1
  0
CLASS
  1
HATCH
  2
AcDbHatch
  3
AutoCAD 2000
 90
    32768
280
     0
281
     1
  0
CLASS
  1
XRECORD
  2
AcDbXrecord
  3
AutoCAD 2000
 90
    32768
280
     0
281
     0
  0
CLASS
  1
LONG_TRANSACTION
  2
AcDbLongTransaction
  3
AutoCAD 2000
 90
    32768
280
     0
281
     0
  0
CLASS
  1
LWPOLYLINE
  2
AcDbPolyline
  3
AutoCAD 2000
 90
    32768
280
     0
281
     1
  0
CLASS
  1
HATCH
  2
AcDbHatch
  3
AutoCAD 2000
 90
    32768
280
     0
281
     1
  0
CLASS
  1
XRECORD
  2
AcDbXrecord
  3
AutoCAD 2000
 90
    32768
280
     0
281
     0
  0
ENDSEC
  0
SECTION
  2
TABLES
  0
TABLE
  2
VPORT
  5
8
330
0
100
AcDbSymbolTable
 70
     2
  0
VPORT
  5
10EC
330
8
100
AcDbSymbolTableRecord
100
AcDbViewportTableRecord
  2
*ACTIVE
 70
     0
 10
0.0
 20
0.0
 11
1.0
 21
1.0
 12
4410.194531106006
 22
2970.000013830139
 13
0.0
 23
0.0
 14
10.0
 24
10.0
 15
10.0
 25
10.0
 16
0.0
 26
0.0
 36
1.0
 17
0.0
 27
0.0
 37
0.0
 40
5986.65108817007
 41
1.496749024707412
 42
50.0
 43
0.0
 44
0.0
 50
0.0
 51
0.0
 71
     0
 72
   100
 73
     1
 74
     1
 75
     0
 76
     0
 77
     0
 78
     0
  0
ENDTAB
  0
TABLE
  2
LTYPE
  5
5
330
0
100
AcDbSymbolTable
 70
     5
  0
LTYPE
  5
14
330
5
100
AcDbSymbolTableRecord
100
AcDbLinetypeTableRecord
  2
BYBLOCK
 70
     0
  3

 72
    65
 73
     0
 40
0.0
  0
LTYPE
  5
15
330
5
100
AcDbSymbolTableRecord
100
AcDbLinetypeTableRecord
  2
BYLAYER
 70
     0
  3

 72
    65
 73
     0
 40
0.0
  0
LTYPE
  5
16
330
5
100
AcDbSymbolTableRecord
100
AcDbLinetypeTableRecord
  2
CONTINUOUS
 70
     0
  3
Solid line
 72
    65
 73
     0
 40
0.0
  0
LTYPE
  5
555
330
5
100
AcDbSymbolTableRecord
100
AcDbLinetypeTableRecord
  2
CENTER
 70
     0
  3
Center ____ _ ____ _ ____ _ ____ _ ____ _ ____
 72
    65
 73
     4
 40
50.8
 49
31.75
 74
     0
 49
-6.349999999999999
 74
     0
 49
6.349999999999999
 74
     0
 49
-6.349999999999999
 74
     0
  0
LTYPE
  5
556
330
5
100
AcDbSymbolTableRecord
100
AcDbLinetypeTableRecord
  2
HIDDEN
 70
     0
  3
Hidden __ __ __ __ __ __ __ __ __ __ __ __ __ _
 72
    65
 73
     2
 40
9.524999999999998
 49
6.349999999999999
 74
     0
 49
-3.174999999999999
 74
     0
  0
LTYPE
  5
557
330
5
100
AcDbSymbolTableRecord
100
AcDbLinetypeTableRecord
  2
HIDDEN2
 70
     0
  3
Hidden (.5x) _ _ _ _ _ _ _ _ _ _ _ _ _ _ _ _ _
 72
    65
 73
     2
 40
4.762499999999999
 49
3.174999999999999
 74
     0
 49
-1.587499999999999
 74
     0
  0
LTYPE
  5
558
330
5
100
AcDbSymbolTableRecord
100
AcDbLinetypeTableRecord
  2
PHANTOM
 70
     0
  3
Phantom ______  __  __  ______  __  __  ______
 72
    65
 73
     6
 40
63.5
 49
31.75
 74
     0
 49
-6.349999999999999
 74
     0
 49
6.349999999999999
 74
     0
 49
-6.349999999999999
 74
     0
 49
6.349999999999999
 74
     0
 49
-6.349999999999999
 74
     0
  0
ENDTAB
  0
TABLE
  2
LAYER
  5
2
330
0
100
AcDbSymbolTable
 70
    22
  0
LAYER
  5
10
330
2
100
AcDbSymbolTableRecord
100
AcDbLayerTableRecord
  2
0
 70
     0
 62
     7
  6
CONTINUOUS
  0
LAYER
  5
75
330
2
100
AcDbSymbolTableRecord
100
AcDbLayerTableRecord
  2
VIEWPORT
 70
     0
 62
     1
  6
CONTINUOUS
  0
LAYER
  5
504
330
2
100
AcDbSymbolTableRecord
100
AcDbLayerTableRecord
  2
DEFPOINTS
 70
     0
 62
     7
  6
CONTINUOUS
  0
LAYER
  5
505
330
2
100
AcDbSymbolTableRecord
100
AcDbLayerTableRecord
  2
1C1
 70
     0
 62
   254
  6
CONTINUOUS
  0
LAYER
  5
506
330
2
100
AcDbSymbolTableRecord
100
AcDbLayerTableRecord
  2
1C2
 70
     0
 62
   254
  6
CONTINUOUS
  0
LAYER
  5
507
330
2
100
AcDbSymbolTableRecord
100
AcDbLayerTableRecord
  2
2C1
 70
     0
 62
   144
  6
CONTINUOUS
  0
LAYER
  5
508
330
2
100
AcDbSymbolTableRecord
100
AcDbLayerTableRecord
  2
2C2
 70
     0
 62
   144
  6
CONTINUOUS
  0
LAYER
  5
509
330
2
100
AcDbSymbolTableRecord
100
AcDbLayerTableRecord
  2
2H1
 70
     0
 62
   144
  6
HIDDEN
  0
LAYER
  5
50A
330
2
100
AcDbSymbolTableRecord
100
AcDbLayerTableRecord
  2
2H2
 70
     0
 62
   144
  6
HIDDEN2
  0
LAYER
  5
50B
330
2
100
AcDbSymbolTableRecord
100
AcDbLayerTableRecord
  2
2P1
 70
     0
 62
   144
  6
PHANTOM
  0
LAYER
  5
50C
330
2
100
AcDbSymbolTableRecord
100
AcDbLayerTableRecord
  2
3C1
 70
     0
 62
     7
  6
CONTINUOUS
  0
LAYER
  5
50D
330
2
100
AcDbSymbolTableRecord
100
AcDbLayerTableRecord
  2
3C2
 70
     0
 62
     7
  6
CONTINUOUS
  0
LAYER
  5
50E
330
2
100
AcDbSymbolTableRecord
100
AcDbLayerTableRecord
  2
3C3
 70
     0
 62
     7
  6
CONTINUOUS
  0
LAYER
  5
50F
330
2
100
AcDbSymbolTableRecord
100
AcDbLayerTableRecord
  2
4H1
 70
     0
 62
     6
  6
HIDDEN
  0
LAYER
  5
510
330
2
100
AcDbSymbolTableRecord
100
AcDbLayerTableRecord
  2
4H2
 70
     0
 62
     6
  6
HIDDEN2
  0
LAYER
  5
511
330
2
100
AcDbSymbolTableRecord
100
AcDbLayerTableRecord
  2
5C1
 70
     0
 62
    55
  6
CONTINUOUS
  0
LAYER
  5
512
330
2
100
AcDbSymbolTableRecord
100
AcDbLayerTableRecord
  2
5C2
 70
     0
 62
    55
  6
CONTINUOUS
  0
LAYER
  5
513
330
2
100
AcDbSymbolTableRecord
100
AcDbLayerTableRecord
  2
8C1
 70
     0
 62
    92
  6
CONTINUOUS
  0
LAYER
  5
514
330
2
100
AcDbSymbolTableRecord
100
AcDbLayerTableRecord
  2
HOJO
 70
     0
 62
     5
  6
CONTINUOUS
  0
LAYER
  5
515
330
2
100
AcDbSymbolTableRecord
100
AcDbLayerTableRecord
  2
KIJUN
 70
     0
 62
     1
  6
CENTER
  0
LAYER
  5
516
330
2
100
AcDbSymbolTableRecord
100
AcDbLayerTableRecord
  2
MOJI
 70
     0
 62
     7
  6
CONTINUOUS
  0
LAYER
  5
517
330
2
100
AcDbSymbolTableRecord
100
AcDbLayerTableRecord
  2
SUNPO
 70
     0
 62
   144
  6
CONTINUOUS
  0
ENDTAB
  0
TABLE
  2
STYLE
  5
3
330
0
100
AcDbSymbolTable
 70
     7
  0
STYLE
  5
11
330
3
100
AcDbSymbolTableRecord
100
AcDbTextStyleTableRecord
  2
STANDARD
 70
     0
 40
0.0
 41
1.0
 50
0.0
 71
     0
 42
2.5
  3
txt
  4

  0
STYLE
  5
2C
330
3
100
AcDbSymbolTableRecord
100
AcDbTextStyleTableRecord
  2

 70
     1
 40
0.0
 41
1.0
 50
0.0
 71
     0
 42
2.5
  3
ltypeshp.shx
  4

  0
STYLE
  5
18E
330
3
100
AcDbSymbolTableRecord
100
AcDbTextStyleTableRecord
  2
ADD
 70
     0
 40
0.0
 41
1.0
 50
0.0
 71
     0
 42
50.0
  3
romans.shx
  4
bigfont.shx
  0
STYLE
  5
191
330
3
100
AcDbSymbolTableRecord
100
AcDbTextStyleTableRecord
  2
MSG
 70
     0
 40
0.0
 41
1.0
 50
0.0
 71
     0
 42
2.5
  3
MS Gothic.ttf
  4

1001
ACAD
1000
MS Gothic
1071
    32817
  0
STYLE
  5
5C8
330
3
100
AcDbSymbolTableRecord
100
AcDbTextStyleTableRecord
  2
STANDARD15
 70
     0
 40
0.0
 41
1.0
 50
15.0
 71
     0
 42
2.5
  3
ROMANS
  4
bigfont
  0
STYLE
  5
5C9
330
3
100
AcDbSymbolTableRecord
100
AcDbTextStyleTableRecord
  2
ROMANS15
 70
     0
 40
0.0
 41
1.0
 50
15.0
 71
     0
 42
2.5
  3
romans
  4

  0
STYLE
  5
5CA
330
3
100
AcDbSymbolTableRecord
100
AcDbTextStyleTableRecord
  2
STANDARD2
 70
     0
 40
0.0
 41
1.0
 50
0.0
 71
     0
 42
2.5
  3
romans.shx
  4
bigfont.shx
  0
ENDTAB
  0
TABLE
  2
VIEW
  5
6
330
0
100
AcDbSymbolTable
 70
     1
  0
VIEW
  5
54D
330
6
100
AcDbSymbolTableRecord
100
AcDbViewTableRecord
  2
ALL
 70
     0
 40
594.0
 10
420.5
 20
297.0
 41
865.125
 11
0.0
 21
0.0
 31
1.0
 12
0.0
 22
0.0
 32
0.0
 42
50.0
 43
0.0
 44
0.0
 50
0.0
 71
     0
  0
ENDTAB
  0
TABLE
  2
UCS
  5
7
330
0
100
AcDbSymbolTable
 70
     0
  0
ENDTAB
  0
TABLE
  2
APPID
  5
9
330
0
100
AcDbSymbolTable
 70
     4
  0
APPID
  5
12
330
9
100
AcDbSymbolTableRecord
100
AcDbRegAppTableRecord
  2
ACAD
 70
     0
  0
APPID
  5
5CB
330
9
100
AcDbSymbolTableRecord
100
AcDbRegAppTableRecord
  2
ARAIGUMI_YOHEKI
 70
     0
  0
APPID
  5
5CC
330
9
100
AcDbSymbolTableRecord
100
AcDbRegAppTableRecord
  2
CONTENTTABDATA
 70
     0
  0
APPID
  5
5CD
330
9
100
AcDbSymbolTableRecord
100
AcDbRegAppTableRecord
  2
CONTENTCURRENTTAB
 70
     0
  0
ENDTAB
  0
TABLE
  2
DIMSTYLE
  5
A
330
0
100
AcDbSymbolTable
 70
    10
  0
DIMSTYLE
105
27
330
A
100
AcDbSymbolTableRecord
100
AcDbDimStyleTableRecord
  2
ISO-25
 70
     0
  3

  4

  5

  6

  7

 40
1.0
 41
2.5
 42
0.625
 43
3.75
 44
1.25
 45
0.0
 46
0.0
 47
0.0
 48
0.0
140
2.5
141
2.5
142
0.0
143
0.03937007874016
144
1.0
145
0.0
146
1.0
147
0.625
 71
     0
 72
     0
 73
     0
 74
     0
 75
     0
 76
     0
 77
     1
 78
     8
170
     0
171
     3
172
     1
173
     0
174
     0
175
     0
176
     0
177
     0
178
     0
270
     2
271
     2
272
     2
273
     2
274
     3
340
11
275
     0
280
     0
281
     0
282
     0
283
     0
284
     8
285
     0
286
     0
287
     3
288
     0
  0
DIMSTYLE
105
197
330
A
100
AcDbSymbolTableRecord
100
AcDbDimStyleTableRecord
  2
ADD
 70
     0
  3

  4

  5

  6

  7

 40
1.0
 41
2.5
 42
1.0
 43
7.0
 44
0.5
 45
0.0
 46
0.0
 47
0.0
 48
0.0
140
2.5
141
2.5
142
0.0
143
0.03937007874016
144
1.0
145
0.7
146
1.0
147
0.625
 71
     0
 72
     0
 73
     0
 74
     0
 75
     0
 76
     0
 77
     1
 78
     8
170
     0
171
     3
172
     1
173
     0
174
     1
175
     0
176
   144
177
   144
178
     7
270
     2
271
     1
272
     1
273
     2
274
     3
340
18E
275
     0
280
     0
281
     0
282
     0
283
     2
284
     8
285
     0
286
     0
287
     5
288
     0
  0
DIMSTYLE
105
3E6
330
A
100
AcDbSymbolTableRecord
100
AcDbDimStyleTableRecord
  2
ADD$2
 70
     0
  3

  4

  5

  6

  7

 40
1.0
 41
2.5
 42
1.0
 43
7.0
 44
0.5
 45
0.0
 46
0.0
 47
0.0
 48
0.0
140
2.5
141
2.5
142
0.0
143
0.03937007874016
144
1.0
145
0.7
146
1.0
147
0.625
 71
     0
 72
     0
 73
     0
 74
     0
 75
     0
 76
     0
 77
     1
 78
     8
170
     0
171
     3
172
     1
173
     0
174
     1
175
     0
176
   144
177
   144
178
     7
270
     2
271
     1
272
     1
273
     2
274
     3
340
18E
275
     0
280
     0
281
     0
282
     0
283
     2
284
     8
285
     0
286
     0
287
     5
288
     0
  0
DIMSTYLE
105
3E7
330
A
100
AcDbSymbolTableRecord
100
AcDbDimStyleTableRecord
  2
ADD$4
 70
     0
  3

  4

  5

  6

  7

 40
1.0
 41
2.5
 42
1.0
 43
7.0
 44
0.5
 45
0.0
 46
0.0
 47
0.0
 48
0.0
140
2.5
141
2.5
142
0.0
143
0.03937007874016
144
1.0
145
0.0
146
1.0
147
0.625
 71
     0
 72
     0
 73
     0
 74
     0
 75
     0
 76
     0
 77
     1
 78
     8
170
     0
171
     3
172
     1
173
     0
174
     1
175
     0
176
   144
177
   144
178
     7
270
     2
271
     1
272
     1
273
     2
274
     3
340
18E
275
     0
280
     0
281
     0
282
     0
283
     2
284
     8
285
     0
286
     0
287
     5
288
     0
  0
DIMSTYLE
105
3E8
330
A
100
AcDbSymbolTableRecord
100
AcDbDimStyleTableRecord
  2
ADD$3
 70
     0
  3

  4

  5

  6

  7

 40
1.0
 41
2.5
 42
1.0
 43
7.0
 44
0.5
 45
0.0
 46
0.0
 47
0.0
 48
0.0
140
2.5
141
2.5
142
0.0
143
0.03937007874016
144
1.0
145
0.0
146
1.0
147
0.625
 71
     0
 72
     0
 73
     0
 74
     0
 75
     0
 76
     0
 77
     1
 78
     8
170
     0
171
     3
172
     1
173
     0
174
     1
175
     0
176
   144
177
   144
178
     7
270
     2
271
     1
272
     1
273
     2
274
     3
340
18E
275
     0
280
     0
281
     0
282
     0
283
     2
284
     8
285
     0
286
     0
287
     5
288
     0
  0
DIMSTYLE
105
3E9
330
A
100
AcDbSymbolTableRecord
100
AcDbDimStyleTableRecord
  2
ADD$6
 70
     0
  3

  4

  5

  6

  7

 40
1.0
 41
2.5
 42
1.0
 43
7.0
 44
0.5
 45
0.0
 46
0.0
 47
0.0
 48
0.0
140
2.5
141
2.5
142
0.0
143
0.03937007874016
144
1.0
145
0.0
146
1.0
147
0.625
 71
     0
 72
     0
 73
     0
 74
     0
 75
     0
 76
     0
 77
     1
 78
     8
170
     0
171
     3
172
     1
173
     0
174
     1
175
     0
176
   144
177
   144
178
     7
270
     2
271
     1
272
     1
273
     2
274
     3
340
18E
275
     0
280
     0
281
     0
282
     0
283
     2
284
     8
285
     0
286
     0
287
     5
288
     0
  0
DIMSTYLE
105
3EA
330
A
100
AcDbSymbolTableRecord
100
AcDbDimStyleTableRecord
  2
ADD$7
 70
     0
  3

  4

  5

  6

  7

 40
1.0
 41
2.5
 42
1.0
 43
7.0
 44
0.5
 45
0.0
 46
0.0
 47
0.0
 48
0.0
140
2.5
141
2.5
142
0.0
143
0.03937007874016
144
1.0
145
0.0
146
1.0
147
0.625
 71
     0
 72
     0
 73
     0
 74
     0
 75
     0
 76
     0
 77
     0
 78
     8
170
     0
171
     3
172
     1
173
     0
174
     1
175
     0
176
   144
177
   144
178
     7
270
     2
271
     1
272
     1
273
     2
274
     3
340
18E
275
     0
280
     0
281
     0
282
     0
283
     2
284
     8
285
     0
286
     0
287
     5
288
     0
  0
DIMSTYLE
105
518
330
A
100
AcDbSymbolTableRecord
100
AcDbDimStyleTableRecord
  2
STANDARD
 70
     0
  3

  4

  5

  6

  7

 40
1.0
 41
0.18
 42
0.0625
 43
0.38
 44
0.18
 45
0.0
 46
0.0
 47
0.0
 48
0.0
140
0.18
141
0.09
142
0.0
143
25.4
144
1.0
145
0.0
146
1.0
147
0.09
 71
     0
 72
     0
 73
     1
 74
     1
 75
     0
 76
     0
 77
     0
 78
     0
170
     0
171
     2
172
     0
173
     0
174
     0
175
     0
176
     0
177
     0
178
     0
270
     2
271
     4
272
     4
273
     2
274
     2
340
11
275
     0
280
     0
281
     0
282
     0
283
     1
284
     0
285
     0
286
     0
287
     3
288
     0
  0
DIMSTYLE
105
550
102
{ACAD_REACTORS
330
F1D
330
7ED
330
7DE
330
72E
330
721
330
714
330
707
330
6FA
330
6ED
330
6E0
330
6D3
330
6C6
330
6A3
330
694
330
685
330
670
330
663
330
656
330
649
102
}
330
A
100
AcDbSymbolTableRecord
100
AcDbDimStyleTableRecord
  2
ADD$0
 70
     0
  3

  4

  5

  6

  7

 40
1.0
 41
0.7
 42
1.0
 43
7.0
 44
0.5
 45
0.0
 46
0.0
 47
0.0
 48
0.0
140
2.5
141
2.5
142
0.0
143
0.03937007874016
144
1.0
145
0.7
146
1.0
147
0.625
 71
     0
 72
     0
 73
     0
 74
     0
 75
     0
 76
     0
 77
     1
 78
     8
170
     0
171
     3
172
     1
173
     0
174
     0
175
     0
176
   144
177
   144
178
     7
270
     2
271
     1
272
     1
273
     2
274
     3
340
18E
275
     0
280
     0
281
     0
282
     0
283
     2
284
     8
285
     0
286
     0
287
     5
288
     0
  0
DIMSTYLE
105
59B
330
A
100
AcDbSymbolTableRecord
100
AcDbDimStyleTableRecord
  2
ADD_M
 70
     0
  3

  4

  5

  6

  7

 40
1.0
 41
2.5
 42
1.0
 43
7.0
 44
0.5
 45
0.0
 46
0.0
 47
0.0
 48
0.0
140
2.5
141
2.5
142
0.0
143
0.03937007874016
144
1.0
145
0.7
146
1.0
147
0.625
 71
     0
 72
     0
 73
     0
 74
     0
 75
     0
 76
     0
 77
     1
 78
     8
170
     0
171
     3
172
     1
173
     0
174
     1
175
     0
176
   144
177
   144
178
     7
270
     2
271
     1
272
     1
273
     2
274
     3
340
18E
275
     0
280
     0
281
     0
282
     0
283
     2
284
     8
285
     0
286
     0
287
     5
288
     0
  0
ENDTAB
  0
TABLE
  2
BLOCK_RECORD
  5
1
330
0
100
AcDbSymbolTable
 70
    23
  0
BLOCK_RECORD
  5
1F
102
{ACAD_XDICTIONARY
360
F33
102
}
330
1
100
AcDbSymbolTableRecord
100
AcDbBlockTableRecord
  2
*MODEL_SPACE
  0
BLOCK_RECORD
  5
1B
102
{ACAD_XDICTIONARY
360
F35
102
}
330
1
100
AcDbSymbolTableRecord
100
AcDbBlockTableRecord
  2
*PAPER_SPACE
  0
BLOCK_RECORD
  5
192
330
1
100
AcDbSymbolTableRecord
100
AcDbBlockTableRecord
  2
_DOT
  0
BLOCK_RECORD
  5
5CE
330
1
100
AcDbSymbolTableRecord
100
AcDbBlockTableRecord
  2
A3
  0
BLOCK_RECORD
  5
5D6
330
1
100
AcDbSymbolTableRecord
100
AcDbBlockTableRecord
  2
A4
  0
BLOCK_RECORD
  5
5DB
330
1
100
AcDbSymbolTableRecord
100
AcDbBlockTableRecord
  2
A4YOKO
1001
ACAD
1000
DesignCenter Data
1002
{
1070
     1
1070
     4
1002
}
  0
BLOCK_RECORD
  5
64A
330
1
100
AcDbSymbolTableRecord
100
AcDbBlockTableRecord
  2
*D4
  0
BLOCK_RECORD
  5
657
330
1
100
AcDbSymbolTableRecord
100
AcDbBlockTableRecord
  2
*D5
  0
BLOCK_RECORD
  5
664
330
1
100
AcDbSymbolTableRecord
100
AcDbBlockTableRecord
  2
*D6
  0
BLOCK_RECORD
  5
671
330
1
100
AcDbSymbolTableRecord
100
AcDbBlockTableRecord
  2
*D7
  0
BLOCK_RECORD
  5
686
330
1
100
AcDbSymbolTableRecord
100
AcDbBlockTableRecord
  2
*D8
  0
BLOCK_RECORD
  5
695
330
1
100
AcDbSymbolTableRecord
100
AcDbBlockTableRecord
  2
*D9
  0
BLOCK_RECORD
  5
6A4
330
1
100
AcDbSymbolTableRecord
100
AcDbBlockTableRecord
  2
*D10
  0
BLOCK_RECORD
  5
6C7
330
1
100
AcDbSymbolTableRecord
100
AcDbBlockTableRecord
  2
*D11
  0
BLOCK_RECORD
  5
6D4
330
1
100
AcDbSymbolTableRecord
100
AcDbBlockTableRecord
  2
*D12
  0
BLOCK_RECORD
  5
6E1
330
1
100
AcDbSymbolTableRecord
100
AcDbBlockTableRecord
  2
*D13
  0
BLOCK_RECORD
  5
6EE
330
1
100
AcDbSymbolTableRecord
100
AcDbBlockTableRecord
  2
*D14
  0
BLOCK_RECORD
  5
6FB
330
1
100
AcDbSymbolTableRecord
100
AcDbBlockTableRecord
  2
*D15
  0
BLOCK_RECORD
  5
708
330
1
100
AcDbSymbolTableRecord
100
AcDbBlockTableRecord
  2
*D16
  0
BLOCK_RECORD
  5
715
330
1
100
AcDbSymbolTableRecord
100
AcDbBlockTableRecord
  2
*D17
  0
BLOCK_RECORD
  5
722
330
1
100
AcDbSymbolTableRecord
100
AcDbBlockTableRecord
  2
*D18
  0
BLOCK_RECORD
  5
72F
330
1
100
AcDbSymbolTableRecord
100
AcDbBlockTableRecord
  2
*D19
  0
BLOCK_RECORD
  5
7DF
330
1
100
AcDbSymbolTableRecord
100
AcDbBlockTableRecord
  2
*D20
  0
BLOCK_RECORD
  5
7EE
330
1
100
AcDbSymbolTableRecord
100
AcDbBlockTableRecord
  2
*D21
  0
BLOCK_RECORD
  5
F1E
330
1
100
AcDbSymbolTableRecord
100
AcDbBlockTableRecord
  2
*D22
  0
ENDTAB
  0
ENDSEC
  0
SECTION
  2
BLOCKS
  0
BLOCK
  5
20
330
1F
100
AcDbEntity
  8
0
100
AcDbBlockBegin
  2
*MODEL_SPACE
 70
     0
 10
0.0
 20
0.0
 30
0.0
  3
*MODEL_SPACE
  1

  0
ENDBLK
  5
21
330
1F
100
AcDbEntity
  8
0
100
AcDbBlockEnd
  0
BLOCK
  5
1C
330
1B
100
AcDbEntity
 67
     1
  8
0
100
AcDbBlockBegin
  2
*PAPER_SPACE
 70
     0
 10
0.0
 20
0.0
 30
0.0
  3
*PAPER_SPACE
  1

  0
ENDBLK
  5
1D
330
1B
100
AcDbEntity
 67
     1
  8
0
100
AcDbBlockEnd
  0
BLOCK
  5
195
330
192
100
AcDbEntity
  8
0
100
AcDbBlockBegin
  2
_DOT
 70
     0
 10
0.0
 20
0.0
 30
0.0
  3
_DOT
  1

  0
POLYLINE
  5
193
330
192
100
AcDbEntity
  8
0
 62
     0
100
AcDb2dPolyline
 66
     1
 10
0.0
 20
0.0
 30
0.0
 70
     1
 40
0.5
 41
0.5
  0
VERTEX
  5
10EF
330
193
100
AcDbEntity
  8
0
 62
     0
100
AcDbVertex
100
AcDb2dVertex
 10
-0.25
 20
0.0
 30
0.0
 42
1.0
  0
VERTEX
  5
10F0
330
193
100
AcDbEntity
  8
0
 62
     0
100
AcDbVertex
100
AcDb2dVertex
 10
0.25
 20
0.0
 30
0.0
 42
1.0
  0
SEQEND
  5
10F1
330
193
100
AcDbEntity
  8
0
 62
     0
  0
LINE
  5
194
330
192
100
AcDbEntity
  8
0
 62
     0
100
AcDbLine
 10
-0.5
 20
0.0
 30
0.0
 11
-1.0
 21
0.0
 31
0.0
  0
ENDBLK
  5
196
330
192
100
AcDbEntity
  8
0
100
AcDbBlockEnd
  0
BLOCK
  5
5D1
330
5CE
100
AcDbEntity
  8
0
100
AcDbBlockBegin
  2
A3
 70
     0
 10
0.0
 20
0.0
 30
0.0
  3
A3
  1

  0
POLYLINE
  5
5CF
330
5CE
100
AcDbEntity
  8
HOJO
100
AcDb2dPolyline
 66
     1
 10
0.0
 20
0.0
 30
0.0
 70
     1
  0
VERTEX
  5
10F2
330
5CF
100
AcDbEntity
  8
HOJO
100
AcDbVertex
100
AcDb2dVertex
 10
0.0
 20
0.0
 30
0.0
  0
VERTEX
  5
10F3
330
5CF
100
AcDbEntity
  8
HOJO
100
AcDbVertex
100
AcDb2dVertex
 10
420.0
 20
0.0
 30
0.0
  0
VERTEX
  5
10F4
330
5CF
100
AcDbEntity
  8
HOJO
100
AcDbVertex
100
AcDb2dVertex
 10
420.0
 20
297.0
 30
0.0
  0
VERTEX
  5
10F5
330
5CF
100
AcDbEntity
  8
HOJO
100
AcDbVertex
100
AcDb2dVertex
 10
0.0
 20
297.0
 30
0.0
  0
SEQEND
  5
10F6
330
5CF
100
AcDbEntity
  8
HOJO
  0
POLYLINE
  5
5D0
330
5CE
100
AcDbEntity
  8
HOJO
100
AcDb2dPolyline
 66
     1
 10
0.0
 20
0.0
 30
0.0
 70
     1
  0
VERTEX
  5
10F7
330
5D0
100
AcDbEntity
  8
HOJO
100
AcDbVertex
100
AcDb2dVertex
 10
18.0
 20
13.0
 30
0.0
  0
VERTEX
  5
10F8
330
5D0
100
AcDbEntity
  8
HOJO
100
AcDbVertex
100
AcDb2dVertex
 10
402.0
 20
13.0
 30
0.0
  0
VERTEX
  5
10F9
330
5D0
100
AcDbEntity
  8
HOJO
100
AcDbVertex
100
AcDb2dVertex
 10
402.0
 20
284.0
 30
0.0
  0
VERTEX
  5
10FA
330
5D0
100
AcDbEntity
  8
HOJO
100
AcDbVertex
100
AcDb2dVertex
 10
18.0
 20
284.0
 30
0.0
  0
SEQEND
  5
10FB
330
5D0
100
AcDbEntity
  8
HOJO
  0
ENDBLK
  5
5D2
330
5CE
100
AcDbEntity
  8
0
100
AcDbBlockEnd
  0
BLOCK
  5
5D9
330
5D6
100
AcDbEntity
  8
0
100
AcDbBlockBegin
  2
A4
 70
     0
 10
0.0
 20
0.0
 30
0.0
  3
A4
  1

  0
POLYLINE
  5
5D7
330
5D6
100
AcDbEntity
  8
HOJO
100
AcDb2dPolyline
 66
     1
 10
0.0
 20
0.0
 30
0.0
 70
     1
  0
VERTEX
  5
10FC
330
5D7
100
AcDbEntity
  8
HOJO
100
AcDbVertex
100
AcDb2dVertex
 10
0.0
 20
0.0
 30
0.0
  0
VERTEX
  5
10FD
330
5D7
100
AcDbEntity
  8
HOJO
100
AcDbVertex
100
AcDb2dVertex
 10
297.0
 20
0.0
 30
0.0
  0
VERTEX
  5
10FE
330
5D7
100
AcDbEntity
  8
HOJO
100
AcDbVertex
100
AcDb2dVertex
 10
297.0
 20
210.0
 30
0.0
  0
VERTEX
  5
10FF
330
5D7
100
AcDbEntity
  8
HOJO
100
AcDbVertex
100
AcDb2dVertex
 10
0.0
 20
210.0
 30
0.0
  0
SEQEND
  5
1100
330
5D7
100
AcDbEntity
  8
HOJO
  0
POLYLINE
  5
5D8
330
5D6
100
AcDbEntity
  8
HOJO
100
AcDb2dPolyline
 66
     1
 10
0.0
 20
0.0
 30
0.0
 70
     1
  0
VERTEX
  5
1101
330
5D8
100
AcDbEntity
  8
HOJO
100
AcDbVertex
100
AcDb2dVertex
 10
18.0
 20
13.0
 30
0.0
  0
VERTEX
  5
1102
330
5D8
100
AcDbEntity
  8
HOJO
100
AcDbVertex
100
AcDb2dVertex
 10
279.0
 20
13.0
 30
0.0
  0
VERTEX
  5
1103
330
5D8
100
AcDbEntity
  8
HOJO
100
AcDbVertex
100
AcDb2dVertex
 10
279.0
 20
197.0
 30
0.0
  0
VERTEX
  5
1104
330
5D8
100
AcDbEntity
  8
HOJO
100
AcDbVertex
100
AcDb2dVertex
 10
18.0
 20
197.0
 30
0.0
  0
SEQEND
  5
1105
330
5D8
100
AcDbEntity
  8
HOJO
  0
ENDBLK
  5
5DA
330
5D6
100
AcDbEntity
  8
0
100
AcDbBlockEnd
  0
BLOCK
  5
5E9
330
5DB
100
AcDbEntity
  8
0
100
AcDbBlockBegin
  2
A4YOKO
 70
     0
 10
0.0
 20
0.0
 30
0.0
  3
A4YOKO
  1

  0
POLYLINE
  5
5DC
330
5DB
100
AcDbEntity
  8
HOJO
100
AcDb2dPolyline
 66
     1
 10
0.0
 20
0.0
 30
0.0
 70
     1
  0
VERTEX
  5
1106
330
5DC
100
AcDbEntity
  8
HOJO
100
AcDbVertex
100
AcDb2dVertex
 10
0.0
 20
0.0
 30
0.0
  0
VERTEX
  5
1107
330
5DC
100
AcDbEntity
  8
HOJO
100
AcDbVertex
100
AcDb2dVertex
 10
5940.0
 20
0.0
 30
0.0
  0
VERTEX
  5
1108
330
5DC
100
AcDbEntity
  8
HOJO
100
AcDbVertex
100
AcDb2dVertex
 10
5940.0
 20
4200.0
 30
0.0
  0
VERTEX
  5
1109
330
5DC
100
AcDbEntity
  8
HOJO
100
AcDbVertex
100
AcDb2dVertex
 10
0.0
 20
4200.0
 30
0.0
  0
SEQEND
  5
110A
330
5DC
100
AcDbEntity
  8
HOJO
  0
POLYLINE
  5
5DD
330
5DB
100
AcDbEntity
  8
HOJO
100
AcDb2dPolyline
 66
     1
 10
0.0
 20
0.0
 30
0.0
 70
     1
  0
VERTEX
  5
110B
330
5DD
100
AcDbEntity
  8
HOJO
100
AcDbVertex
100
AcDb2dVertex
 10
360.0
 20
260.0
 30
0.0
  0
VERTEX
  5
110C
330
5DD
100
AcDbEntity
  8
HOJO
100
AcDbVertex
100
AcDb2dVertex
 10
5580.0
 20
260.0
 30
0.0
  0
VERTEX
  5
110D
330
5DD
100
AcDbEntity
  8
HOJO
100
AcDbVertex
100
AcDb2dVertex
 10
5580.0
 20
3940.0
 30
0.0
  0
VERTEX
  5
110E
330
5DD
100
AcDbEntity
  8
HOJO
100
AcDbVertex
100
AcDb2dVertex
 10
360.0
 20
3940.0
 30
0.0
  0
SEQEND
  5
110F
330
5DD
100
AcDbEntity
  8
HOJO
  0
LINE
  5
5DE
330
5DB
100
AcDbEntity
  8
HOJO
100
AcDbLine
 10
360.0
 20
260.0
 30
0.0
 11
5580.0
 21
260.0
 31
0.0
  0
LINE
  5
5DF
330
5DB
100
AcDbEntity
  8
HOJO
100
AcDbLine
 10
360.0
 20
560.0
 30
0.0
 11
5580.0
 21
560.0
 31
0.0
  0
LINE
  5
5E0
330
5DB
100
AcDbEntity
  8
HOJO
100
AcDbLine
 10
360.0
 20
260.0
 30
0.0
 11
360.0
 21
560.0
 31
0.0
  0
LINE
  5
5E1
330
5DB
100
AcDbEntity
  8
HOJO
100
AcDbLine
 10
2360.0
 20
260.0
 30
0.0
 11
2360.0
 21
560.0
 31
0.0
  0
LINE
  5
5E2
330
5DB
100
AcDbEntity
  8
HOJO
100
AcDbLine
 10
3160.0
 20
260.0
 30
0.0
 11
3160.0
 21
560.0
 31
0.0
  0
LINE
  5
5E3
330
5DB
100
AcDbEntity
  8
HOJO
100
AcDbLine
 10
3660.0
 20
260.0
 30
0.0
 11
3660.0
 21
560.0
 31
0.0
  0
MTEXT
  5
5E4
330
5DB
100
AcDbEntity
  8
MOJI
100
AcDbMText
 10
3730.870883051572
 20
452.2726133092146
 30
0.0
 40
100.0
 41
1850.299599999999
 71
     1
 72
     1
  1
千葉県コンクリート製品協同組合
  7
ADD
1001
ACAD
1000
MTEXTBEGIN
1070
    73
1070
     1
1070
    44
1040
1.0
1070
    74
1070
     0
1000
MTEXTEND
1000
MTEXTBEGIN
1070
    73
1070
     1
1070
    44
1040
1.0
1070
    74
1070
     0
1000
MTEXTEND
1000
MTEXTBEGIN
1070
    73
1070
     1
1070
    44
1040
1.0
1070
    74
1070
     0
1000
MTEXTEND
  0
MTEXT
  5
5E5
330
5DB
100
AcDbEntity
  8
MOJI
100
AcDbMText
 10
3177.510249231658
 20
538.6918916770627
 30
0.0
 40
50.0
 41
247.8594
 71
     1
 72
     1
  1
縮尺
  7
ADD
1001
ACAD
1000
MTEXTBEGIN
1070
    73
1070
     1
1070
    44
1040
1.0
1070
    74
1070
     0
1000
MTEXTEND
1000
MTEXTBEGIN
1070
    73
1070
     1
1070
    44
1040
1.0
1070
    74
1070
     0
1000
MTEXTEND
1000
MTEXTBEGIN
1070
    73
1070
     1
1070
    44
1040
1.0
1070
    74
1070
     0
1000
MTEXTEND
  0
MTEXT
  5
5E6
330
5DB
100
AcDbEntity
  8
MOJI
100
AcDbMText
 10
2376.290169028722
 20
544.4531736811823
 30
0.0
 40
50.0
 41
322.7937
 71
     1
 72
     1
  1
型式
  7
ADD
1001
ACAD
1000
MTEXTBEGIN
1070
    73
1070
     1
1070
    44
1040
1.0
1070
    74
1070
     0
1000
MTEXTEND
1000
MTEXTBEGIN
1070
    73
1070
     1
1070
    44
1040
1.0
1070
    74
1070
     0
1000
MTEXTEND
1000
MTEXTBEGIN
1070
    73
1070
     1
1070
    44
1040
1.0
1070
    74
1070
     0
1000
MTEXTEND
  0
MTEXT
  5
5E7
330
5DB
100
AcDbEntity
  8
MOJI
100
AcDbMText
 10
381.8862574011546
 20
538.6918916770627
 30
0.0
 40
50.0
 41
956.8527000000001
 71
     1
 72
     1
  1
製品名
  7
ADD
1001
ACAD
1000
MTEXTBEGIN
1070
    73
1070
     1
1070
    44
1040
1.0
1070
    74
1070
     0
1000
MTEXTEND
1000
MTEXTBEGIN
1070
    73
1070
     1
1070
    44
1040
1.0
1070
    74
1070
     0
1000
MTEXTEND
1000
MTEXTBEGIN
1070
    73
1070
     1
1070
    44
1040
1.0
1070
    74
1070
     0
1000
MTEXTEND
  0
MTEXT
  5
5E8
330
5DB
100
AcDbEntity
  8
MOJI
100
AcDbMText
 10
3246.680311730542
 20
429.2274732162223
 30
0.0
 40
70.0
 41
380.4354
 71
     1
 72
     1
  1
１／２０
  7
ADD
1001
ACAD
1000
MTEXTBEGIN
1070
    73
1070
     1
1070
    44
1040
1.0
1070
    74
1070
     0
1000
MTEXTEND
1000
MTEXTBEGIN
1070
    73
1070
     1
1070
    44
1040
1.0
1070
    74
1070
     0
1000
MTEXTEND
1000
MTEXTBEGIN
1070
    73
1070
     1
1070
    44
1040
1.0
1070
    74
1070
     0
1000
MTEXTEND
  0
ENDBLK
  5
5EA
330
5DB
100
AcDbEntity
  8
0
100
AcDbBlockEnd
  0
BLOCK
  5
654
330
64A
100
AcDbEntity
  8
0
100
AcDbBlockBegin
  2
*D4
 70
     1
 10
0.0
 20
0.0
 30
0.0
  3
*D4
  1

  0
LINE
  5
F0C
330
64A
100
AcDbEntity
  8
SUNPO
 62
   144
100
AcDbLine
 10
928.1968260856229
 20
3972.382639168392
 30
0.0
 11
928.1968260856229
 21
4630.567958017155
 31
0.0
  0
LINE
  5
F0D
330
64A
100
AcDbEntity
  8
SUNPO
 62
   144
100
AcDbLine
 10
1108.196826085622
 20
3972.382639168392
 30
0.0
 11
1108.196826085622
 21
4630.567958017155
 31
0.0
  0
LINE
  5
F0E
330
64A
100
AcDbEntity
  8
SUNPO
 62
   144
100
AcDbLine
 10
942.1968260856228
 20
4620.567958017154
 30
0.0
 11
1094.196826085622
 21
4620.567958017154
 31
0.0
  0
SOLID
  5
F0F
330
64A
100
AcDbEntity
  8
SUNPO
 62
   144
100
AcDbTrace
 10
942.1968260856228
 20
4622.901291350487
 30
0.0
 11
942.1968260856228
 21
4618.234624683821
 31
0.0
 12
928.1968260856229
 22
4620.567958017154
 32
0.0
 13
928.1968260856229
 23
4620.567958017154
 33
0.0
  0
SOLID
  5
F10
330
64A
100
AcDbEntity
  8
SUNPO
 62
   144
100
AcDbTrace
 10
1094.196826085622
 20
4622.901291350487
 30
0.0
 11
1094.196826085622
 21
4618.234624683821
 31
0.0
 12
1108.196826085622
 22
4620.567958017154
 32
0.0
 13
1108.196826085622
 23
4620.567958017154
 33
0.0
  0
MTEXT
  5
F11
330
64A
100
AcDbEntity
  8
SUNPO
 62
     7
100
AcDbMText
 10
1018.196826085622
 20
4658.067958017155
 30
0.0
 40
50.0
 41
0.0
 71
     5
 72
     1
  1
\A2;180
  7
ADD
1001
ACAD
1000
MTEXTBEGIN
1070
    73
1070
     1
1070
    44
1040
1.0
1070
    74
1070
     0
1000
MTEXTEND
1000
MTEXTBEGIN
1070
    73
1070
     1
1070
    44
1040
1.0
1070
    74
1070
     0
1000
MTEXTEND
1000
MTEXTBEGIN
1070
    73
1070
     1
1070
    44
1040
1.0
1070
    74
1070
     0
1000
MTEXTEND
  0
POINT
  5
F12
330
64A
100
AcDbEntity
  8
DEFPOINTS
 62
     0
100
AcDbPoint
 10
928.1968260856229
 20
3952.382639168392
 30
0.0
  0
POINT
  5
F13
330
64A
100
AcDbEntity
  8
DEFPOINTS
 62
     0
100
AcDbPoint
 10
1108.196826085622
 20
3952.382639168392
 30
0.0
  0
POINT
  5
F14
330
64A
100
AcDbEntity
  8
DEFPOINTS
 62
     0
100
AcDbPoint
 10
1108.196826085622
 20
4620.567958017154
 30
0.0
  0
ENDBLK
  5
655
330
64A
100
AcDbEntity
  8
0
100
AcDbBlockEnd
  0
BLOCK
  5
661
330
657
100
AcDbEntity
  8
0
100
AcDbBlockBegin
  2
*D5
 70
     1
 10
0.0
 20
0.0
 30
0.0
  3
*D5
  1

  0
LINE
  5
F03
330
657
100
AcDbEntity
  8
SUNPO
 62
   144
100
AcDbLine
 10
1708.196826085623
 20
3972.382639168392
 30
0.0
 11
1708.196826085623
 21
4630.567958017155
 31
0.0
  0
LINE
  5
F04
330
657
100
AcDbEntity
  8
SUNPO
 62
   144
100
AcDbLine
 10
1898.196826085623
 20
3972.382639168392
 30
0.0
 11
1898.196826085623
 21
4630.567958017155
 31
0.0
  0
LINE
  5
F05
330
657
100
AcDbEntity
  8
SUNPO
 62
   144
100
AcDbLine
 10
1722.196826085623
 20
4620.567958017154
 30
0.0
 11
1884.196826085623
 21
4620.567958017154
 31
0.0
  0
SOLID
  5
F06
330
657
100
AcDbEntity
  8
SUNPO
 62
   144
100
AcDbTrace
 10
1722.196826085623
 20
4622.901291350487
 30
0.0
 11
1722.196826085623
 21
4618.234624683821
 31
0.0
 12
1708.196826085623
 22
4620.567958017154
 32
0.0
 13
1708.196826085623
 23
4620.567958017154
 33
0.0
  0
SOLID
  5
F07
330
657
100
AcDbEntity
  8
SUNPO
 62
   144
100
AcDbTrace
 10
1884.196826085623
 20
4622.901291350487
 30
0.0
 11
1884.196826085623
 21
4618.234624683821
 31
0.0
 12
1898.196826085623
 22
4620.567958017154
 32
0.0
 13
1898.196826085623
 23
4620.567958017154
 33
0.0
  0
MTEXT
  5
F08
330
657
100
AcDbEntity
  8
SUNPO
 62
     7
100
AcDbMText
 10
1803.196826085622
 20
4658.067958017155
 30
0.0
 40
50.0
 41
0.0
 71
     5
 72
     1
  1
\A2;190
  7
ADD
1001
ACAD
1000
MTEXTBEGIN
1070
    73
1070
     1
1070
    44
1040
1.0
1070
    74
1070
     0
1000
MTEXTEND
1000
MTEXTBEGIN
1070
    73
1070
     1
1070
    44
1040
1.0
1070
    74
1070
     0
1000
MTEXTEND
1000
MTEXTBEGIN
1070
    73
1070
     1
1070
    44
1040
1.0
1070
    74
1070
     0
1000
MTEXTEND
  0
POINT
  5
F09
330
657
100
AcDbEntity
  8
DEFPOINTS
 62
     0
100
AcDbPoint
 10
1708.196826085623
 20
3952.382639168392
 30
0.0
  0
POINT
  5
F0A
330
657
100
AcDbEntity
  8
DEFPOINTS
 62
     0
100
AcDbPoint
 10
1898.196826085623
 20
3952.382639168392
 30
0.0
  0
POINT
  5
F0B
330
657
100
AcDbEntity
  8
DEFPOINTS
 62
     0
100
AcDbPoint
 10
1898.196826085623
 20
4620.567958017154
 30
0.0
  0
ENDBLK
  5
662
330
657
100
AcDbEntity
  8
0
100
AcDbBlockEnd
  0
BLOCK
  5
66E
330
664
100
AcDbEntity
  8
0
100
AcDbBlockBegin
  2
*D6
 70
     1
 10
0.0
 20
0.0
 30
0.0
  3
*D6
  1

  0
LINE
  5
EFA
330
664
100
AcDbEntity
  8
SUNPO
 62
   144
100
AcDbLine
 10
1898.196826085623
 20
3972.382639168392
 30
0.0
 11
1898.196826085623
 21
4630.567958017155
 31
0.0
  0
LINE
  5
EFB
330
664
100
AcDbEntity
  8
SUNPO
 62
   144
100
AcDbLine
 10
6898.196826085623
 20
3972.382639168392
 30
0.0
 11
6898.196826085623
 21
4630.567958017155
 31
0.0
  0
LINE
  5
EFC
330
664
100
AcDbEntity
  8
SUNPO
 62
   144
100
AcDbLine
 10
1912.196826085622
 20
4620.567958017154
 30
0.0
 11
6884.196826085624
 21
4620.567958017154
 31
0.0
  0
SOLID
  5
EFD
330
664
100
AcDbEntity
  8
SUNPO
 62
   144
100
AcDbTrace
 10
1912.196826085622
 20
4622.901291350487
 30
0.0
 11
1912.196826085622
 21
4618.234624683821
 31
0.0
 12
1898.196826085623
 22
4620.567958017154
 32
0.0
 13
1898.196826085623
 23
4620.567958017154
 33
0.0
  0
SOLID
  5
EFE
330
664
100
AcDbEntity
  8
SUNPO
 62
   144
100
AcDbTrace
 10
6884.196826085624
 20
4622.901291350487
 30
0.0
 11
6884.196826085624
 21
4618.234624683821
 31
0.0
 12
6898.196826085623
 22
4620.567958017154
 32
0.0
 13
6898.196826085623
 23
4620.567958017154
 33
0.0
  0
MTEXT
  5
EFF
330
664
100
AcDbEntity
  8
SUNPO
 62
     7
100
AcDbMText
 10
4398.196826085622
 20
4658.067958017155
 30
0.0
 40
50.0
 41
0.0
 71
     5
 72
     1
  1
\A2;5000
  7
ADD
1001
ACAD
1000
MTEXTBEGIN
1070
    73
1070
     1
1070
    44
1040
1.0
1070
    74
1070
     0
1000
MTEXTEND
1000
MTEXTBEGIN
1070
    73
1070
     1
1070
    44
1040
1.0
1070
    74
1070
     0
1000
MTEXTEND
1000
MTEXTBEGIN
1070
    73
1070
     1
1070
    44
1040
1.0
1070
    74
1070
     0
1000
MTEXTEND
  0
POINT
  5
F00
330
664
100
AcDbEntity
  8
DEFPOINTS
 62
     0
100
AcDbPoint
 10
1898.196826085623
 20
3952.382639168392
 30
0.0
  0
POINT
  5
F01
330
664
100
AcDbEntity
  8
DEFPOINTS
 62
     0
100
AcDbPoint
 10
6898.196826085623
 20
3952.382639168392
 30
0.0
  0
POINT
  5
F02
330
664
100
AcDbEntity
  8
DEFPOINTS
 62
     0
100
AcDbPoint
 10
6898.196826085623
 20
4620.567958017154
 30
0.0
  0
ENDBLK
  5
66F
330
664
100
AcDbEntity
  8
0
100
AcDbBlockEnd
  0
BLOCK
  5
67B
330
671
100
AcDbEntity
  8
0
100
AcDbBlockBegin
  2
*D7
 70
     1
 10
0.0
 20
0.0
 30
0.0
  3
*D7
  1

  0
LINE
  5
EF1
330
671
100
AcDbEntity
  8
SUNPO
 62
   144
100
AcDbLine
 10
6898.196826085623
 20
3972.382639168392
 30
0.0
 11
6898.196826085623
 21
4630.567958017155
 31
0.0
  0
LINE
  5
EF2
330
671
100
AcDbEntity
  8
SUNPO
 62
   144
100
AcDbLine
 10
7088.196826085622
 20
3972.382639168392
 30
0.0
 11
7088.196826085622
 21
4630.567958017155
 31
0.0
  0
LINE
  5
EF3
330
671
100
AcDbEntity
  8
SUNPO
 62
   144
100
AcDbLine
 10
6912.196826085623
 20
4620.567958017154
 30
0.0
 11
7074.196826085622
 21
4620.567958017154
 31
0.0
  0
SOLID
  5
EF4
330
671
100
AcDbEntity
  8
SUNPO
 62
   144
100
AcDbTrace
 10
6912.196826085623
 20
4622.901291350487
 30
0.0
 11
6912.196826085623
 21
4618.234624683821
 31
0.0
 12
6898.196826085623
 22
4620.567958017154
 32
0.0
 13
6898.196826085623
 23
4620.567958017154
 33
0.0
  0
SOLID
  5
EF5
330
671
100
AcDbEntity
  8
SUNPO
 62
   144
100
AcDbTrace
 10
7074.196826085622
 20
4622.901291350487
 30
0.0
 11
7074.196826085622
 21
4618.234624683821
 31
0.0
 12
7088.196826085622
 22
4620.567958017154
 32
0.0
 13
7088.196826085622
 23
4620.567958017154
 33
0.0
  0
MTEXT
  5
EF6
330
671
100
AcDbEntity
  8
SUNPO
 62
     7
100
AcDbMText
 10
6993.196826085624
 20
4658.067958017155
 30
0.0
 40
50.0
 41
0.0
 71
     5
 72
     1
  1
\A2;190
  7
ADD
1001
ACAD
1000
MTEXTBEGIN
1070
    73
1070
     1
1070
    44
1040
1.0
1070
    74
1070
     0
1000
MTEXTEND
1000
MTEXTBEGIN
1070
    73
1070
     1
1070
    44
1040
1.0
1070
    74
1070
     0
1000
MTEXTEND
1000
MTEXTBEGIN
1070
    73
1070
     1
1070
    44
1040
1.0
1070
    74
1070
     0
1000
MTEXTEND
  0
POINT
  5
EF7
330
671
100
AcDbEntity
  8
DEFPOINTS
 62
     0
100
AcDbPoint
 10
6898.196826085623
 20
3952.382639168392
 30
0.0
  0
POINT
  5
EF8
330
671
100
AcDbEntity
  8
DEFPOINTS
 62
     0
100
AcDbPoint
 10
7088.196826085622
 20
3952.382639168392
 30
0.0
  0
POINT
  5
EF9
330
671
100
AcDbEntity
  8
DEFPOINTS
 62
     0
100
AcDbPoint
 10
7088.196826085622
 20
4620.567958017154
 30
0.0
  0
ENDBLK
  5
67C
330
671
100
AcDbEntity
  8
0
100
AcDbBlockEnd
  0
BLOCK
  5
692
330
686
100
AcDbEntity
  8
0
100
AcDbBlockBegin
  2
*D8
 70
     1
 10
0.0
 20
0.0
 30
0.0
  3
*D8
  1

  0
LINE
  5
EE6
330
686
100
AcDbEntity
  8
SUNPO
 62
   144
100
AcDbLine
 10
928.1968260856229
 20
3972.382639168392
 30
0.0
 11
928.1968260856229
 21
4330.578547622388
 31
0.0
  0
LINE
  5
EE7
330
686
100
AcDbEntity
  8
SUNPO
 62
   144
100
AcDbLine
 10
978.1968260856229
 20
3972.382639168392
 30
0.0
 11
978.1968260856229
 21
4330.578547622388
 31
0.0
  0
LINE
  5
EE8
330
686
100
AcDbEntity
  8
SUNPO
 62
   144
100
AcDbLine
 10
914.1968260856229
 20
4320.578547622388
 30
0.0
 11
900.1968260856228
 21
4320.578547622388
 31
0.0
  0
LINE
  5
EE9
330
686
100
AcDbEntity
  8
SUNPO
 62
   144
100
AcDbLine
 10
992.1968260856228
 20
4320.578547622388
 30
0.0
 11
1006.196826085622
 21
4320.578547622388
 31
0.0
  0
MTEXT
  5
EEA
330
686
100
AcDbEntity
  8
SUNPO
 62
     7
100
AcDbMText
 10
865.6983592943252
 20
4374.328547622388
 30
0.0
 40
50.0
 41
0.0
 71
     5
 72
     1
  1
\A2;50
  7
ADD
1001
ACAD
1000
MTEXTBEGIN
1070
    73
1070
     1
1070
    44
1040
1.0
1070
    74
1070
     0
1000
MTEXTEND
1000
MTEXTBEGIN
1070
    73
1070
     1
1070
    44
1040
1.0
1070
    74
1070
     0
1000
MTEXTEND
1000
MTEXTBEGIN
1070
    73
1070
     1
1070
    44
1040
1.0
1070
    74
1070
     0
1000
MTEXTEND
  0
LINE
  5
EEB
330
686
100
AcDbEntity
  8
SUNPO
 62
   144
100
AcDbLine
 10
928.1968260856229
 20
4320.578547622388
 30
0.0
 11
978.1968260856229
 21
4320.578547622388
 31
0.0
  0
SOLID
  5
EEC
330
686
100
AcDbEntity
  8
SUNPO
 62
   144
100
AcDbTrace
 10
914.1968260856229
 20
4322.911880955721
 30
0.0
 11
914.1968260856229
 21
4318.245214289055
 31
0.0
 12
928.1968260856229
 22
4320.578547622388
 32
0.0
 13
928.1968260856229
 23
4320.578547622388
 33
0.0
  0
SOLID
  5
EED
330
686
100
AcDbEntity
  8
SUNPO
 62
   144
100
AcDbTrace
 10
992.1968260856228
 20
4322.911880955721
 30
0.0
 11
992.1968260856228
 21
4318.245214289055
 31
0.0
 12
978.1968260856229
 22
4320.578547622388
 32
0.0
 13
978.1968260856229
 23
4320.578547622388
 33
0.0
  0
POINT
  5
EEE
330
686
100
AcDbEntity
  8
DEFPOINTS
 62
     0
100
AcDbPoint
 10
928.1968260856229
 20
3952.382639168392
 30
0.0
  0
POINT
  5
EEF
330
686
100
AcDbEntity
  8
DEFPOINTS
 62
     0
100
AcDbPoint
 10
978.1968260856229
 20
3952.382639168392
 30
0.0
  0
POINT
  5
EF0
330
686
100
AcDbEntity
  8
DEFPOINTS
 62
     0
100
AcDbPoint
 10
978.1968260856229
 20
4320.578547622388
 30
0.0
  0
ENDBLK
  5
693
330
686
100
AcDbEntity
  8
0
100
AcDbBlockEnd
  0
BLOCK
  5
6A1
330
695
100
AcDbEntity
  8
0
100
AcDbBlockBegin
  2
*D9
 70
     1
 10
0.0
 20
0.0
 30
0.0
  3
*D9
  1

  0
LINE
  5
EDB
330
695
100
AcDbEntity
  8
SUNPO
 62
   144
100
AcDbLine
 10
1108.196826085622
 20
3972.382639168392
 30
0.0
 11
1108.196826085622
 21
4330.578547622388
 31
0.0
  0
LINE
  5
EDC
330
695
100
AcDbEntity
  8
SUNPO
 62
   144
100
AcDbLine
 10
1058.196826085622
 20
3972.382639168392
 30
0.0
 11
1058.196826085622
 21
4330.578547622388
 31
0.0
  0
LINE
  5
EDD
330
695
100
AcDbEntity
  8
SUNPO
 62
   144
100
AcDbLine
 10
1122.196826085622
 20
4320.578547622388
 30
0.0
 11
1136.196826085622
 21
4320.578547622388
 31
0.0
  0
LINE
  5
EDE
330
695
100
AcDbEntity
  8
SUNPO
 62
   144
100
AcDbLine
 10
1044.196826085622
 20
4320.578547622388
 30
0.0
 11
1030.196826085622
 21
4320.578547622388
 31
0.0
  0
MTEXT
  5
EDF
330
695
100
AcDbEntity
  8
SUNPO
 62
     7
100
AcDbMText
 10
1163.165332929882
 20
4374.328547622388
 30
0.0
 40
50.0
 41
0.0
 71
     5
 72
     1
  1
\A2;50
  7
ADD
1001
ACAD
1000
MTEXTBEGIN
1070
    73
1070
     1
1070
    44
1040
1.0
1070
    74
1070
     0
1000
MTEXTEND
1000
MTEXTBEGIN
1070
    73
1070
     1
1070
    44
1040
1.0
1070
    74
1070
     0
1000
MTEXTEND
1000
MTEXTBEGIN
1070
    73
1070
     1
1070
    44
1040
1.0
1070
    74
1070
     0
1000
MTEXTEND
  0
LINE
  5
EE0
330
695
100
AcDbEntity
  8
SUNPO
 62
   144
100
AcDbLine
 10
1108.196826085622
 20
4320.578547622388
 30
0.0
 11
1058.196826085622
 21
4320.578547622388
 31
0.0
  0
SOLID
  5
EE1
330
695
100
AcDbEntity
  8
SUNPO
 62
   144
100
AcDbTrace
 10
1122.196826085622
 20
4322.911880955721
 30
0.0
 11
1122.196826085622
 21
4318.245214289055
 31
0.0
 12
1108.196826085622
 22
4320.578547622388
 32
0.0
 13
1108.196826085622
 23
4320.578547622388
 33
0.0
  0
SOLID
  5
EE2
330
695
100
AcDbEntity
  8
SUNPO
 62
   144
100
AcDbTrace
 10
1044.196826085622
 20
4322.911880955721
 30
0.0
 11
1044.196826085622
 21
4318.245214289055
 31
0.0
 12
1058.196826085622
 22
4320.578547622388
 32
0.0
 13
1058.196826085622
 23
4320.578547622388
 33
0.0
  0
POINT
  5
EE3
330
695
100
AcDbEntity
  8
DEFPOINTS
 62
     0
100
AcDbPoint
 10
1108.196826085622
 20
3952.382639168392
 30
0.0
  0
POINT
  5
EE4
330
695
100
AcDbEntity
  8
DEFPOINTS
 62
     0
100
AcDbPoint
 10
1058.196826085622
 20
3952.382639168392
 30
0.0
  0
POINT
  5
EE5
330
695
100
AcDbEntity
  8
DEFPOINTS
 62
     0
100
AcDbPoint
 10
1058.196826085622
 20
4320.578547622388
 30
0.0
  0
ENDBLK
  5
6A2
330
695
100
AcDbEntity
  8
0
100
AcDbBlockEnd
  0
BLOCK
  5
6AE
330
6A4
100
AcDbEntity
  8
0
100
AcDbBlockBegin
  2
*D10
 70
     1
 10
0.0
 20
0.0
 30
0.0
  3
*D10
  1

  0
LINE
  5
ED2
330
6A4
100
AcDbEntity
  8
SUNPO
 62
   144
100
AcDbLine
 10
983.1968260856228
 20
3972.382639168392
 30
0.0
 11
983.1968260856228
 21
4330.578547622388
 31
0.0
  0
LINE
  5
ED3
330
6A4
100
AcDbEntity
  8
SUNPO
 62
   144
100
AcDbLine
 10
1053.196826085623
 20
3972.382639168392
 30
0.0
 11
1053.196826085623
 21
4330.578547622388
 31
0.0
  0
LINE
  5
ED4
330
6A4
100
AcDbEntity
  8
SUNPO
 62
   144
100
AcDbLine
 10
997.1968260856229
 20
4320.578547622388
 30
0.0
 11
1039.196826085623
 21
4320.578547622388
 31
0.0
  0
MTEXT
  5
ED5
330
6A4
100
AcDbEntity
  8
SUNPO
 62
     7
100
AcDbMText
 10
1018.196826085622
 20
4374.328547622388
 30
0.0
 40
50.0
 41
0.0
 71
     5
 72
     1
  1
\A2;70
  7
ADD
1001
ACAD
1000
MTEXTBEGIN
1070
    73
1070
     1
1070
    44
1040
1.0
1070
    74
1070
     0
1000
MTEXTEND
1000
MTEXTBEGIN
1070
    73
1070
     1
1070
    44
1040
1.0
1070
    74
1070
     0
1000
MTEXTEND
1000
MTEXTBEGIN
1070
    73
1070
     1
1070
    44
1040
1.0
1070
    74
1070
     0
1000
MTEXTEND
  0
SOLID
  5
ED6
330
6A4
100
AcDbEntity
  8
SUNPO
 62
   144
100
AcDbTrace
 10
997.1968260856229
 20
4322.911880955721
 30
0.0
 11
997.1968260856229
 21
4318.245214289055
 31
0.0
 12
983.1968260856228
 22
4320.578547622388
 32
0.0
 13
983.1968260856228
 23
4320.578547622388
 33
0.0
  0
SOLID
  5
ED7
330
6A4
100
AcDbEntity
  8
SUNPO
 62
   144
100
AcDbTrace
 10
1039.196826085623
 20
4322.911880955721
 30
0.0
 11
1039.196826085623
 21
4318.245214289055
 31
0.0
 12
1053.196826085623
 22
4320.578547622388
 32
0.0
 13
1053.196826085623
 23
4320.578547622388
 33
0.0
  0
POINT
  5
ED8
330
6A4
100
AcDbEntity
  8
DEFPOINTS
 62
     0
100
AcDbPoint
 10
983.1968260856228
 20
3952.382639168392
 30
0.0
  0
POINT
  5
ED9
330
6A4
100
AcDbEntity
  8
DEFPOINTS
 62
     0
100
AcDbPoint
 10
1053.196826085623
 20
3952.382639168392
 30
0.0
  0
POINT
  5
EDA
330
6A4
100
AcDbEntity
  8
DEFPOINTS
 62
     0
100
AcDbPoint
 10
1053.196826085623
 20
4320.578547622388
 30
0.0
  0
ENDBLK
  5
6AF
330
6A4
100
AcDbEntity
  8
0
100
AcDbBlockEnd
  0
BLOCK
  5
6D1
330
6C7
100
AcDbEntity
  8
0
100
AcDbBlockBegin
  2
*D11
 70
     1
 10
0.0
 20
0.0
 30
0.0
  3
*D11
  1

  0
LINE
  5
EC9
330
6C7
100
AcDbEntity
  8
SUNPO
 62
   144
100
AcDbLine
 10
1688.196826085623
 20
2202.382639168392
 30
0.0
 11
1384.349998287266
 21
2202.382639168392
 31
0.0
  0
LINE
  5
ECA
330
6C7
100
AcDbEntity
  8
SUNPO
 62
   144
100
AcDbLine
 10
1688.196826085623
 20
3952.382639168392
 30
0.0
 11
1384.349998287267
 21
3952.382639168392
 31
0.0
  0
LINE
  5
ECB
330
6C7
100
AcDbEntity
  8
SUNPO
 62
   144
100
AcDbLine
 10
1394.349998287266
 20
2216.382639168392
 30
0.0
 11
1394.349998287267
 21
3938.382639168392
 31
0.0
  0
SOLID
  5
ECC
330
6C7
100
AcDbEntity
  8
SUNPO
 62
   144
100
AcDbTrace
 10
1392.016664953933
 20
2216.382639168392
 30
0.0
 11
1396.6833316206
 21
2216.382639168392
 31
0.0
 12
1394.349998287266
 22
2202.382639168392
 32
0.0
 13
1394.349998287266
 23
2202.382639168392
 33
0.0
  0
SOLID
  5
ECD
330
6C7
100
AcDbEntity
  8
SUNPO
 62
   144
100
AcDbTrace
 10
1392.016664953934
 20
3938.382639168392
 30
0.0
 11
1396.6833316206
 21
3938.382639168392
 31
0.0
 12
1394.349998287267
 22
3952.382639168392
 32
0.0
 13
1394.349998287267
 23
3952.382639168392
 33
0.0
  0
MTEXT
  5
ECE
330
6C7
100
AcDbEntity
  8
SUNPO
 62
     7
100
AcDbMText
 10
1356.849998287266
 20
3077.382639168392
 30
0.0
 40
50.0
 41
0.0
 71
     5
 72
     1
  1
\A2;1750
  7
ADD
 11
0.0000000000000001
 21
1.0
 31
0.0
1001
ACAD
1000
MTEXTBEGIN
1070
    73
1070
     1
1070
    44
1040
1.0
1070
    74
1070
     0
1000
MTEXTEND
1000
MTEXTBEGIN
1070
    73
1070
     1
1070
    44
1040
1.0
1070
    74
1070
     0
1000
MTEXTEND
1000
MTEXTBEGIN
1070
    73
1070
     1
1070
    44
1040
1.0
1070
    74
1070
     0
1000
MTEXTEND
  0
POINT
  5
ECF
330
6C7
100
AcDbEntity
  8
DEFPOINTS
 62
     0
100
AcDbPoint
 10
1708.196826085623
 20
2202.382639168392
 30
0.0
  0
POINT
  5
ED0
330
6C7
100
AcDbEntity
  8
DEFPOINTS
 62
     0
100
AcDbPoint
 10
1708.196826085623
 20
3952.382639168392
 30
0.0
  0
POINT
  5
ED1
330
6C7
100
AcDbEntity
  8
DEFPOINTS
 62
     0
100
AcDbPoint
 10
1394.349998287267
 20
3952.382639168392
 30
0.0
  0
ENDBLK
  5
6D2
330
6C7
100
AcDbEntity
  8
0
100
AcDbBlockEnd
  0
BLOCK
  5
6DE
330
6D4
100
AcDbEntity
  8
0
100
AcDbBlockBegin
  2
*D12
 70
     1
 10
0.0
 20
0.0
 30
0.0
  3
*D12
  1

  0
LINE
  5
EC0
330
6D4
100
AcDbEntity
  8
SUNPO
 62
   144
100
AcDbLine
 10
1688.196826085623
 20
2202.382639168392
 30
0.0
 11
1540.132521545485
 21
2202.382639168392
 31
0.0
  0
LINE
  5
EC1
330
6D4
100
AcDbEntity
  8
SUNPO
 62
   144
100
AcDbLine
 10
1688.196826085623
 20
2452.382639168392
 30
0.0
 11
1540.132521545485
 21
2452.382639168392
 31
0.0
  0
LINE
  5
EC2
330
6D4
100
AcDbEntity
  8
SUNPO
 62
   144
100
AcDbLine
 10
1550.132521545485
 20
2216.382639168392
 30
0.0
 11
1550.132521545485
 21
2438.382639168392
 31
0.0
  0
SOLID
  5
EC3
330
6D4
100
AcDbEntity
  8
SUNPO
 62
   144
100
AcDbTrace
 10
1547.799188212152
 20
2216.382639168392
 30
0.0
 11
1552.465854878818
 21
2216.382639168392
 31
0.0
 12
1550.132521545485
 22
2202.382639168392
 32
0.0
 13
1550.132521545485
 23
2202.382639168392
 33
0.0
  0
SOLID
  5
EC4
330
6D4
100
AcDbEntity
  8
SUNPO
 62
   144
100
AcDbTrace
 10
1547.799188212152
 20
2438.382639168392
 30
0.0
 11
1552.465854878818
 21
2438.382639168392
 31
0.0
 12
1550.132521545485
 22
2452.382639168392
 32
0.0
 13
1550.132521545485
 23
2452.382639168392
 33
0.0
  0
MTEXT
  5
EC5
330
6D4
100
AcDbEntity
  8
SUNPO
 62
     7
100
AcDbMText
 10
1512.632521545485
 20
2327.382639168392
 30
0.0
 40
50.0
 41
0.0
 71
     5
 72
     1
  1
\A2;250
  7
ADD
 11
0.0000000000000001
 21
1.0
 31
0.0
1001
ACAD
1000
MTEXTBEGIN
1070
    73
1070
     1
1070
    44
1040
1.0
1070
    74
1070
     0
1000
MTEXTEND
1000
MTEXTBEGIN
1070
    73
1070
     1
1070
    44
1040
1.0
1070
    74
1070
     0
1000
MTEXTEND
1000
MTEXTBEGIN
1070
    73
1070
     1
1070
    44
1040
1.0
1070
    74
1070
     0
1000
MTEXTEND
  0
POINT
  5
EC6
330
6D4
100
AcDbEntity
  8
DEFPOINTS
 62
     0
100
AcDbPoint
 10
1708.196826085623
 20
2202.382639168392
 30
0.0
  0
POINT
  5
EC7
330
6D4
100
AcDbEntity
  8
DEFPOINTS
 62
     0
100
AcDbPoint
 10
1708.196826085623
 20
2452.382639168392
 30
0.0
  0
POINT
  5
EC8
330
6D4
100
AcDbEntity
  8
DEFPOINTS
 62
     0
100
AcDbPoint
 10
1550.132521545485
 20
2452.382639168392
 30
0.0
  0
ENDBLK
  5
6DF
330
6D4
100
AcDbEntity
  8
0
100
AcDbBlockEnd
  0
BLOCK
  5
6EB
330
6E1
100
AcDbEntity
  8
0
100
AcDbBlockBegin
  2
*D13
 70
     1
 10
0.0
 20
0.0
 30
0.0
  3
*D13
  1

  0
LINE
  5
EB7
330
6E1
100
AcDbEntity
  8
SUNPO
 62
   144
100
AcDbLine
 10
1688.196826085623
 20
2452.382639168392
 30
0.0
 11
1540.132521545484
 21
2452.382639168392
 31
0.0
  0
LINE
  5
EB8
330
6E1
100
AcDbEntity
  8
SUNPO
 62
   144
100
AcDbLine
 10
1688.196826085623
 20
3952.382639168392
 30
0.0
 11
1540.132521545485
 21
3952.382639168392
 31
0.0
  0
LINE
  5
EB9
330
6E1
100
AcDbEntity
  8
SUNPO
 62
   144
100
AcDbLine
 10
1550.132521545485
 20
2466.382639168392
 30
0.0
 11
1550.132521545485
 21
3938.382639168392
 31
0.0
  0
SOLID
  5
EBA
330
6E1
100
AcDbEntity
  8
SUNPO
 62
   144
100
AcDbTrace
 10
1547.799188212151
 20
2466.382639168392
 30
0.0
 11
1552.465854878818
 21
2466.382639168392
 31
0.0
 12
1550.132521545485
 22
2452.382639168392
 32
0.0
 13
1550.132521545485
 23
2452.382639168392
 33
0.0
  0
SOLID
  5
EBB
330
6E1
100
AcDbEntity
  8
SUNPO
 62
   144
100
AcDbTrace
 10
1547.799188212152
 20
3938.382639168392
 30
0.0
 11
1552.465854878818
 21
3938.382639168392
 31
0.0
 12
1550.132521545485
 22
3952.382639168392
 32
0.0
 13
1550.132521545485
 23
3952.382639168392
 33
0.0
  0
MTEXT
  5
EBC
330
6E1
100
AcDbEntity
  8
SUNPO
 62
     7
100
AcDbMText
 10
1512.632521545484
 20
3202.382639168392
 30
0.0
 40
50.0
 41
0.0
 71
     5
 72
     1
  1
\A2;1500
  7
ADD
 11
0.0000000000000001
 21
1.0
 31
0.0
1001
ACAD
1000
MTEXTBEGIN
1070
    73
1070
     1
1070
    44
1040
1.0
1070
    74
1070
     0
1000
MTEXTEND
1000
MTEXTBEGIN
1070
    73
1070
     1
1070
    44
1040
1.0
1070
    74
1070
     0
1000
MTEXTEND
1000
MTEXTBEGIN
1070
    73
1070
     1
1070
    44
1040
1.0
1070
    74
1070
     0
1000
MTEXTEND
  0
POINT
  5
EBD
330
6E1
100
AcDbEntity
  8
DEFPOINTS
 62
     0
100
AcDbPoint
 10
1708.196826085623
 20
2452.382639168392
 30
0.0
  0
POINT
  5
EBE
330
6E1
100
AcDbEntity
  8
DEFPOINTS
 62
     0
100
AcDbPoint
 10
1708.196826085623
 20
3952.382639168392
 30
0.0
  0
POINT
  5
EBF
330
6E1
100
AcDbEntity
  8
DEFPOINTS
 62
     0
100
AcDbPoint
 10
1550.132521545485
 20
3952.382639168392
 30
0.0
  0
ENDBLK
  5
6EC
330
6E1
100
AcDbEntity
  8
0
100
AcDbBlockEnd
  0
BLOCK
  5
6F8
330
6EE
100
AcDbEntity
  8
0
100
AcDbBlockBegin
  2
*D14
 70
     1
 10
0.0
 20
0.0
 30
0.0
  3
*D14
  1

  0
LINE
  5
EAE
330
6EE
100
AcDbEntity
  8
SUNPO
 62
   144
100
AcDbLine
 10
1708.196826085623
 20
2182.382639168392
 30
0.0
 11
1708.196826085623
 21
1494.586691329361
 31
0.0
  0
LINE
  5
EAF
330
6EE
100
AcDbEntity
  8
SUNPO
 62
   144
100
AcDbLine
 10
7088.196826085622
 20
2182.382639168392
 30
0.0
 11
7088.196826085622
 21
1494.586691329361
 31
0.0
  0
LINE
  5
EB0
330
6EE
100
AcDbEntity
  8
SUNPO
 62
   144
100
AcDbLine
 10
1722.196826085623
 20
1504.586691329361
 30
0.0
 11
7074.196826085622
 21
1504.586691329361
 31
0.0
  0
SOLID
  5
EB1
330
6EE
100
AcDbEntity
  8
SUNPO
 62
   144
100
AcDbTrace
 10
1722.196826085623
 20
1506.920024662694
 30
0.0
 11
1722.196826085623
 21
1502.253357996027
 31
0.0
 12
1708.196826085623
 22
1504.586691329361
 32
0.0
 13
1708.196826085623
 23
1504.586691329361
 33
0.0
  0
SOLID
  5
EB2
330
6EE
100
AcDbEntity
  8
SUNPO
 62
   144
100
AcDbTrace
 10
7074.196826085622
 20
1506.920024662694
 30
0.0
 11
7074.196826085622
 21
1502.253357996027
 31
0.0
 12
7088.196826085622
 22
1504.586691329361
 32
0.0
 13
7088.196826085622
 23
1504.586691329361
 33
0.0
  0
MTEXT
  5
EB3
330
6EE
100
AcDbEntity
  8
SUNPO
 62
     7
100
AcDbMText
 10
4398.196826085622
 20
1542.086691329361
 30
0.0
 40
50.0
 41
0.0
 71
     5
 72
     1
  1
\A2;5380
  7
ADD
1001
ACAD
1000
MTEXTBEGIN
1070
    73
1070
     1
1070
    44
1040
1.0
1070
    74
1070
     0
1000
MTEXTEND
1000
MTEXTBEGIN
1070
    73
1070
     1
1070
    44
1040
1.0
1070
    74
1070
     0
1000
MTEXTEND
1000
MTEXTBEGIN
1070
    73
1070
     1
1070
    44
1040
1.0
1070
    74
1070
     0
1000
MTEXTEND
  0
POINT
  5
EB4
330
6EE
100
AcDbEntity
  8
DEFPOINTS
 62
     0
100
AcDbPoint
 10
1708.196826085623
 20
2202.382639168392
 30
0.0
  0
POINT
  5
EB5
330
6EE
100
AcDbEntity
  8
DEFPOINTS
 62
     0
100
AcDbPoint
 10
7088.196826085622
 20
2202.382639168392
 30
0.0
  0
POINT
  5
EB6
330
6EE
100
AcDbEntity
  8
DEFPOINTS
 62
     0
100
AcDbPoint
 10
7088.196826085622
 20
1504.586691329361
 30
0.0
  0
ENDBLK
  5
6F9
330
6EE
100
AcDbEntity
  8
0
100
AcDbBlockEnd
  0
BLOCK
  5
705
330
6FB
100
AcDbEntity
  8
0
100
AcDbBlockBegin
  2
*D15
 70
     1
 10
0.0
 20
0.0
 30
0.0
  3
*D15
  1

  0
LINE
  5
EA5
330
6FB
100
AcDbEntity
  8
SUNPO
 62
   144
100
AcDbLine
 10
1708.196826085623
 20
2182.382639168392
 30
0.0
 11
1708.196826085623
 21
1787.13803298829
 31
0.0
  0
LINE
  5
EA6
330
6FB
100
AcDbEntity
  8
SUNPO
 62
   144
100
AcDbLine
 10
1958.196826085623
 20
2182.382639168392
 30
0.0
 11
1958.196826085623
 21
1787.13803298829
 31
0.0
  0
LINE
  5
EA7
330
6FB
100
AcDbEntity
  8
SUNPO
 62
   144
100
AcDbLine
 10
1722.196826085623
 20
1797.13803298829
 30
0.0
 11
1944.196826085622
 21
1797.13803298829
 31
0.0
  0
SOLID
  5
EA8
330
6FB
100
AcDbEntity
  8
SUNPO
 62
   144
100
AcDbTrace
 10
1722.196826085623
 20
1799.471366321624
 30
0.0
 11
1722.196826085623
 21
1794.804699654957
 31
0.0
 12
1708.196826085623
 22
1797.13803298829
 32
0.0
 13
1708.196826085623
 23
1797.13803298829
 33
0.0
  0
SOLID
  5
EA9
330
6FB
100
AcDbEntity
  8
SUNPO
 62
   144
100
AcDbTrace
 10
1944.196826085622
 20
1799.471366321624
 30
0.0
 11
1944.196826085622
 21
1794.804699654957
 31
0.0
 12
1958.196826085623
 22
1797.13803298829
 32
0.0
 13
1958.196826085623
 23
1797.13803298829
 33
0.0
  0
MTEXT
  5
EAA
330
6FB
100
AcDbEntity
  8
SUNPO
 62
     7
100
AcDbMText
 10
1833.196826085623
 20
1834.63803298829
 30
0.0
 40
50.0
 41
0.0
 71
     5
 72
     1
  1
\A2;250
  7
ADD
1001
ACAD
1000
MTEXTBEGIN
1070
    73
1070
     1
1070
    44
1040
1.0
1070
    74
1070
     0
1000
MTEXTEND
1000
MTEXTBEGIN
1070
    73
1070
     1
1070
    44
1040
1.0
1070
    74
1070
     0
1000
MTEXTEND
1000
MTEXTBEGIN
1070
    73
1070
     1
1070
    44
1040
1.0
1070
    74
1070
     0
1000
MTEXTEND
  0
POINT
  5
EAB
330
6FB
100
AcDbEntity
  8
DEFPOINTS
 62
     0
100
AcDbPoint
 10
1708.196826085623
 20
2202.382639168392
 30
0.0
  0
POINT
  5
EAC
330
6FB
100
AcDbEntity
  8
DEFPOINTS
 62
     0
100
AcDbPoint
 10
1958.196826085623
 20
2202.382639168392
 30
0.0
  0
POINT
  5
EAD
330
6FB
100
AcDbEntity
  8
DEFPOINTS
 62
     0
100
AcDbPoint
 10
1958.196826085623
 20
1797.13803298829
 30
0.0
  0
ENDBLK
  5
706
330
6FB
100
AcDbEntity
  8
0
100
AcDbBlockEnd
  0
BLOCK
  5
712
330
708
100
AcDbEntity
  8
0
100
AcDbBlockBegin
  2
*D16
 70
     1
 10
0.0
 20
0.0
 30
0.0
  3
*D16
  1

  0
LINE
  5
E9C
330
708
100
AcDbEntity
  8
SUNPO
 62
   144
100
AcDbLine
 10
1958.196826085623
 20
2182.382639168392
 30
0.0
 11
1958.196826085623
 21
1787.13803298829
 31
0.0
  0
LINE
  5
E9D
330
708
100
AcDbEntity
  8
SUNPO
 62
   144
100
AcDbLine
 10
6838.196826085622
 20
2182.382639168392
 30
0.0
 11
6838.196826085622
 21
1787.13803298829
 31
0.0
  0
LINE
  5
E9E
330
708
100
AcDbEntity
  8
SUNPO
 62
   144
100
AcDbLine
 10
1972.196826085623
 20
1797.13803298829
 30
0.0
 11
6824.196826085622
 21
1797.13803298829
 31
0.0
  0
SOLID
  5
E9F
330
708
100
AcDbEntity
  8
SUNPO
 62
   144
100
AcDbTrace
 10
1972.196826085623
 20
1799.471366321624
 30
0.0
 11
1972.196826085623
 21
1794.804699654957
 31
0.0
 12
1958.196826085623
 22
1797.13803298829
 32
0.0
 13
1958.196826085623
 23
1797.13803298829
 33
0.0
  0
SOLID
  5
EA0
330
708
100
AcDbEntity
  8
SUNPO
 62
   144
100
AcDbTrace
 10
6824.196826085622
 20
1799.471366321624
 30
0.0
 11
6824.196826085622
 21
1794.804699654957
 31
0.0
 12
6838.196826085622
 22
1797.13803298829
 32
0.0
 13
6838.196826085622
 23
1797.13803298829
 33
0.0
  0
MTEXT
  5
EA1
330
708
100
AcDbEntity
  8
SUNPO
 62
     7
100
AcDbMText
 10
4398.196826085622
 20
1834.63803298829
 30
0.0
 40
50.0
 41
0.0
 71
     5
 72
     1
  1
\A2;4880
  7
ADD
1001
ACAD
1000
MTEXTBEGIN
1070
    73
1070
     1
1070
    44
1040
1.0
1070
    74
1070
     0
1000
MTEXTEND
1000
MTEXTBEGIN
1070
    73
1070
     1
1070
    44
1040
1.0
1070
    74
1070
     0
1000
MTEXTEND
1000
MTEXTBEGIN
1070
    73
1070
     1
1070
    44
1040
1.0
1070
    74
1070
     0
1000
MTEXTEND
  0
POINT
  5
EA2
330
708
100
AcDbEntity
  8
DEFPOINTS
 62
     0
100
AcDbPoint
 10
1958.196826085623
 20
2202.382639168392
 30
0.0
  0
POINT
  5
EA3
330
708
100
AcDbEntity
  8
DEFPOINTS
 62
     0
100
AcDbPoint
 10
6838.196826085622
 20
2202.382639168392
 30
0.0
  0
POINT
  5
EA4
330
708
100
AcDbEntity
  8
DEFPOINTS
 62
     0
100
AcDbPoint
 10
6838.196826085622
 20
1797.13803298829
 30
0.0
  0
ENDBLK
  5
713
330
708
100
AcDbEntity
  8
0
100
AcDbBlockEnd
  0
BLOCK
  5
71F
330
715
100
AcDbEntity
  8
0
100
AcDbBlockBegin
  2
*D17
 70
     1
 10
0.0
 20
0.0
 30
0.0
  3
*D17
  1

  0
LINE
  5
E93
330
715
100
AcDbEntity
  8
SUNPO
 62
   144
100
AcDbLine
 10
6838.196826085622
 20
2182.382639168392
 30
0.0
 11
6838.196826085622
 21
1787.13803298829
 31
0.0
  0
LINE
  5
E94
330
715
100
AcDbEntity
  8
SUNPO
 62
   144
100
AcDbLine
 10
7088.196826085622
 20
2182.382639168392
 30
0.0
 11
7088.196826085622
 21
1787.13803298829
 31
0.0
  0
LINE
  5
E95
330
715
100
AcDbEntity
  8
SUNPO
 62
   144
100
AcDbLine
 10
6852.196826085623
 20
1797.13803298829
 30
0.0
 11
7074.196826085622
 21
1797.13803298829
 31
0.0
  0
SOLID
  5
E96
330
715
100
AcDbEntity
  8
SUNPO
 62
   144
100
AcDbTrace
 10
6852.196826085623
 20
1799.471366321624
 30
0.0
 11
6852.196826085623
 21
1794.804699654957
 31
0.0
 12
6838.196826085622
 22
1797.13803298829
 32
0.0
 13
6838.196826085622
 23
1797.13803298829
 33
0.0
  0
SOLID
  5
E97
330
715
100
AcDbEntity
  8
SUNPO
 62
   144
100
AcDbTrace
 10
7074.196826085622
 20
1799.471366321624
 30
0.0
 11
7074.196826085622
 21
1794.804699654957
 31
0.0
 12
7088.196826085622
 22
1797.13803298829
 32
0.0
 13
7088.196826085622
 23
1797.13803298829
 33
0.0
  0
MTEXT
  5
E98
330
715
100
AcDbEntity
  8
SUNPO
 62
     7
100
AcDbMText
 10
6963.196826085622
 20
1834.63803298829
 30
0.0
 40
50.0
 41
0.0
 71
     5
 72
     1
  1
\A2;250
  7
ADD
1001
ACAD
1000
MTEXTBEGIN
1070
    73
1070
     1
1070
    44
1040
1.0
1070
    74
1070
     0
1000
MTEXTEND
1000
MTEXTBEGIN
1070
    73
1070
     1
1070
    44
1040
1.0
1070
    74
1070
     0
1000
MTEXTEND
1000
MTEXTBEGIN
1070
    73
1070
     1
1070
    44
1040
1.0
1070
    74
1070
     0
1000
MTEXTEND
  0
POINT
  5
E99
330
715
100
AcDbEntity
  8
DEFPOINTS
 62
     0
100
AcDbPoint
 10
6838.196826085622
 20
2202.382639168392
 30
0.0
  0
POINT
  5
E9A
330
715
100
AcDbEntity
  8
DEFPOINTS
 62
     0
100
AcDbPoint
 10
7088.196826085622
 20
2202.382639168392
 30
0.0
  0
POINT
  5
E9B
330
715
100
AcDbEntity
  8
DEFPOINTS
 62
     0
100
AcDbPoint
 10
7088.196826085622
 20
1797.13803298829
 30
0.0
  0
ENDBLK
  5
720
330
715
100
AcDbEntity
  8
0
100
AcDbBlockEnd
  0
BLOCK
  5
72C
330
722
100
AcDbEntity
  8
0
100
AcDbBlockBegin
  2
*D18
 70
     1
 10
0.0
 20
0.0
 30
0.0
  3
*D18
  1

  0
LINE
  5
E8A
330
722
100
AcDbEntity
  8
SUNPO
 62
   144
100
AcDbLine
 10
1898.196826085623
 20
3972.382639168392
 30
0.0
 11
1898.196826085623
 21
4311.475298592774
 31
0.0
  0
LINE
  5
E8B
330
722
100
AcDbEntity
  8
SUNPO
 62
   144
100
AcDbLine
 10
1838.148845270278
 20
3972.382639168392
 30
0.0
 11
1838.148845270278
 21
4311.475298592774
 31
0.0
  0
LINE
  5
E8C
330
722
100
AcDbEntity
  8
SUNPO
 62
   144
100
AcDbLine
 10
1884.196826085623
 20
4301.475298592773
 30
0.0
 11
1852.148845270278
 21
4301.475298592773
 31
0.0
  0
MTEXT
  5
E8D
330
722
100
AcDbEntity
  8
SUNPO
 62
     7
100
AcDbMText
 10
1868.172835677951
 20
4355.225298592773
 30
0.0
 40
50.0
 41
0.0
 71
     5
 72
     1
  1
\A2;60
  7
ADD
1001
ACAD
1000
MTEXTBEGIN
1070
    73
1070
     1
1070
    44
1040
1.0
1070
    74
1070
     0
1000
MTEXTEND
1000
MTEXTBEGIN
1070
    73
1070
     1
1070
    44
1040
1.0
1070
    74
1070
     0
1000
MTEXTEND
1000
MTEXTBEGIN
1070
    73
1070
     1
1070
    44
1040
1.0
1070
    74
1070
     0
1000
MTEXTEND
  0
SOLID
  5
E8E
330
722
100
AcDbEntity
  8
SUNPO
 62
   144
100
AcDbTrace
 10
1884.196826085623
 20
4303.808631926107
 30
0.0
 11
1884.196826085623
 21
4299.14196525944
 31
0.0
 12
1898.196826085623
 22
4301.475298592773
 32
0.0
 13
1898.196826085623
 23
4301.475298592773
 33
0.0
  0
SOLID
  5
E8F
330
722
100
AcDbEntity
  8
SUNPO
 62
   144
100
AcDbTrace
 10
1852.148845270278
 20
4303.808631926107
 30
0.0
 11
1852.148845270278
 21
4299.14196525944
 31
0.0
 12
1838.148845270278
 22
4301.475298592773
 32
0.0
 13
1838.148845270278
 23
4301.475298592773
 33
0.0
  0
POINT
  5
E90
330
722
100
AcDbEntity
  8
DEFPOINTS
 62
     0
100
AcDbPoint
 10
1898.196826085623
 20
3952.382639168392
 30
0.0
  0
POINT
  5
E91
330
722
100
AcDbEntity
  8
DEFPOINTS
 62
     0
100
AcDbPoint
 10
1838.148845270278
 20
3952.382639168392
 30
0.0
  0
POINT
  5
E92
330
722
100
AcDbEntity
  8
DEFPOINTS
 62
     0
100
AcDbPoint
 10
1838.148845270278
 20
4301.475298592773
 30
0.0
  0
ENDBLK
  5
72D
330
722
100
AcDbEntity
  8
0
100
AcDbBlockEnd
  0
BLOCK
  5
739
330
72F
100
AcDbEntity
  8
0
100
AcDbBlockBegin
  2
*D19
 70
     1
 10
0.0
 20
0.0
 30
0.0
  3
*D19
  1

  0
LINE
  5
E81
330
72F
100
AcDbEntity
  8
SUNPO
 62
   144
100
AcDbLine
 10
6898.196826085623
 20
3972.382639168392
 30
0.0
 11
6898.196826085623
 21
4311.475298592774
 31
0.0
  0
LINE
  5
E82
330
72F
100
AcDbEntity
  8
SUNPO
 62
   144
100
AcDbLine
 10
6958.244806900967
 20
3972.382639168392
 30
0.0
 11
6958.244806900967
 21
4311.475298592774
 31
0.0
  0
LINE
  5
E83
330
72F
100
AcDbEntity
  8
SUNPO
 62
   144
100
AcDbLine
 10
6912.196826085623
 20
4301.475298592773
 30
0.0
 11
6944.244806900967
 21
4301.475298592773
 31
0.0
  0
MTEXT
  5
E84
330
72F
100
AcDbEntity
  8
SUNPO
 62
     7
100
AcDbMText
 10
6928.220816493295
 20
4355.225298592773
 30
0.0
 40
50.0
 41
0.0
 71
     5
 72
     1
  1
\A2;60
  7
ADD
1001
ACAD
1000
MTEXTBEGIN
1070
    73
1070
     1
1070
    44
1040
1.0
1070
    74
1070
     0
1000
MTEXTEND
1000
MTEXTBEGIN
1070
    73
1070
     1
1070
    44
1040
1.0
1070
    74
1070
     0
1000
MTEXTEND
1000
MTEXTBEGIN
1070
    73
1070
     1
1070
    44
1040
1.0
1070
    74
1070
     0
1000
MTEXTEND
  0
SOLID
  5
E85
330
72F
100
AcDbEntity
  8
SUNPO
 62
   144
100
AcDbTrace
 10
6912.196826085623
 20
4303.808631926107
 30
0.0
 11
6912.196826085623
 21
4299.14196525944
 31
0.0
 12
6898.196826085623
 22
4301.475298592773
 32
0.0
 13
6898.196826085623
 23
4301.475298592773
 33
0.0
  0
SOLID
  5
E86
330
72F
100
AcDbEntity
  8
SUNPO
 62
   144
100
AcDbTrace
 10
6944.244806900967
 20
4303.808631926107
 30
0.0
 11
6944.244806900967
 21
4299.14196525944
 31
0.0
 12
6958.244806900967
 22
4301.475298592773
 32
0.0
 13
6958.244806900967
 23
4301.475298592773
 33
0.0
  0
POINT
  5
E87
330
72F
100
AcDbEntity
  8
DEFPOINTS
 62
     0
100
AcDbPoint
 10
6898.196826085623
 20
3952.382639168392
 30
0.0
  0
POINT
  5
E88
330
72F
100
AcDbEntity
  8
DEFPOINTS
 62
     0
100
AcDbPoint
 10
6958.244806900967
 20
3952.382639168392
 30
0.0
  0
POINT
  5
E89
330
72F
100
AcDbEntity
  8
DEFPOINTS
 62
     0
100
AcDbPoint
 10
6958.244806900967
 20
4301.475298592773
 30
0.0
  0
ENDBLK
  5
73A
330
72F
100
AcDbEntity
  8
0
100
AcDbBlockEnd
  0
BLOCK
  5
7EB
330
7DF
100
AcDbEntity
  8
0
100
AcDbBlockBegin
  2
*D20
 70
     1
 10
0.0
 20
0.0
 30
0.0
  3
*D20
  1

  0
LINE
  5
E76
330
7DF
100
AcDbEntity
  8
SUNPO
 62
   144
100
AcDbLine
 10
1957.397465318645
 20
2472.382639168392
 30
0.0
 11
1957.397465318645
 21
2678.507650069778
 31
0.0
  0
LINE
  5
E77
330
7DF
100
AcDbEntity
  8
SUNPO
 62
   144
100
AcDbLine
 10
1978.196826085622
 20
2472.382639168392
 30
0.0
 11
1978.196826085622
 21
2678.507650069778
 31
0.0
  0
LINE
  5
E78
330
7DF
100
AcDbEntity
  8
SUNPO
 62
   144
100
AcDbLine
 10
1943.397465318644
 20
2668.507650069777
 30
0.0
 11
1929.397465318645
 21
2668.507650069777
 31
0.0
  0
LINE
  5
E79
330
7DF
100
AcDbEntity
  8
SUNPO
 62
   144
100
AcDbLine
 10
1992.196826085622
 20
2668.507650069777
 30
0.0
 11
2006.196826085623
 21
2668.507650069777
 31
0.0
  0
MTEXT
  5
E7A
330
7DF
100
AcDbEntity
  8
SUNPO
 62
     7
100
AcDbMText
 10
1967.797145702133
 20
2722.257650069778
 30
0.0
 40
50.0
 41
0.0
 71
     5
 72
     1
  1
\A2;20
  7
ADD
1001
ACAD
1000
MTEXTBEGIN
1070
    73
1070
     1
1070
    44
1040
1.0
1070
    74
1070
     0
1000
MTEXTEND
1000
MTEXTBEGIN
1070
    73
1070
     1
1070
    44
1040
1.0
1070
    74
1070
     0
1000
MTEXTEND
1000
MTEXTBEGIN
1070
    73
1070
     1
1070
    44
1040
1.0
1070
    74
1070
     0
1000
MTEXTEND
  0
LINE
  5
E7B
330
7DF
100
AcDbEntity
  8
SUNPO
 62
   144
100
AcDbLine
 10
1957.397465318645
 20
2668.507650069777
 30
0.0
 11
1978.196826085622
 21
2668.507650069777
 31
0.0
  0
SOLID
  5
E7C
330
7DF
100
AcDbEntity
  8
SUNPO
 62
   144
100
AcDbTrace
 10
1943.397465318644
 20
2670.840983403111
 30
0.0
 11
1943.397465318644
 21
2666.174316736444
 31
0.0
 12
1957.397465318645
 22
2668.507650069777
 32
0.0
 13
1957.397465318645
 23
2668.507650069777
 33
0.0
  0
SOLID
  5
E7D
330
7DF
100
AcDbEntity
  8
SUNPO
 62
   144
100
AcDbTrace
 10
1992.196826085622
 20
2670.840983403111
 30
0.0
 11
1992.196826085622
 21
2666.174316736444
 31
0.0
 12
1978.196826085622
 22
2668.507650069777
 32
0.0
 13
1978.196826085622
 23
2668.507650069777
 33
0.0
  0
POINT
  5
E7E
330
7DF
100
AcDbEntity
  8
DEFPOINTS
 62
     0
100
AcDbPoint
 10
1957.397465318645
 20
2452.382639168392
 30
0.0
  0
POINT
  5
E7F
330
7DF
100
AcDbEntity
  8
DEFPOINTS
 62
     0
100
AcDbPoint
 10
1978.196826085622
 20
2452.382639168392
 30
0.0
  0
POINT
  5
E80
330
7DF
100
AcDbEntity
  8
DEFPOINTS
 62
     0
100
AcDbPoint
 10
1978.196826085622
 20
2668.507650069777
 30
0.0
  0
ENDBLK
  5
7EC
330
7DF
100
AcDbEntity
  8
0
100
AcDbBlockEnd
  0
BLOCK
  5
7FA
330
7EE
100
AcDbEntity
  8
0
100
AcDbBlockBegin
  2
*D21
 70
     1
 10
0.0
 20
0.0
 30
0.0
  3
*D21
  1

  0
LINE
  5
E6B
330
7EE
100
AcDbEntity
  8
SUNPO
 62
   144
100
AcDbLine
 10
1977.397465318645
 20
2452.382639168392
 30
0.0
 11
2204.308137620846
 21
2452.382639168392
 31
0.0
  0
LINE
  5
E6C
330
7EE
100
AcDbEntity
  8
SUNPO
 62
   144
100
AcDbLine
 10
1977.397465318645
 20
2472.366658342827
 30
0.0
 11
2204.308137620846
 21
2472.366658342827
 31
0.0
  0
LINE
  5
E6D
330
7EE
100
AcDbEntity
  8
SUNPO
 62
   144
100
AcDbLine
 10
2194.308137620846
 20
2438.382639168392
 30
0.0
 11
2194.308137620846
 21
2424.382639168392
 31
0.0
  0
LINE
  5
E6E
330
7EE
100
AcDbEntity
  8
SUNPO
 62
   144
100
AcDbLine
 10
2194.308137620846
 20
2486.366658342827
 30
0.0
 11
2194.308137620846
 21
2500.366658342827
 31
0.0
  0
MTEXT
  5
E6F
330
7EE
100
AcDbEntity
  8
SUNPO
 62
     7
100
AcDbMText
 10
2298.058137620846
 20
2462.37464875561
 30
0.0
 40
50.0
 41
0.0
 71
     5
 72
     1
  1
\A2;20
  7
ADD
 11
0.0000000000000001
 21
1.0
 31
0.0
1001
ACAD
1000
MTEXTBEGIN
1070
    73
1070
     1
1070
    44
1040
1.0
1070
    74
1070
     0
1000
MTEXTEND
1000
MTEXTBEGIN
1070
    73
1070
     1
1070
    44
1040
1.0
1070
    74
1070
     0
1000
MTEXTEND
1000
MTEXTBEGIN
1070
    73
1070
     1
1070
    44
1040
1.0
1070
    74
1070
     0
1000
MTEXTEND
  0
LINE
  5
E70
330
7EE
100
AcDbEntity
  8
SUNPO
 62
   144
100
AcDbLine
 10
2194.308137620846
 20
2452.382639168392
 30
0.0
 11
2194.308137620846
 21
2472.366658342827
 31
0.0
  0
SOLID
  5
E71
330
7EE
100
AcDbEntity
  8
SUNPO
 62
   144
100
AcDbTrace
 10
2191.974804287513
 20
2438.382639168392
 30
0.0
 11
2196.64147095418
 21
2438.382639168392
 31
0.0
 12
2194.308137620846
 22
2452.382639168392
 32
0.0
 13
2194.308137620846
 23
2452.382639168392
 33
0.0
  0
SOLID
  5
E72
330
7EE
100
AcDbEntity
  8
SUNPO
 62
   144
100
AcDbTrace
 10
2191.974804287513
 20
2486.366658342827
 30
0.0
 11
2196.64147095418
 21
2486.366658342827
 31
0.0
 12
2194.308137620846
 22
2472.366658342827
 32
0.0
 13
2194.308137620846
 23
2472.366658342827
 33
0.0
  0
POINT
  5
E73
330
7EE
100
AcDbEntity
  8
DEFPOINTS
 62
     0
100
AcDbPoint
 10
1957.397465318645
 20
2452.382639168392
 30
0.0
  0
POINT
  5
E74
330
7EE
100
AcDbEntity
  8
DEFPOINTS
 62
     0
100
AcDbPoint
 10
1957.397465318645
 20
2472.366658342827
 30
0.0
  0
POINT
  5
E75
330
7EE
100
AcDbEntity
  8
DEFPOINTS
 62
     0
100
AcDbPoint
 10
2194.308137620846
 20
2472.366658342827
 30
0.0
  0
ENDBLK
  5
7FB
330
7EE
100
AcDbEntity
  8
0
100
AcDbBlockEnd
  0
BLOCK
  5
F28
330
F1E
100
AcDbEntity
  8
0
100
AcDbBlockBegin
  2
*D22
 70
     1
 10
0.0
 20
0.0
 30
0.0
  3
*D22
  1

  0
LINE
  5
F1F
330
F1E
100
AcDbEntity
  8
SUNPO
 62
   144
100
AcDbLine
 10
928.1968260856229
 20
2182.382639168392
 30
0.0
 11
928.1968260856229
 21
1494.586691329361
 31
0.0
  0
LINE
  5
F20
330
F1E
100
AcDbEntity
  8
SUNPO
 62
   144
100
AcDbLine
 10
1108.196826085622
 20
2182.382639168392
 30
0.0
 11
1108.196826085622
 21
1494.586691329361
 31
0.0
  0
LINE
  5
F21
330
F1E
100
AcDbEntity
  8
SUNPO
 62
   144
100
AcDbLine
 10
942.1968260856228
 20
1504.586691329361
 30
0.0
 11
1094.196826085622
 21
1504.586691329361
 31
0.0
  0
SOLID
  5
F22
330
F1E
100
AcDbEntity
  8
SUNPO
 62
   144
100
AcDbTrace
 10
942.1968260856228
 20
1506.920024662694
 30
0.0
 11
942.1968260856228
 21
1502.253357996027
 31
0.0
 12
928.1968260856229
 22
1504.586691329361
 32
0.0
 13
928.1968260856229
 23
1504.586691329361
 33
0.0
  0
SOLID
  5
F23
330
F1E
100
AcDbEntity
  8
SUNPO
 62
   144
100
AcDbTrace
 10
1094.196826085622
 20
1506.920024662694
 30
0.0
 11
1094.196826085622
 21
1502.253357996027
 31
0.0
 12
1108.196826085622
 22
1504.586691329361
 32
0.0
 13
1108.196826085622
 23
1504.586691329361
 33
0.0
  0
MTEXT
  5
F24
330
F1E
100
AcDbEntity
  8
SUNPO
 62
     7
100
AcDbMText
 10
1018.196826085622
 20
1542.086691329361
 30
0.0
 40
50.0
 41
0.0
 71
     5
 72
     1
  1
\A2;180
  7
ADD
1001
ACAD
1000
MTEXTBEGIN
1070
    73
1070
     1
1070
    44
1040
1.0
1070
    74
1070
     0
1000
MTEXTEND
1000
MTEXTBEGIN
1070
    73
1070
     1
1070
    44
1040
1.0
1070
    74
1070
     0
1000
MTEXTEND
1000
MTEXTBEGIN
1070
    73
1070
     1
1070
    44
1040
1.0
1070
    74
1070
     0
1000
MTEXTEND
  0
POINT
  5
F25
330
F1E
100
AcDbEntity
  8
DEFPOINTS
 62
     0
100
AcDbPoint
 10
928.1968260856229
 20
2202.382639168392
 30
0.0
  0
POINT
  5
F26
330
F1E
100
AcDbEntity
  8
DEFPOINTS
 62
     0
100
AcDbPoint
 10
1108.196826085622
 20
2202.382639168392
 30
0.0
  0
POINT
  5
F27
330
F1E
100
AcDbEntity
  8
DEFPOINTS
 62
     0
100
AcDbPoint
 10
1108.196826085622
 20
1504.586691329361
 30
0.0
  0
ENDBLK
  5
F29
330
F1E
100
AcDbEntity
  8
0
100
AcDbBlockEnd
  0
ENDSEC
  0
SECTION
  2
ENTITIES
  0
LINE
  5
5EE
330
1F
100
AcDbEntity
  8
HOJO
100
AcDbLine
 10
2820.0
 20
260.0
 30
0.0
 11
8040.0
 21
260.0
 31
0.0
  0
LINE
  5
5EF
330
1F
100
AcDbEntity
  8
HOJO
100
AcDbLine
 10
2820.0
 20
560.0
 30
0.0
 11
8040.0
 21
560.0
 31
0.0
  0
LINE
  5
5F0
330
1F
100
AcDbEntity
  8
HOJO
100
AcDbLine
 10
2820.0
 20
260.0
 30
0.0
 11
2820.0
 21
560.0
 31
0.0
  0
LINE
  5
5F1
330
1F
100
AcDbEntity
  8
HOJO
100
AcDbLine
 10
4820.0
 20
260.0
 30
0.0
 11
4820.0
 21
560.0
 31
0.0
  0
LINE
  5
5F2
330
1F
100
AcDbEntity
  8
HOJO
100
AcDbLine
 10
5620.0
 20
260.0
 30
0.0
 11
5620.0
 21
560.0
 31
0.0
  0
LINE
  5
5F3
330
1F
100
AcDbEntity
  8
HOJO
100
AcDbLine
 10
6120.0
 20
260.0
 30
0.0
 11
6120.0
 21
560.0
 31
0.0
  0
LINE
  5
60B
330
1F
100
AcDbEntity
  8
3C1
100
AcDbLine
 10
1708.196826085623
 20
3952.382639168392
 30
0.0
 11
1708.196826085623
 21
2202.382639168392
 31
0.0
  0
LINE
  5
60C
330
1F
100
AcDbEntity
  8
3C1
100
AcDbLine
 10
1708.196826085623
 20
2202.382639168392
 30
0.0
 11
7088.196826085622
 21
2202.382639168392
 31
0.0
  0
LINE
  5
60D
330
1F
100
AcDbEntity
  8
3C1
100
AcDbLine
 10
7088.196826085622
 20
2202.382639168392
 30
0.0
 11
7088.196826085622
 21
3952.382639168392
 31
0.0
  0
LINE
  5
60E
330
1F
100
AcDbEntity
  8
3C1
100
AcDbLine
 10
1708.196826085623
 20
3952.382639168392
 30
0.0
 11
1898.196826085623
 21
3952.382639168392
 31
0.0
  0
LINE
  5
60F
330
1F
100
AcDbEntity
  8
3C1
100
AcDbLine
 10
7088.196826085622
 20
3952.382639168392
 30
0.0
 11
6898.196826085623
 21
3952.382639168392
 31
0.0
  0
LINE
  5
613
330
1F
100
AcDbEntity
  8
3C1
100
AcDbLine
 10
1978.196826085622
 20
2452.382639168392
 30
0.0
 11
6818.196826085624
 21
2452.382639168392
 31
0.0
  0
LINE
  5
614
330
1F
100
AcDbEntity
  8
3C1
100
AcDbLine
 10
1898.196826085623
 20
3952.382639168392
 30
0.0
 11
1957.397465318645
 21
2472.366658342827
 31
0.0
  0
LINE
  5
615
330
1F
100
AcDbEntity
  8
3C1
100
AcDbLine
 10
6898.196826085623
 20
3952.382639168392
 30
0.0
 11
6838.996186852601
 21
2472.366658342828
 31
0.0
  0
LINE
  5
616
330
1F
100
AcDbEntity
  8
3C1
100
AcDbLine
 10
1838.148845270278
 20
3952.382639168392
 30
0.0
 11
1898.148845270278
 21
2452.382639168392
 31
0.0
  0
LINE
  5
617
330
1F
100
AcDbEntity
  8
3C1
100
AcDbLine
 10
6958.244806900967
 20
3952.382639168393
 30
0.0
 11
6898.244806900968
 21
2452.382639168392
 31
0.0
  0
LINE
  5
618
330
1F
100
AcDbEntity
  8
3C1
100
AcDbLine
 10
1818.100864454934
 20
2952.382639168392
 30
0.0
 11
1838.100864454933
 21
2452.382639168392
 31
0.0
  0
LINE
  5
619
330
1F
100
AcDbEntity
  8
3C1
100
AcDbLine
 10
6978.292787716312
 20
2952.382639168392
 30
0.0
 11
6958.292787716314
 21
2452.382639168392
 31
0.0
  0
LINE
  5
61A
330
1F
100
AcDbEntity
  8
3C1
100
AcDbLine
 10
1708.196826085623
 20
2952.382639168392
 30
0.0
 11
1818.100864454934
 21
2952.382639168392
 31
0.0
  0
LINE
  5
61B
330
1F
100
AcDbEntity
  8
3C1
100
AcDbLine
 10
6978.292787716312
 20
2952.382639168392
 30
0.0
 11
7088.196826085622
 21
2952.382639168392
 31
0.0
  0
LINE
  5
61C
330
1F
100
AcDbEntity
  8
3C1
100
AcDbLine
 10
1957.397465318645
 20
2472.366658342827
 30
0.0
 11
1978.196826085622
 21
2452.382639168392
 31
0.0
  0
LINE
  5
61D
330
1F
100
AcDbEntity
  8
3C1
100
AcDbLine
 10
6818.196826085624
 20
2452.382639168392
 30
0.0
 11
6838.996186852601
 21
2472.366658342828
 31
0.0
  0
LINE
  5
61E
330
1F
100
AcDbEntity
  8
3C1
100
AcDbLine
 10
1898.148845270278
 20
2452.382639168392
 30
0.0
 11
1838.100864454933
 21
2452.382639168392
 31
0.0
  0
LINE
  5
61F
330
1F
100
AcDbEntity
  8
3C1
100
AcDbLine
 10
6898.244806900966
 20
2452.382639168392
 30
0.0
 11
6958.292787716314
 21
2452.382639168392
 31
0.0
  0
LINE
  5
620
330
1F
100
AcDbEntity
  8
3C1
100
AcDbLine
 10
1108.196826085622
 20
3952.382639168392
 30
0.0
 11
1108.196826085622
 21
2202.382639168392
 31
0.0
  0
LINE
  5
621
330
1F
100
AcDbEntity
  8
3C1
100
AcDbLine
 10
1108.196826085622
 20
2202.382639168392
 30
0.0
 11
928.1968260856229
 21
2202.382639168392
 31
0.0
  0
LINE
  5
622
330
1F
100
AcDbEntity
  8
3C1
100
AcDbLine
 10
928.1968260856229
 20
2202.382639168392
 30
0.0
 11
928.1968260856229
 21
3952.382639168392
 31
0.0
  0
LINE
  5
623
330
1F
100
AcDbEntity
  8
3C1
100
AcDbLine
 10
928.1968260856229
 20
3952.382639168392
 30
0.0
 11
1108.196826085622
 21
3952.382639168392
 31
0.0
  0
LINE
  5
628
330
1F
100
AcDbEntity
  8
3C1
100
AcDbLine
 10
1108.196826085622
 20
2952.382639168392
 30
0.0
 11
928.1968260856229
 21
2952.382639168392
 31
0.0
  0
LINE
  5
67D
330
1F
100
AcDbEntity
  8
3C1
100
AcDbLine
 10
978.1968260856229
 20
2952.382639168392
 30
0.0
 11
978.1968260856229
 21
3952.382639168392
 31
0.0
  0
LINE
  5
67E
330
1F
100
AcDbEntity
  8
3C1
100
AcDbLine
 10
1058.196826085622
 20
3952.382639168392
 30
0.0
 11
1058.196826085622
 21
2952.382639168392
 31
0.0
  0
LINE
  5
67F
330
1F
100
AcDbEntity
  8
3C1
100
AcDbLine
 10
983.1968260856228
 20
2952.382639168392
 30
0.0
 11
983.1968260856228
 21
3952.382639168392
 31
0.0
  0
LINE
  5
680
330
1F
100
AcDbEntity
  8
3C1
100
AcDbLine
 10
1053.196826085623
 20
3952.382639168392
 30
0.0
 11
1053.196826085623
 21
2952.382639168392
 31
0.0
  0
LINE
  5
681
330
1F
100
AcDbEntity
  8
4H2
100
AcDbLine
 10
978.2996654053532
 20
2944.662085645508
 30
0.0
 11
978.2996654053532
 21
2444.662085645508
 31
0.0
  0
LINE
  5
682
330
1F
100
AcDbEntity
  8
4H2
100
AcDbLine
 10
978.2996654053532
 20
2444.662085645508
 30
0.0
 11
928.1968260856229
 21
2444.662085645508
 31
0.0
  0
LINE
  5
683
330
1F
100
AcDbEntity
  8
4H2
100
AcDbLine
 10
1058.196826085622
 20
2952.382639168392
 30
0.0
 11
1058.196826085622
 21
2452.382639168392
 31
0.0
  0
LINE
  5
684
330
1F
100
AcDbEntity
  8
4H2
100
AcDbLine
 10
1058.196826085622
 20
2452.382639168392
 30
0.0
 11
1108.196826085622
 21
2452.382639168392
 31
0.0
  0
LINE
  5
1050
330
1F
100
AcDbEntity
  8
SUNPO
 62
   144
100
AcDbLine
 10
928.1968260856229
 20
2182.382639168392
 30
0.0
 11
928.1968260856229
 21
1494.586691329361
 31
0.0
  0
LINE
  5
1051
330
1F
100
AcDbEntity
  8
SUNPO
 62
   144
100
AcDbLine
 10
1108.196826085622
 20
2182.382639168392
 30
0.0
 11
1108.196826085622
 21
1494.586691329361
 31
0.0
  0
LINE
  5
1052
330
1F
100
AcDbEntity
  8
SUNPO
 62
   144
100
AcDbLine
 10
942.1968260856228
 20
1504.586691329361
 30
0.0
 11
1094.196826085622
 21
1504.586691329361
 31
0.0
  0
SOLID
  5
1053
330
1F
100
AcDbEntity
  8
SUNPO
 62
   144
100
AcDbTrace
 10
942.1968260856228
 20
1506.920024662694
 30
0.0
 11
942.1968260856228
 21
1502.253357996027
 31
0.0
 12
928.1968260856229
 22
1504.586691329361
 32
0.0
 13
928.1968260856229
 23
1504.586691329361
 33
0.0
  0
SOLID
  5
1054
330
1F
100
AcDbEntity
  8
SUNPO
 62
   144
100
AcDbTrace
 10
1094.196826085622
 20
1506.920024662694
 30
0.0
 11
1094.196826085622
 21
1502.253357996027
 31
0.0
 12
1108.196826085622
 22
1504.586691329361
 32
0.0
 13
1108.196826085622
 23
1504.586691329361
 33
0.0
  0
LINE
  5
1056
330
1F
100
AcDbEntity
  8
SUNPO
 62
   144
100
AcDbLine
 10
1977.397465318645
 20
2452.382639168392
 30
0.0
 11
2204.308137620846
 21
2452.382639168392
 31
0.0
  0
LINE
  5
1057
330
1F
100
AcDbEntity
  8
SUNPO
 62
   144
100
AcDbLine
 10
1977.397465318645
 20
2472.366658342827
 30
0.0
 11
2204.308137620846
 21
2472.366658342827
 31
0.0
  0
LINE
  5
1058
330
1F
100
AcDbEntity
  8
SUNPO
 62
   144
100
AcDbLine
 10
2194.308137620846
 20
2438.382639168392
 30
0.0
 11
2194.308137620846
 21
2424.382639168392
 31
0.0
  0
LINE
  5
1059
330
1F
100
AcDbEntity
  8
SUNPO
 62
   144
100
AcDbLine
 10
2194.308137620846
 20
2486.366658342827
 30
0.0
 11
2194.308137620846
 21
2500.366658342827
 31
0.0
  0
LINE
  5
105B
330
1F
100
AcDbEntity
  8
SUNPO
 62
   144
100
AcDbLine
 10
2194.308137620846
 20
2452.382639168392
 30
0.0
 11
2194.308137620846
 21
2472.366658342827
 31
0.0
  0
SOLID
  5
105C
330
1F
100
AcDbEntity
  8
SUNPO
 62
   144
100
AcDbTrace
 10
2191.974804287513
 20
2438.382639168392
 30
0.0
 11
2196.64147095418
 21
2438.382639168392
 31
0.0
 12
2194.308137620846
 22
2452.382639168392
 32
0.0
 13
2194.308137620846
 23
2452.382639168392
 33
0.0
  0
SOLID
  5
105D
330
1F
100
AcDbEntity
  8
SUNPO
 62
   144
100
AcDbTrace
 10
2191.974804287513
 20
2486.366658342827
 30
0.0
 11
2196.64147095418
 21
2486.366658342827
 31
0.0
 12
2194.308137620846
 22
2472.366658342827
 32
0.0
 13
2194.308137620846
 23
2472.366658342827
 33
0.0
  0
LINE
  5
105E
330
1F
100
AcDbEntity
  8
SUNPO
 62
   144
100
AcDbLine
 10
1957.397465318645
 20
2472.382639168392
 30
0.0
 11
1957.397465318645
 21
2678.507650069778
 31
0.0
  0
LINE
  5
105F
330
1F
100
AcDbEntity
  8
SUNPO
 62
   144
100
AcDbLine
 10
1978.196826085622
 20
2472.382639168392
 30
0.0
 11
1978.196826085622
 21
2678.507650069778
 31
0.0
  0
LINE
  5
1060
330
1F
100
AcDbEntity
  8
SUNPO
 62
   144
100
AcDbLine
 10
1943.397465318644
 20
2668.507650069777
 30
0.0
 11
1929.397465318645
 21
2668.507650069777
 31
0.0
  0
LINE
  5
1061
330
1F
100
AcDbEntity
  8
SUNPO
 62
   144
100
AcDbLine
 10
1992.196826085622
 20
2668.507650069777
 30
0.0
 11
2006.196826085623
 21
2668.507650069777
 31
0.0
  0
LINE
  5
1063
330
1F
100
AcDbEntity
  8
SUNPO
 62
   144
100
AcDbLine
 10
1957.397465318645
 20
2668.507650069777
 30
0.0
 11
1978.196826085622
 21
2668.507650069777
 31
0.0
  0
SOLID
  5
1064
330
1F
100
AcDbEntity
  8
SUNPO
 62
   144
100
AcDbTrace
 10
1943.397465318644
 20
2670.840983403111
 30
0.0
 11
1943.397465318644
 21
2666.174316736444
 31
0.0
 12
1957.397465318645
 22
2668.507650069777
 32
0.0
 13
1957.397465318645
 23
2668.507650069777
 33
0.0
  0
SOLID
  5
1065
330
1F
100
AcDbEntity
  8
SUNPO
 62
   144
100
AcDbTrace
 10
1992.196826085622
 20
2670.840983403111
 30
0.0
 11
1992.196826085622
 21
2666.174316736444
 31
0.0
 12
1978.196826085622
 22
2668.507650069777
 32
0.0
 13
1978.196826085622
 23
2668.507650069777
 33
0.0
  0
TEXT
  5
1066
330
1F
100
AcDbEntity
  8
SUNPO
100
AcDbText
 10
4965.748664116722
 20
408.1580982061969
 30
0.0
 40
50.0
  1
1500×5000
  7
ADD
100
AcDbText
1001
ACAD
1000
MTEXTBEGIN
1070
    73
1070
     1
1070
    44
1040
1.0
1070
    74
1070
     0
1000
MTEXTEND
1000
MTEXTBEGIN
1070
    73
1070
     1
1070
    44
1040
1.0
1070
    74
1070
     0
1000
MTEXTEND
  0
TEXT
  5
1067
330
1F
100
AcDbEntity
  8
SUNPO
100
AcDbText
 10
3035.772925871522
 20
401.3725730101668
 30
0.0
 40
50.0
  1
B型柵渠 杭
  7
ADD
100
AcDbText
1001
ACAD
1000
MTEXTBEGIN
1070
    73
1070
     1
1070
    44
1040
1.0
1070
    74
1070
     0
1000
MTEXTEND
1000
MTEXTBEGIN
1070
    73
1070
     1
1070
    44
1040
1.0
1070
    74
1070
     0
1000
MTEXTEND
  0
LINE
  5
1068
330
1F
100
AcDbEntity
  8
SUNPO
 62
   144
100
AcDbLine
 10
6898.196826085623
 20
3972.382639168392
 30
0.0
 11
6898.196826085623
 21
4311.475298592774
 31
0.0
  0
LINE
  5
1069
330
1F
100
AcDbEntity
  8
SUNPO
 62
   144
100
AcDbLine
 10
6958.244806900967
 20
3972.382639168392
 30
0.0
 11
6958.244806900967
 21
4311.475298592774
 31
0.0
  0
LINE
  5
106A
330
1F
100
AcDbEntity
  8
SUNPO
 62
   144
100
AcDbLine
 10
6912.196826085623
 20
4301.475298592773
 30
0.0
 11
6944.244806900967
 21
4301.475298592773
 31
0.0
  0
SOLID
  5
106C
330
1F
100
AcDbEntity
  8
SUNPO
 62
   144
100
AcDbTrace
 10
6912.196826085623
 20
4303.808631926107
 30
0.0
 11
6912.196826085623
 21
4299.14196525944
 31
0.0
 12
6898.196826085623
 22
4301.475298592773
 32
0.0
 13
6898.196826085623
 23
4301.475298592773
 33
0.0
  0
SOLID
  5
106D
330
1F
100
AcDbEntity
  8
SUNPO
 62
   144
100
AcDbTrace
 10
6944.244806900967
 20
4303.808631926107
 30
0.0
 11
6944.244806900967
 21
4299.14196525944
 31
0.0
 12
6958.244806900967
 22
4301.475298592773
 32
0.0
 13
6958.244806900967
 23
4301.475298592773
 33
0.0
  0
LINE
  5
106E
330
1F
100
AcDbEntity
  8
SUNPO
 62
   144
100
AcDbLine
 10
1898.196826085623
 20
3972.382639168392
 30
0.0
 11
1898.196826085623
 21
4311.475298592774
 31
0.0
  0
LINE
  5
106F
330
1F
100
AcDbEntity
  8
SUNPO
 62
   144
100
AcDbLine
 10
1838.148845270278
 20
3972.382639168392
 30
0.0
 11
1838.148845270278
 21
4311.475298592774
 31
0.0
  0
LINE
  5
1070
330
1F
100
AcDbEntity
  8
SUNPO
 62
   144
100
AcDbLine
 10
1884.196826085623
 20
4301.475298592773
 30
0.0
 11
1852.148845270278
 21
4301.475298592773
 31
0.0
  0
SOLID
  5
1072
330
1F
100
AcDbEntity
  8
SUNPO
 62
   144
100
AcDbTrace
 10
1884.196826085623
 20
4303.808631926107
 30
0.0
 11
1884.196826085623
 21
4299.14196525944
 31
0.0
 12
1898.196826085623
 22
4301.475298592773
 32
0.0
 13
1898.196826085623
 23
4301.475298592773
 33
0.0
  0
SOLID
  5
1073
330
1F
100
AcDbEntity
  8
SUNPO
 62
   144
100
AcDbTrace
 10
1852.148845270278
 20
4303.808631926107
 30
0.0
 11
1852.148845270278
 21
4299.14196525944
 31
0.0
 12
1838.148845270278
 22
4301.475298592773
 32
0.0
 13
1838.148845270278
 23
4301.475298592773
 33
0.0
  0
LINE
  5
1074
330
1F
100
AcDbEntity
  8
SUNPO
 62
   144
100
AcDbLine
 10
6838.196826085622
 20
2182.382639168392
 30
0.0
 11
6838.196826085622
 21
1787.13803298829
 31
0.0
  0
LINE
  5
1075
330
1F
100
AcDbEntity
  8
SUNPO
 62
   144
100
AcDbLine
 10
7088.196826085622
 20
2182.382639168392
 30
0.0
 11
7088.196826085622
 21
1787.13803298829
 31
0.0
  0
LINE
  5
1076
330
1F
100
AcDbEntity
  8
SUNPO
 62
   144
100
AcDbLine
 10
6852.196826085623
 20
1797.13803298829
 30
0.0
 11
7074.196826085622
 21
1797.13803298829
 31
0.0
  0
SOLID
  5
1077
330
1F
100
AcDbEntity
  8
SUNPO
 62
   144
100
AcDbTrace
 10
6852.196826085623
 20
1799.471366321624
 30
0.0
 11
6852.196826085623
 21
1794.804699654957
 31
0.0
 12
6838.196826085622
 22
1797.13803298829
 32
0.0
 13
6838.196826085622
 23
1797.13803298829
 33
0.0
  0
SOLID
  5
1078
330
1F
100
AcDbEntity
  8
SUNPO
 62
   144
100
AcDbTrace
 10
7074.196826085622
 20
1799.471366321624
 30
0.0
 11
7074.196826085622
 21
1794.804699654957
 31
0.0
 12
7088.196826085622
 22
1797.13803298829
 32
0.0
 13
7088.196826085622
 23
1797.13803298829
 33
0.0
  0
LINE
  5
107A
330
1F
100
AcDbEntity
  8
SUNPO
 62
   144
100
AcDbLine
 10
1958.196826085623
 20
2182.382639168392
 30
0.0
 11
1958.196826085623
 21
1787.13803298829
 31
0.0
  0
LINE
  5
107B
330
1F
100
AcDbEntity
  8
SUNPO
 62
   144
100
AcDbLine
 10
6838.196826085622
 20
2182.382639168392
 30
0.0
 11
6838.196826085622
 21
1787.13803298829
 31
0.0
  0
LINE
  5
107C
330
1F
100
AcDbEntity
  8
SUNPO
 62
   144
100
AcDbLine
 10
1972.196826085623
 20
1797.13803298829
 30
0.0
 11
6824.196826085622
 21
1797.13803298829
 31
0.0
  0
SOLID
  5
107D
330
1F
100
AcDbEntity
  8
SUNPO
 62
   144
100
AcDbTrace
 10
1972.196826085623
 20
1799.471366321624
 30
0.0
 11
1972.196826085623
 21
1794.804699654957
 31
0.0
 12
1958.196826085623
 22
1797.13803298829
 32
0.0
 13
1958.196826085623
 23
1797.13803298829
 33
0.0
  0
SOLID
  5
107E
330
1F
100
AcDbEntity
  8
SUNPO
 62
   144
100
AcDbTrace
 10
6824.196826085622
 20
1799.471366321624
 30
0.0
 11
6824.196826085622
 21
1794.804699654957
 31
0.0
 12
6838.196826085622
 22
1797.13803298829
 32
0.0
 13
6838.196826085622
 23
1797.13803298829
 33
0.0
  0
LINE
  5
1080
330
1F
100
AcDbEntity
  8
SUNPO
 62
   144
100
AcDbLine
 10
1708.196826085623
 20
2182.382639168392
 30
0.0
 11
1708.196826085623
 21
1787.13803298829
 31
0.0
  0
LINE
  5
1081
330
1F
100
AcDbEntity
  8
SUNPO
 62
   144
100
AcDbLine
 10
1958.196826085623
 20
2182.382639168392
 30
0.0
 11
1958.196826085623
 21
1787.13803298829
 31
0.0
  0
LINE
  5
1082
330
1F
100
AcDbEntity
  8
SUNPO
 62
   144
100
AcDbLine
 10
1722.196826085623
 20
1797.13803298829
 30
0.0
 11
1944.196826085622
 21
1797.13803298829
 31
0.0
  0
SOLID
  5
1083
330
1F
100
AcDbEntity
  8
SUNPO
 62
   144
100
AcDbTrace
 10
1722.196826085623
 20
1799.471366321624
 30
0.0
 11
1722.196826085623
 21
1794.804699654957
 31
0.0
 12
1708.196826085623
 22
1797.13803298829
 32
0.0
 13
1708.196826085623
 23
1797.13803298829
 33
0.0
  0
SOLID
  5
1084
330
1F
100
AcDbEntity
  8
SUNPO
 62
   144
100
AcDbTrace
 10
1944.196826085622
 20
1799.471366321624
 30
0.0
 11
1944.196826085622
 21
1794.804699654957
 31
0.0
 12
1958.196826085623
 22
1797.13803298829
 32
0.0
 13
1958.196826085623
 23
1797.13803298829
 33
0.0
  0
LINE
  5
1086
330
1F
100
AcDbEntity
  8
SUNPO
 62
   144
100
AcDbLine
 10
1708.196826085623
 20
2182.382639168392
 30
0.0
 11
1708.196826085623
 21
1494.586691329361
 31
0.0
  0
LINE
  5
1087
330
1F
100
AcDbEntity
  8
SUNPO
 62
   144
100
AcDbLine
 10
7088.196826085622
 20
2182.382639168392
 30
0.0
 11
7088.196826085622
 21
1494.586691329361
 31
0.0
  0
LINE
  5
1088
330
1F
100
AcDbEntity
  8
SUNPO
 62
   144
100
AcDbLine
 10
1722.196826085623
 20
1504.586691329361
 30
0.0
 11
7074.196826085622
 21
1504.586691329361
 31
0.0
  0
SOLID
  5
1089
330
1F
100
AcDbEntity
  8
SUNPO
 62
   144
100
AcDbTrace
 10
1722.196826085623
 20
1506.920024662694
 30
0.0
 11
1722.196826085623
 21
1502.253357996027
 31
0.0
 12
1708.196826085623
 22
1504.586691329361
 32
0.0
 13
1708.196826085623
 23
1504.586691329361
 33
0.0
  0
SOLID
  5
108A
330
1F
100
AcDbEntity
  8
SUNPO
 62
   144
100
AcDbTrace
 10
7074.196826085622
 20
1506.920024662694
 30
0.0
 11
7074.196826085622
 21
1502.253357996027
 31
0.0
 12
7088.196826085622
 22
1504.586691329361
 32
0.0
 13
7088.196826085622
 23
1504.586691329361
 33
0.0
  0
LINE
  5
108C
330
1F
100
AcDbEntity
  8
SUNPO
 62
   144
100
AcDbLine
 10
1688.196826085623
 20
2452.382639168392
 30
0.0
 11
1540.132521545484
 21
2452.382639168392
 31
0.0
  0
LINE
  5
108D
330
1F
100
AcDbEntity
  8
SUNPO
 62
   144
100
AcDbLine
 10
1688.196826085623
 20
3952.382639168392
 30
0.0
 11
1540.132521545485
 21
3952.382639168392
 31
0.0
  0
LINE
  5
108E
330
1F
100
AcDbEntity
  8
SUNPO
 62
   144
100
AcDbLine
 10
1550.132521545485
 20
2466.382639168392
 30
0.0
 11
1550.132521545485
 21
3938.382639168392
 31
0.0
  0
SOLID
  5
108F
330
1F
100
AcDbEntity
  8
SUNPO
 62
   144
100
AcDbTrace
 10
1547.799188212151
 20
2466.382639168392
 30
0.0
 11
1552.465854878818
 21
2466.382639168392
 31
0.0
 12
1550.132521545485
 22
2452.382639168392
 32
0.0
 13
1550.132521545485
 23
2452.382639168392
 33
0.0
  0
SOLID
  5
1090
330
1F
100
AcDbEntity
  8
SUNPO
 62
   144
100
AcDbTrace
 10
1547.799188212152
 20
3938.382639168392
 30
0.0
 11
1552.465854878818
 21
3938.382639168392
 31
0.0
 12
1550.132521545485
 22
3952.382639168392
 32
0.0
 13
1550.132521545485
 23
3952.382639168392
 33
0.0
  0
LINE
  5
1092
330
1F
100
AcDbEntity
  8
SUNPO
 62
   144
100
AcDbLine
 10
1688.196826085623
 20
2202.382639168392
 30
0.0
 11
1540.132521545485
 21
2202.382639168392
 31
0.0
  0
LINE
  5
1093
330
1F
100
AcDbEntity
  8
SUNPO
 62
   144
100
AcDbLine
 10
1688.196826085623
 20
2452.382639168392
 30
0.0
 11
1540.132521545485
 21
2452.382639168392
 31
0.0
  0
LINE
  5
1094
330
1F
100
AcDbEntity
  8
SUNPO
 62
   144
100
AcDbLine
 10
1550.132521545485
 20
2216.382639168392
 30
0.0
 11
1550.132521545485
 21
2438.382639168392
 31
0.0
  0
SOLID
  5
1095
330
1F
100
AcDbEntity
  8
SUNPO
 62
   144
100
AcDbTrace
 10
1547.799188212152
 20
2216.382639168392
 30
0.0
 11
1552.465854878818
 21
2216.382639168392
 31
0.0
 12
1550.132521545485
 22
2202.382639168392
 32
0.0
 13
1550.132521545485
 23
2202.382639168392
 33
0.0
  0
SOLID
  5
1096
330
1F
100
AcDbEntity
  8
SUNPO
 62
   144
100
AcDbTrace
 10
1547.799188212152
 20
2438.382639168392
 30
0.0
 11
1552.465854878818
 21
2438.382639168392
 31
0.0
 12
1550.132521545485
 22
2452.382639168392
 32
0.0
 13
1550.132521545485
 23
2452.382639168392
 33
0.0
  0
LINE
  5
1098
330
1F
100
AcDbEntity
  8
SUNPO
 62
   144
100
AcDbLine
 10
1688.196826085623
 20
2202.382639168392
 30
0.0
 11
1384.349998287266
 21
2202.382639168392
 31
0.0
  0
LINE
  5
1099
330
1F
100
AcDbEntity
  8
SUNPO
 62
   144
100
AcDbLine
 10
1688.196826085623
 20
3952.382639168392
 30
0.0
 11
1384.349998287267
 21
3952.382639168392
 31
0.0
  0
LINE
  5
109A
330
1F
100
AcDbEntity
  8
SUNPO
 62
   144
100
AcDbLine
 10
1394.349998287266
 20
2216.382639168392
 30
0.0
 11
1394.349998287267
 21
3938.382639168392
 31
0.0
  0
SOLID
  5
109B
330
1F
100
AcDbEntity
  8
SUNPO
 62
   144
100
AcDbTrace
 10
1392.016664953933
 20
2216.382639168392
 30
0.0
 11
1396.6833316206
 21
2216.382639168392
 31
0.0
 12
1394.349998287266
 22
2202.382639168392
 32
0.0
 13
1394.349998287266
 23
2202.382639168392
 33
0.0
  0
SOLID
  5
109C
330
1F
100
AcDbEntity
  8
SUNPO
 62
   144
100
AcDbTrace
 10
1392.016664953934
 20
3938.382639168392
 30
0.0
 11
1396.6833316206
 21
3938.382639168392
 31
0.0
 12
1394.349998287267
 22
3952.382639168392
 32
0.0
 13
1394.349998287267
 23
3952.382639168392
 33
0.0
  0
LINE
  5
109E
330
1F
100
AcDbEntity
  8
SUNPO
 62
   144
100
AcDbLine
 10
983.1968260856228
 20
3972.382639168392
 30
0.0
 11
983.1968260856228
 21
4330.578547622388
 31
0.0
  0
LINE
  5
109F
330
1F
100
AcDbEntity
  8
SUNPO
 62
   144
100
AcDbLine
 10
1053.196826085623
 20
3972.382639168392
 30
0.0
 11
1053.196826085623
 21
4330.578547622388
 31
0.0
  0
LINE
  5
10A0
330
1F
100
AcDbEntity
  8
SUNPO
 62
   144
100
AcDbLine
 10
997.1968260856229
 20
4320.578547622388
 30
0.0
 11
1039.196826085623
 21
4320.578547622388
 31
0.0
  0
SOLID
  5
10A2
330
1F
100
AcDbEntity
  8
SUNPO
 62
   144
100
AcDbTrace
 10
997.1968260856229
 20
4322.911880955721
 30
0.0
 11
997.1968260856229
 21
4318.245214289055
 31
0.0
 12
983.1968260856228
 22
4320.578547622388
 32
0.0
 13
983.1968260856228
 23
4320.578547622388
 33
0.0
  0
SOLID
  5
10A3
330
1F
100
AcDbEntity
  8
SUNPO
 62
   144
100
AcDbTrace
 10
1039.196826085623
 20
4322.911880955721
 30
0.0
 11
1039.196826085623
 21
4318.245214289055
 31
0.0
 12
1053.196826085623
 22
4320.578547622388
 32
0.0
 13
1053.196826085623
 23
4320.578547622388
 33
0.0
  0
LINE
  5
10A4
330
1F
100
AcDbEntity
  8
SUNPO
 62
   144
100
AcDbLine
 10
1108.196826085622
 20
3972.382639168392
 30
0.0
 11
1108.196826085622
 21
4330.578547622388
 31
0.0
  0
LINE
  5
10A5
330
1F
100
AcDbEntity
  8
SUNPO
 62
   144
100
AcDbLine
 10
1058.196826085622
 20
3972.382639168392
 30
0.0
 11
1058.196826085622
 21
4330.578547622388
 31
0.0
  0
LINE
  5
10A6
330
1F
100
AcDbEntity
  8
SUNPO
 62
   144
100
AcDbLine
 10
1122.196826085622
 20
4320.578547622388
 30
0.0
 11
1136.196826085622
 21
4320.578547622388
 31
0.0
  0
LINE
  5
10A7
330
1F
100
AcDbEntity
  8
SUNPO
 62
   144
100
AcDbLine
 10
1044.196826085622
 20
4320.578547622388
 30
0.0
 11
1030.196826085622
 21
4320.578547622388
 31
0.0
  0
LINE
  5
10A9
330
1F
100
AcDbEntity
  8
SUNPO
 62
   144
100
AcDbLine
 10
1108.196826085622
 20
4320.578547622388
 30
0.0
 11
1058.196826085622
 21
4320.578547622388
 31
0.0
  0
SOLID
  5
10AA
330
1F
100
AcDbEntity
  8
SUNPO
 62
   144
100
AcDbTrace
 10
1122.196826085622
 20
4322.911880955721
 30
0.0
 11
1122.196826085622
 21
4318.245214289055
 31
0.0
 12
1108.196826085622
 22
4320.578547622388
 32
0.0
 13
1108.196826085622
 23
4320.578547622388
 33
0.0
  0
SOLID
  5
10AB
330
1F
100
AcDbEntity
  8
SUNPO
 62
   144
100
AcDbTrace
 10
1044.196826085622
 20
4322.911880955721
 30
0.0
 11
1044.196826085622
 21
4318.245214289055
 31
0.0
 12
1058.196826085622
 22
4320.578547622388
 32
0.0
 13
1058.196826085622
 23
4320.578547622388
 33
0.0
  0
LINE
  5
10AC
330
1F
100
AcDbEntity
  8
SUNPO
 62
   144
100
AcDbLine
 10
928.1968260856229
 20
3972.382639168392
 30
0.0
 11
928.1968260856229
 21
4330.578547622388
 31
0.0
  0
LINE
  5
10AD
330
1F
100
AcDbEntity
  8
SUNPO
 62
   144
100
AcDbLine
 10
978.1968260856229
 20
3972.382639168392
 30
0.0
 11
978.1968260856229
 21
4330.578547622388
 31
0.0
  0
LINE
  5
10AE
330
1F
100
AcDbEntity
  8
SUNPO
 62
   144
100
AcDbLine
 10
914.1968260856229
 20
4320.578547622388
 30
0.0
 11
900.1968260856228
 21
4320.578547622388
 31
0.0
  0
LINE
  5
10AF
330
1F
100
AcDbEntity
  8
SUNPO
 62
   144
100
AcDbLine
 10
992.1968260856228
 20
4320.578547622388
 30
0.0
 11
1006.196826085622
 21
4320.578547622388
 31
0.0
  0
LINE
  5
10B1
330
1F
100
AcDbEntity
  8
SUNPO
 62
   144
100
AcDbLine
 10
928.1968260856229
 20
4320.578547622388
 30
0.0
 11
978.1968260856229
 21
4320.578547622388
 31
0.0
  0
SOLID
  5
10B2
330
1F
100
AcDbEntity
  8
SUNPO
 62
   144
100
AcDbTrace
 10
914.1968260856229
 20
4322.911880955721
 30
0.0
 11
914.1968260856229
 21
4318.245214289055
 31
0.0
 12
928.1968260856229
 22
4320.578547622388
 32
0.0
 13
928.1968260856229
 23
4320.578547622388
 33
0.0
  0
SOLID
  5
10B3
330
1F
100
AcDbEntity
  8
SUNPO
 62
   144
100
AcDbTrace
 10
992.1968260856228
 20
4322.911880955721
 30
0.0
 11
992.1968260856228
 21
4318.245214289055
 31
0.0
 12
978.1968260856229
 22
4320.578547622388
 32
0.0
 13
978.1968260856229
 23
4320.578547622388
 33
0.0
  0
LINE
  5
10B4
330
1F
100
AcDbEntity
  8
SUNPO
 62
   144
100
AcDbLine
 10
6898.196826085623
 20
3972.382639168392
 30
0.0
 11
6898.196826085623
 21
4630.567958017155
 31
0.0
  0
LINE
  5
10B5
330
1F
100
AcDbEntity
  8
SUNPO
 62
   144
100
AcDbLine
 10
7088.196826085622
 20
3972.382639168392
 30
0.0
 11
7088.196826085622
 21
4630.567958017155
 31
0.0
  0
LINE
  5
10B6
330
1F
100
AcDbEntity
  8
SUNPO
 62
   144
100
AcDbLine
 10
6912.196826085623
 20
4620.567958017154
 30
0.0
 11
7074.196826085622
 21
4620.567958017154
 31
0.0
  0
SOLID
  5
10B7
330
1F
100
AcDbEntity
  8
SUNPO
 62
   144
100
AcDbTrace
 10
6912.196826085623
 20
4622.901291350487
 30
0.0
 11
6912.196826085623
 21
4618.234624683821
 31
0.0
 12
6898.196826085623
 22
4620.567958017154
 32
0.0
 13
6898.196826085623
 23
4620.567958017154
 33
0.0
  0
SOLID
  5
10B8
330
1F
100
AcDbEntity
  8
SUNPO
 62
   144
100
AcDbTrace
 10
7074.196826085622
 20
4622.901291350487
 30
0.0
 11
7074.196826085622
 21
4618.234624683821
 31
0.0
 12
7088.196826085622
 22
4620.567958017154
 32
0.0
 13
7088.196826085622
 23
4620.567958017154
 33
0.0
  0
LINE
  5
10BA
330
1F
100
AcDbEntity
  8
SUNPO
 62
   144
100
AcDbLine
 10
1898.196826085623
 20
3972.382639168392
 30
0.0
 11
1898.196826085623
 21
4630.567958017155
 31
0.0
  0
LINE
  5
10BB
330
1F
100
AcDbEntity
  8
SUNPO
 62
   144
100
AcDbLine
 10
6898.196826085623
 20
3972.382639168392
 30
0.0
 11
6898.196826085623
 21
4630.567958017155
 31
0.0
  0
LINE
  5
10BC
330
1F
100
AcDbEntity
  8
SUNPO
 62
   144
100
AcDbLine
 10
1912.196826085622
 20
4620.567958017154
 30
0.0
 11
6884.196826085624
 21
4620.567958017154
 31
0.0
  0
SOLID
  5
10BD
330
1F
100
AcDbEntity
  8
SUNPO
 62
   144
100
AcDbTrace
 10
1912.196826085622
 20
4622.901291350487
 30
0.0
 11
1912.196826085622
 21
4618.234624683821
 31
0.0
 12
1898.196826085623
 22
4620.567958017154
 32
0.0
 13
1898.196826085623
 23
4620.567958017154
 33
0.0
  0
SOLID
  5
10BE
330
1F
100
AcDbEntity
  8
SUNPO
 62
   144
100
AcDbTrace
 10
6884.196826085624
 20
4622.901291350487
 30
0.0
 11
6884.196826085624
 21
4618.234624683821
 31
0.0
 12
6898.196826085623
 22
4620.567958017154
 32
0.0
 13
6898.196826085623
 23
4620.567958017154
 33
0.0
  0
LINE
  5
10C0
330
1F
100
AcDbEntity
  8
SUNPO
 62
   144
100
AcDbLine
 10
1708.196826085623
 20
3972.382639168392
 30
0.0
 11
1708.196826085623
 21
4630.567958017155
 31
0.0
  0
LINE
  5
10C1
330
1F
100
AcDbEntity
  8
SUNPO
 62
   144
100
AcDbLine
 10
1898.196826085623
 20
3972.382639168392
 30
0.0
 11
1898.196826085623
 21
4630.567958017155
 31
0.0
  0
LINE
  5
10C2
330
1F
100
AcDbEntity
  8
SUNPO
 62
   144
100
AcDbLine
 10
1722.196826085623
 20
4620.567958017154
 30
0.0
 11
1884.196826085623
 21
4620.567958017154
 31
0.0
  0
SOLID
  5
10C3
330
1F
100
AcDbEntity
  8
SUNPO
 62
   144
100
AcDbTrace
 10
1722.196826085623
 20
4622.901291350487
 30
0.0
 11
1722.196826085623
 21
4618.234624683821
 31
0.0
 12
1708.196826085623
 22
4620.567958017154
 32
0.0
 13
1708.196826085623
 23
4620.567958017154
 33
0.0
  0
SOLID
  5
10C4
330
1F
100
AcDbEntity
  8
SUNPO
 62
   144
100
AcDbTrace
 10
1884.196826085623
 20
4622.901291350487
 30
0.0
 11
1884.196826085623
 21
4618.234624683821
 31
0.0
 12
1898.196826085623
 22
4620.567958017154
 32
0.0
 13
1898.196826085623
 23
4620.567958017154
 33
0.0
  0
LINE
  5
10C6
330
1F
100
AcDbEntity
  8
SUNPO
 62
   144
100
AcDbLine
 10
928.1968260856229
 20
3972.382639168392
 30
0.0
 11
928.1968260856229
 21
4630.567958017155
 31
0.0
  0
LINE
  5
10C7
330
1F
100
AcDbEntity
  8
SUNPO
 62
   144
100
AcDbLine
 10
1108.196826085622
 20
3972.382639168392
 30
0.0
 11
1108.196826085622
 21
4630.567958017155
 31
0.0
  0
LINE
  5
10C8
330
1F
100
AcDbEntity
  8
SUNPO
 62
   144
100
AcDbLine
 10
942.1968260856228
 20
4620.567958017154
 30
0.0
 11
1094.196826085622
 21
4620.567958017154
 31
0.0
  0
SOLID
  5
10C9
330
1F
100
AcDbEntity
  8
SUNPO
 62
   144
100
AcDbTrace
 10
942.1968260856228
 20
4622.901291350487
 30
0.0
 11
942.1968260856228
 21
4618.234624683821
 31
0.0
 12
928.1968260856229
 22
4620.567958017154
 32
0.0
 13
928.1968260856229
 23
4620.567958017154
 33
0.0
  0
SOLID
  5
10CA
330
1F
100
AcDbEntity
  8
SUNPO
 62
   144
100
AcDbTrace
 10
1094.196826085622
 20
4622.901291350487
 30
0.0
 11
1094.196826085622
 21
4618.234624683821
 31
0.0
 12
1108.196826085622
 22
4620.567958017154
 32
0.0
 13
1108.196826085622
 23
4620.567958017154
 33
0.0
  0
TEXT
  5
10CC
330
1F
100
AcDbEntity
  8
SUNPO
100
AcDbText
 10
5706.680311730543
 20
359.2274732162223
 30
0.0
 40
70.0
  1
１／２０
  7
ADD
100
AcDbText
1001
ACAD
1000
MTEXTBEGIN
1070
    73
1070
     1
1070
    44
1040
1.0
1070
    74
1070
     0
1000
MTEXTEND
1000
MTEXTBEGIN
1070
    73
1070
     1
1070
    44
1040
1.0
1070
    74
1070
     0
1000
MTEXTEND
  0
TEXT
  5
10CD
330
1F
100
AcDbEntity
  8
SUNPO
100
AcDbText
 10
2841.886257401154
 20
488.6918916770627
 30
0.0
 40
50.0
  1
製品名
  7
ADD
100
AcDbText
1001
ACAD
1000
MTEXTBEGIN
1070
    73
1070
     1
1070
    44
1040
1.0
1070
    74
1070
     0
1000
MTEXTEND
1000
MTEXTBEGIN
1070
    73
1070
     1
1070
    44
1040
1.0
1070
    74
1070
     0
1000
MTEXTEND
  0
TEXT
  5
10CE
330
1F
100
AcDbEntity
  8
SUNPO
100
AcDbText
 10
4836.290169028721
 20
494.4531736811823
 30
0.0
 40
50.0
  1
型式
  7
ADD
100
AcDbText
1001
ACAD
1000
MTEXTBEGIN
1070
    73
1070
     1
1070
    44
1040
1.0
1070
    74
1070
     0
1000
MTEXTEND
1000
MTEXTBEGIN
1070
    73
1070
     1
1070
    44
1040
1.0
1070
    74
1070
     0
1000
MTEXTEND
  0
TEXT
  5
10CF
330
1F
100
AcDbEntity
  8
SUNPO
100
AcDbText
 10
5637.510249231659
 20
488.6918916770627
 30
0.0
 40
50.0
  1
縮尺
  7
ADD
100
AcDbText
1001
ACAD
1000
MTEXTBEGIN
1070
    73
1070
     1
1070
    44
1040
1.0
1070
    74
1070
     0
1000
MTEXTEND
1000
MTEXTBEGIN
1070
    73
1070
     1
1070
    44
1040
1.0
1070
    74
1070
     0
1000
MTEXTEND
  0
TEXT
  5
10D0
330
1F
100
AcDbEntity
  8
SUNPO
100
AcDbText
 10
6190.870883051571
 20
352.2726133092145
 30
0.0
 40
100.0
  1
千葉県コンクリート製品協同組合
  7
ADD
100
AcDbText
1001
ACAD
1000
MTEXTBEGIN
1070
    73
1070
     1
1070
    44
1040
1.0
1070
    74
1070
     0
1000
MTEXTEND
1000
MTEXTBEGIN
1070
    73
1070
     1
1070
    44
1040
1.0
1070
    74
1070
     0
1000
MTEXTEND
  0
LINE
  5
10D1
330
1F
100
AcDbEntity
  8
HOJO
100
AcDbLine
 10
360.0
 20
260.0
 30
0.0
 11
8040.0
 21
260.0
 31
0.0
  0
LINE
  5
10D2
330
1F
100
AcDbEntity
  8
HOJO
100
AcDbLine
 10
8040.0
 20
260.0
 30
0.0
 11
8040.0
 21
5680.0
 31
0.0
  0
LINE
  5
10D3
330
1F
100
AcDbEntity
  8
HOJO
100
AcDbLine
 10
8040.0
 20
5680.0
 30
0.0
 11
360.0
 21
5680.0
 31
0.0
  0
LINE
  5
10D4
330
1F
100
AcDbEntity
  8
HOJO
100
AcDbLine
 10
360.0
 20
5680.0
 30
0.0
 11
360.0
 21
260.0
 31
0.0
  0
LINE
  5
10D5
330
1F
100
AcDbEntity
  8
HOJO
100
AcDbLine
 10
0.0
 20
0.0
 30
0.0
 11
8400.0
 21
0.0
 31
0.0
  0
LINE
  5
10D6
330
1F
100
AcDbEntity
  8
HOJO
100
AcDbLine
 10
8400.0
 20
0.0
 30
0.0
 11
8400.0
 21
5940.0
 31
0.0
  0
LINE
  5
10D7
330
1F
100
AcDbEntity
  8
HOJO
100
AcDbLine
 10
8400.0
 20
5940.0
 30
0.0
 11
0.0
 21
5940.0
 31
0.0
  0
LINE
  5
10D8
330
1F
100
AcDbEntity
  8
HOJO
100
AcDbLine
 10
0.0
 20
5940.0
 30
0.0
 11
0.0
 21
0.0
 31
0.0
  0
TEXT
  5
10D9
330
1F
100
AcDbEntity
  8
SUNPO
 62
     7
100
AcDbText
 10
943.1968260856228
 20
4633.067958017154
 30
0.0
 40
50.0
  1
180
  7
ADD
100
AcDbText
1001
ACAD
1000
MTEXTBEGIN
1070
    73
1070
     1
1070
    44
1040
1.0
1070
    74
1070
     0
1000
MTEXTEND
1000
MTEXTBEGIN
1070
    73
1070
     1
1070
    44
1040
1.0
1070
    74
1070
     0
1000
MTEXTEND
  0
TEXT
  5
10DA
330
1F
100
AcDbEntity
  8
SUNPO
 62
     7
100
AcDbText
 10
1728.196826085622
 20
4633.067958017154
 30
0.0
 40
50.0
  1
190
  7
ADD
100
AcDbText
1001
ACAD
1000
MTEXTBEGIN
1070
    73
1070
     1
1070
    44
1040
1.0
1070
    74
1070
     0
1000
MTEXTEND
1000
MTEXTBEGIN
1070
    73
1070
     1
1070
    44
1040
1.0
1070
    74
1070
     0
1000
MTEXTEND
  0
TEXT
  5
10DB
330
1F
100
AcDbEntity
  8
SUNPO
 62
     7
100
AcDbText
 10
4302.958730847527
 20
4633.067958017154
 30
0.0
 40
50.0
  1
5000
  7
ADD
100
AcDbText
1001
ACAD
1000
MTEXTBEGIN
1070
    73
1070
     1
1070
    44
1040
1.0
1070
    74
1070
     0
1000
MTEXTEND
1000
MTEXTBEGIN
1070
    73
1070
     1
1070
    44
1040
1.0
1070
    74
1070
     0
1000
MTEXTEND
  0
TEXT
  5
10DC
330
1F
100
AcDbEntity
  8
SUNPO
 62
     7
100
AcDbText
 10
6918.196826085623
 20
4633.067958017154
 30
0.0
 40
50.0
  1
190
  7
ADD
100
AcDbText
1001
ACAD
1000
MTEXTBEGIN
1070
    73
1070
     1
1070
    44
1040
1.0
1070
    74
1070
     0
1000
MTEXTEND
1000
MTEXTBEGIN
1070
    73
1070
     1
1070
    44
1040
1.0
1070
    74
1070
     0
1000
MTEXTEND
  0
TEXT
  5
10DD
330
1F
100
AcDbEntity
  8
SUNPO
 62
     7
100
AcDbText
 10
818.0793116752775
 20
4349.328547622388
 30
0.0
 40
50.0
  1
50
  7
ADD
100
AcDbText
1001
ACAD
1000
MTEXTBEGIN
1070
    73
1070
     1
1070
    44
1040
1.0
1070
    74
1070
     0
1000
MTEXTEND
1000
MTEXTBEGIN
1070
    73
1070
     1
1070
    44
1040
1.0
1070
    74
1070
     0
1000
MTEXTEND
  0
TEXT
  5
10DE
330
1F
100
AcDbEntity
  8
SUNPO
 62
     7
100
AcDbText
 10
1115.546285310835
 20
4349.328547622388
 30
0.0
 40
50.0
  1
50
  7
ADD
100
AcDbText
1001
ACAD
1000
MTEXTBEGIN
1070
    73
1070
     1
1070
    44
1040
1.0
1070
    74
1070
     0
1000
MTEXTEND
1000
MTEXTBEGIN
1070
    73
1070
     1
1070
    44
1040
1.0
1070
    74
1070
     0
1000
MTEXTEND
  0
TEXT
  5
10DF
330
1F
100
AcDbEntity
  8
SUNPO
 62
     7
100
AcDbText
 10
970.5777784665754
 20
4349.328547622388
 30
0.0
 40
50.0
  1
70
  7
ADD
100
AcDbText
1001
ACAD
1000
MTEXTBEGIN
1070
    73
1070
     1
1070
    44
1040
1.0
1070
    74
1070
     0
1000
MTEXTEND
1000
MTEXTBEGIN
1070
    73
1070
     1
1070
    44
1040
1.0
1070
    74
1070
     0
1000
MTEXTEND
  0
TEXT
  5
10E0
330
1F
100
AcDbEntity
  8
SUNPO
 62
     7
100
AcDbText
 10
1381.849998287266
 20
2978.573115358869
 30
0.0
 40
50.0
  1
1750
 50
90.0
  7
ADD
100
AcDbText
1001
ACAD
1000
MTEXTBEGIN
1070
    73
1070
     1
1070
    44
1040
1.0
1070
    74
1070
     0
1000
MTEXTEND
1000
MTEXTBEGIN
1070
    73
1070
     1
1070
    44
1040
1.0
1070
    74
1070
     0
1000
MTEXTEND
  0
TEXT
  5
10E1
330
1F
100
AcDbEntity
  8
SUNPO
 62
     7
100
AcDbText
 10
1537.632521545485
 20
2255.954067739821
 30
0.0
 40
50.0
  1
250
 50
90.0
  7
ADD
100
AcDbText
1001
ACAD
1000
MTEXTBEGIN
1070
    73
1070
     1
1070
    44
1040
1.0
1070
    74
1070
     0
1000
MTEXTEND
1000
MTEXTBEGIN
1070
    73
1070
     1
1070
    44
1040
1.0
1070
    74
1070
     0
1000
MTEXTEND
  0
TEXT
  5
10E2
330
1F
100
AcDbEntity
  8
SUNPO
 62
     7
100
AcDbText
 10
1537.632521545484
 20
3103.573115358868
 30
0.0
 40
50.0
  1
1500
 50
90.0
  7
ADD
100
AcDbText
1001
ACAD
1000
MTEXTBEGIN
1070
    73
1070
     1
1070
    44
1040
1.0
1070
    74
1070
     0
1000
MTEXTEND
1000
MTEXTBEGIN
1070
    73
1070
     1
1070
    44
1040
1.0
1070
    74
1070
     0
1000
MTEXTEND
  0
TEXT
  5
10E3
330
1F
100
AcDbEntity
  8
SUNPO
 62
     7
100
AcDbText
 10
4302.958730847527
 20
1517.086691329361
 30
0.0
 40
50.0
  1
5380
  7
ADD
100
AcDbText
1001
ACAD
1000
MTEXTBEGIN
1070
    73
1070
     1
1070
    44
1040
1.0
1070
    74
1070
     0
1000
MTEXTEND
1000
MTEXTBEGIN
1070
    73
1070
     1
1070
    44
1040
1.0
1070
    74
1070
     0
1000
MTEXTEND
  0
TEXT
  5
10E4
330
1F
100
AcDbEntity
  8
SUNPO
 62
     7
100
AcDbText
 10
1761.768254657051
 20
1809.63803298829
 30
0.0
 40
50.0
  1
250
  7
ADD
100
AcDbText
1001
ACAD
1000
MTEXTBEGIN
1070
    73
1070
     1
1070
    44
1040
1.0
1070
    74
1070
     0
1000
MTEXTEND
1000
MTEXTBEGIN
1070
    73
1070
     1
1070
    44
1040
1.0
1070
    74
1070
     0
1000
MTEXTEND
  0
TEXT
  5
10E5
330
1F
100
AcDbEntity
  8
SUNPO
 62
     7
100
AcDbText
 10
4302.958730847527
 20
1809.63803298829
 30
0.0
 40
50.0
  1
4880
  7
ADD
100
AcDbText
1001
ACAD
1000
MTEXTBEGIN
1070
    73
1070
     1
1070
    44
1040
1.0
1070
    74
1070
     0
1000
MTEXTEND
1000
MTEXTBEGIN
1070
    73
1070
     1
1070
    44
1040
1.0
1070
    74
1070
     0
1000
MTEXTEND
  0
TEXT
  5
10E6
330
1F
100
AcDbEntity
  8
SUNPO
 62
     7
100
AcDbText
 10
6891.768254657051
 20
1809.63803298829
 30
0.0
 40
50.0
  1
250
  7
ADD
100
AcDbText
1001
ACAD
1000
MTEXTBEGIN
1070
    73
1070
     1
1070
    44
1040
1.0
1070
    74
1070
     0
1000
MTEXTEND
1000
MTEXTBEGIN
1070
    73
1070
     1
1070
    44
1040
1.0
1070
    74
1070
     0
1000
MTEXTEND
  0
TEXT
  5
10E7
330
1F
100
AcDbEntity
  8
SUNPO
 62
     7
100
AcDbText
 10
1819.363311868427
 20
4330.225298592774
 30
0.0
 40
50.0
  1
60
  7
ADD
100
AcDbText
1001
ACAD
1000
MTEXTBEGIN
1070
    73
1070
     1
1070
    44
1040
1.0
1070
    74
1070
     0
1000
MTEXTEND
1000
MTEXTBEGIN
1070
    73
1070
     1
1070
    44
1040
1.0
1070
    74
1070
     0
1000
MTEXTEND
  0
TEXT
  5
10E8
330
1F
100
AcDbEntity
  8
SUNPO
 62
     7
100
AcDbText
 10
6879.411292683771
 20
4330.225298592774
 30
0.0
 40
50.0
  1
60
  7
ADD
100
AcDbText
1001
ACAD
1000
MTEXTBEGIN
1070
    73
1070
     1
1070
    44
1040
1.0
1070
    74
1070
     0
1000
MTEXTEND
1000
MTEXTBEGIN
1070
    73
1070
     1
1070
    44
1040
1.0
1070
    74
1070
     0
1000
MTEXTEND
  0
TEXT
  5
10E9
330
1F
100
AcDbEntity
  8
SUNPO
 62
     7
100
AcDbText
 10
1920.178098083086
 20
2697.257650069778
 30
0.0
 40
50.0
  1
20
  7
ADD
100
AcDbText
1001
ACAD
1000
MTEXTBEGIN
1070
    73
1070
     1
1070
    44
1040
1.0
1070
    74
1070
     0
1000
MTEXTEND
1000
MTEXTBEGIN
1070
    73
1070
     1
1070
    44
1040
1.0
1070
    74
1070
     0
1000
MTEXTEND
  0
TEXT
  5
10EA
330
1F
100
AcDbEntity
  8
SUNPO
 62
     7
100
AcDbText
 10
2323.058137620846
 20
2414.755601136562
 30
0.0
 40
50.0
  1
20
 50
90.0
  7
ADD
100
AcDbText
1001
ACAD
1000
MTEXTBEGIN
1070
    73
1070
     1
1070
    44
1040
1.0
1070
    74
1070
     0
1000
MTEXTEND
1000
MTEXTBEGIN
1070
    73
1070
     1
1070
    44
1040
1.0
1070
    74
1070
     0
1000
MTEXTEND
  0
TEXT
  5
10EB
330
1F
100
AcDbEntity
  8
SUNPO
 62
     7
100
AcDbText
 10
943.1968260856228
 20
1517.086691329361
 30
0.0
 40
50.0
  1
180
  7
ADD
100
AcDbText
1001
ACAD
1000
MTEXTBEGIN
1070
    73
1070
     1
1070
    44
1040
1.0
1070
    74
1070
     0
1000
MTEXTEND
1000
MTEXTBEGIN
1070
    73
1070
     1
1070
    44
1040
1.0
1070
    74
1070
     0
1000
MTEXTEND
  0
VIEWPORT
  5
72
330
1B
100
AcDbEntity
 67
     1
  8
0
100
AcDbViewport
 10
429.8380103383459
 20
277.0
 30
0.0
 40
948.9782706766918
 41
628.4520000000001
 68
     1
 69
     1
1001
ACAD
1000
MVIEW
1002
{
1070
    16
1010
0.0
1020
0.0
1030
0.0
1010
0.0
1020
0.0
1030
1.0
1040
0.0
1040
628.4520000000001
1040
429.8380103383459
1040
277.0
1040
50.0
1040
0.0
1040
0.0
1070
     0
1070
   100
1070
     1
1070
     1
1070
     0
1070
     0
1070
     0
1070
     0
1040
0.0
1040
0.0
1040
0.0
1040
10.0
1040
10.0
1040
10.0
1040
10.0
1070
     0
1002
{
1002
}
1002
}
  0
VIEWPORT
  5
74
330
1B
100
AcDbEntity
 67
     1
  8
VIEWPORT
100
AcDbViewport
 10
414.3779638919211
 20
277.3177265058034
 30
0.0
 40
840.0353682728887
 41
567.2285469943826
 68
     2
 69
     2
1001
ACAD
1000
MVIEW
1002
{
1070
    16
1010
0.0
1020
0.0
1030
0.0
1010
0.0
1020
0.0
1030
1.0
1040
0.0
1040
579.5583043546323
1040
424.4938908624541
1040
286.1973242720074
1040
50.0
1040
0.0
1040
0.0
1070
     0
1070
   100
1070
     1
1070
     1
1070
     0
1070
     0
1070
     0
1070
     0
1040
0.0
1040
0.0
1040
0.0
1040
10.0
1040
10.0
1040
10.0
1040
10.0
1070
     0
1002
{
1002
}
1002
}
  0
ENDSEC
  0
SECTION
  2
OBJECTS
  0
DICTIONARY
  5
C
330
0
100
AcDbDictionary
  3
ACAD_GROUP
350
D
  3
ACAD_LAYOUT
350
1A
  3
ACAD_MLINESTYLE
350
17
  3
ACAD_PLOTSETTINGS
350
19
  3
DWGPROPS
350
4C7
1001
ACAD
1000
TREAT_AS_HARD
1070
     0
  0
DICTIONARY
  5
F33
330
1F
100
AcDbDictionary
  3
ACAD_LAYOUTSELFREF
350
10EE
1001
ACAD
1000
TREAT_AS_HARD
1070
     1
  0
DICTIONARY
  5
F35
330
1B
100
AcDbDictionary
  3
ACAD_LAYOUTSELFREF
350
10ED
1001
ACAD
1000
TREAT_AS_HARD
1070
     1
  0
DICTIONARY
  5
D
102
{ACAD_REACTORS
330
C
102
}
330
C
100
AcDbDictionary
1001
ACAD
1000
TREAT_AS_HARD
1070
     0
  0
DICTIONARY
  5
1A
102
{ACAD_REACTORS
330
C
102
}
330
C
100
AcDbDictionary
1001
ACAD
1000
TREAT_AS_HARD
1070
     0
  0
DICTIONARY
  5
17
102
{ACAD_REACTORS
330
C
102
}
330
C
100
AcDbDictionary
  3
STANDARD
350
18
1001
ACAD
1000
TREAT_AS_HARD
1070
     0
  0
DICTIONARY
  5
19
102
{ACAD_REACTORS
330
C
102
}
330
C
100
AcDbDictionary
1001
ACAD
1000
TREAT_AS_HARD
1070
     0
  0
XRECORD
  5
4C7
102
{ACAD_REACTORS
330
C
102
}
330
C
100
AcDbXrecord
  1
DWGPROPS COOKIE
  2
印刷用テスト
  3
AutoCAD2000による建築設計
  4
鈴木 裕二
  6

  7

  8
U2
  9

300
=
301
=
302
=
303
=
304
=
305
=
306
=
307
=
308
=
309
=
 40
0.7653446875
 41
2451285.4846114
 42
2451333.689743032
  1

 90
        0
  0
XRECORD
  5
10EE
102
{ACAD_REACTORS
330
F33
102
}
330
F33
100
AcDbXrecord
340
1F
  0
XRECORD
  5
10ED
102
{ACAD_REACTORS
330
F35
102
}
330
F35
100
AcDbXrecord
340
1B
  0
MLINESTYLE
  5
18
102
{ACAD_REACTORS
330
17
102
}
330
17
100
AcDbMlineStyle
  2
STANDARD
 70
     0
  3

 62
   256
 51
90.0
 52
90.0
 71
     2
 49
0.5
 62
   256
  6
BYLAYER
 49
-0.5
 62
   256
  6
BYLAYER
  0
ENDSEC
  0
EOF
