  0
SECTION
  2
HEADER
  9
$ACADVER
  1
AC1012
  9
$DWGCODEPAGE
  3
dos932
  9
$INSBASE
 10
0.0
 20
0.0
 30
0.0
  9
$EXTMIN
 10
0.0
 20
0.0
 30
0.0
  9
$EXTMAX
 10
5940.0
 20
4200.0
 30
0.0
  9
$LIMMIN
 10
0.0
 20
0.0
  9
$LIMMAX
 10
5940.0
 20
4200.0
  9
$ORTHOMODE
 70
     0
  9
$REGENMODE
 70
     1
  9
$FILLMODE
 70
     1
  9
$QTEXTMODE
 70
     0
  9
$MIRRTEXT
 70
     0
  9
$DRAGMODE
 70
     2
  9
$LTSCALE
 40
10.0
  9
$OSMODE
 70
    37
  9
$ATTMODE
 70
     1
  9
$TEXTSIZE
 40
50.0
  9
$TRACEWID
 40
1.0
  9
$TEXTSTYLE
  7
ADD
  9
$CLAYER
  8
SUNPO
  9
$CELTYPE
  6
BYLAYER
  9
$CECOLOR
 62
   256
  9
$CELTSCALE
 40
1.0
  9
$DELOBJ
 70
     1
  9
$DISPSILH
 70
     0
  9
$DIMSCALE
 40
20.0
  9
$DIMASZ
 40
2.5
  9
$DIMEXO
 40
1.0
  9
$DIMDLI
 40
7.0
  9
$DIMRND
 40
0.0
  9
$DIMDLE
 40
0.0
  9
$DIMEXE
 40
0.5
  9
$DIMTP
 40
0.0
  9
$DIMTM
 40
0.0
  9
$DIMTXT
 40
2.0
  9
$DIMCEN
 40
2.5
  9
$DIMTSZ
 40
0.0
  9
$DIMTOL
 70
     0
  9
$DIMLIM
 70
     0
  9
$DIMTIH
 70
     0
  9
$DIMTOH
 70
     0
  9
$DIMSE1
 70
     0
  9
$DIMSE2
 70
     0
  9
$DIMTAD
 70
     1
  9
$DIMZIN
 70
     8
  9
$DIMBLK
  1

  9
$DIMASO
 70
     1
  9
$DIMSHO
 70
     1
  9
$DIMPOST
  1

  9
$DIMAPOST
  1

  9
$DIMALT
 70
     0
  9
$DIMALTD
 70
     3
  9
$DIMALTF
 40
0.03937007874016
  9
$DIMLFAC
 40
1.0
  9
$DIMTOFL
 70
     1
  9
$DIMTVP
 40
0.7
  9
$DIMTIX
 70
     1
  9
$DIMSOXD
 70
     0
  9
$DIMSAH
 70
     0
  9
$DIMBLK1
  1

  9
$DIMBLK2
  1

  9
$DIMSTYLE
  2
ADD
  9
$DIMCLRD
 70
   144
  9
$DIMCLRE
 70
   144
  9
$DIMCLRT
 70
     7
  9
$DIMTFAC
 40
1.0
  9
$DIMGAP
 40
0.625
  9
$DIMJUST
 70
     0
  9
$DIMSD1
 70
     0
  9
$DIMSD2
 70
     0
  9
$DIMTOLJ
 70
     2
  9
$DIMTZIN
 70
     8
  9
$DIMALTZ
 70
     0
  9
$DIMALTTZ
 70
     0
  9
$DIMFIT
 70
     5
  9
$DIMUPT
 70
     0
  9
$DIMUNIT
 70
     2
  9
$DIMDEC
 70
     1
  9
$DIMTDEC
 70
     1
  9
$DIMALTU
 70
     2
  9
$DIMALTTD
 70
     3
  9
$DIMTXSTY
  7
ADD
  9
$DIMAUNIT
 70
     0
  9
$LUNITS
 70
     2
  9
$LUPREC
 70
     4
  9
$SKETCHINC
 40
1.0
  9
$FILLETRAD
 40
0.0
  9
$AUNITS
 70
     0
  9
$AUPREC
 70
     1
  9
$MENU
  1
.
  9
$ELEVATION
 40
0.0
  9
$PELEVATION
 40
0.0
  9
$THICKNESS
 40
0.0
  9
$LIMCHECK
 70
     0
  9
$BLIPMODE
 70
     0
  9
$CHAMFERA
 40
20.0
  9
$CHAMFERB
 40
20.0
  9
$CHAMFERC
 40
20.0
  9
$CHAMFERD
 40
0.0
  9
$SKPOLY
 70
     0
  9
$TDCREATE
 40
2451801.142532870
  9
$TDUPDATE
 40
2451865.568218981
  9
$TDINDWG
 40
0.2004273264
  9
$TDUSRTIMER
 40
0.2004273264
  9
$USRTIMER
 70
     1
  9
$ANGBASE
 50
0.0
  9
$ANGDIR
 70
     0
  9
$PDMODE
 70
     0
  9
$PDSIZE
 40
0.0
  9
$PLINEWID
 40
0.0
  9
$COORDS
 70
     2
  9
$SPLFRAME
 70
     0
  9
$SPLINETYPE
 70
     6
  9
$SPLINESEGS
 70
     8
  9
$ATTDIA
 70
     0
  9
$ATTREQ
 70
     1
  9
$HANDLING
 70
 10241
  9
$HANDSEED
  5
19B3
  9
$SURFTAB1
 70
     6
  9
$SURFTAB2
 70
     6
  9
$SURFTYPE
 70
     6
  9
$SURFU
 70
     6
  9
$SURFV
 70
     6
  9
$UCSNAME
  2

  9
$UCSORG
 10
0.0
 20
0.0
 30
0.0
  9
$UCSXDIR
 10
1.0
 20
0.0
 30
0.0
  9
$UCSYDIR
 10
0.0
 20
1.0
 30
0.0
  9
$PUCSNAME
  2

  9
$PUCSORG
 10
0.0
 20
0.0
 30
0.0
  9
$PUCSXDIR
 10
1.0
 20
0.0
 30
0.0
  9
$PUCSYDIR
 10
0.0
 20
1.0
 30
0.0
  9
$USERI1
 70
     0
  9
$USERI2
 70
     0
  9
$USERI3
 70
     0
  9
$USERI4
 70
     0
  9
$USERI5
 70
     0
  9
$USERR1
 40
841.0
  9
$USERR2
 40
594.0
  9
$USERR3
 40
1.0
  9
$USERR4
 40
0.0
  9
$USERR5
 40
0.0
  9
$WORLDVIEW
 70
     1
  9
$SHADEDGE
 70
     3
  9
$SHADEDIF
 70
    70
  9
$TILEMODE
 70
     1
  9
$MAXACTVP
 70
    48
  9
$PINSBASE
 10
0.0
 20
0.0
 30
0.0
  9
$PLIMCHECK
 70
     0
  9
$PEXTMIN
 10
-5.662975978526674
 20
-6.331907780761866
 30
-0.0015258207003583
  9
$PEXTMAX
 10
834.4213426047982
 20
560.9663709967471
 30
0.0000000349246037
  9
$PLIMMIN
 10
-7.500000000000001
 20
-20.0
  9
$PLIMMAX
 10
833.5000000000002
 20
574.0000000000001
  9
$UNITMODE
 70
     0
  9
$VISRETAIN
 70
     1
  9
$PLINEGEN
 70
     0
  9
$PSLTSCALE
 70
     1
  9
$TREEDEPTH
 70
  3020
  9
$PICKSTYLE
 70
     1
  9
$CMLSTYLE
  2
STANDARD
  9
$CMLJUST
 70
     0
  9
$CMLSCALE
 40
20.0
  9
$SAVEIMAGES
 70
     1
  0
ENDSEC
  0
SECTION
  2
CLASSES
  0
CLASS
  1
ACDBDICTIONARYWDFLT
  2
AcDbDictionaryWithDefault
  3
AutoCAD 2000
 90
    32768
280
     0
281
     0
  0
CLASS
  1
ACDBPLACEHOLDER
  2
AcDbPlaceHolder
  3
AutoCAD 2000
 90
    32768
280
     0
281
     0
  0
CLASS
  1
LAYOUT
  2
AcDbLayout
  3
AutoCAD 2000
 90
    32768
280
     0
281
     0
  0
CLASS
  1
RTEXT
  2
RText
  3
RText|AutoCAD Express Tool|expresstools@autodesk.com
 90
    32768
280
     0
281
     1
  0
CLASS
  1
DICTIONARYVAR
  2
AcDbDictionaryVar
  3
AutoCAD 2000
 90
    32768
280
     0
281
     0
  0
CLASS
  1
LONG_TRANSACTION
  2
AcDbLongTransaction
  3
AutoCAD 2000
 90
    32768
280
     0
281
     0
  0
CLASS
  1
LWPOLYLINE
  2
AcDbPolyline
  3
AutoCAD 2000
 90
    32768
280
     0
281
     1
  0
CLASS
  1
HATCH
  2
AcDbHatch
  3
AutoCAD 2000
 90
    32768
280
     0
281
     1
  0
CLASS
  1
XRECORD
  2
AcDbXrecord
  3
AutoCAD 2000
 90
    32768
280
     0
281
     0
  0
CLASS
  1
LONG_TRANSACTION
  2
AcDbLongTransaction
  3
AutoCAD 2000
 90
    32768
280
     0
281
     0
  0
CLASS
  1
LWPOLYLINE
  2
AcDbPolyline
  3
AutoCAD 2000
 90
    32768
280
     0
281
     1
  0
CLASS
  1
HATCH
  2
AcDbHatch
  3
AutoCAD 2000
 90
    32768
280
     0
281
     1
  0
CLASS
  1
XRECORD
  2
AcDbXrecord
  3
AutoCAD 2000
 90
    32768
280
     0
281
     0
  0
ENDSEC
  0
SECTION
  2
TABLES
  0
TABLE
  2
VPORT
  5
8
330
0
100
AcDbSymbolTable
 70
     2
  0
VPORT
  5
19A3
330
8
100
AcDbSymbolTableRecord
100
AcDbViewportTableRecord
  2
*ACTIVE
 70
     0
 10
0.0
 20
0.0
 11
1.0
 21
1.0
 12
3064.01819726709
 22
2652.302930103705
 13
0.0
 23
0.0
 14
5.0
 24
5.0
 15
10.0
 25
10.0
 16
0.0
 26
0.0
 36
1.0
 17
0.0
 27
0.0
 37
0.0
 40
5356.801648311205
 41
1.461638491547464
 42
50.0
 43
0.0
 44
0.0
 50
0.0
 51
0.0
 71
     0
 72
   100
 73
     1
 74
     1
 75
     0
 76
     0
 77
     0
 78
     0
  0
ENDTAB
  0
TABLE
  2
LTYPE
  5
5
330
0
100
AcDbSymbolTable
 70
     5
  0
LTYPE
  5
14
330
5
100
AcDbSymbolTableRecord
100
AcDbLinetypeTableRecord
  2
BYBLOCK
 70
     0
  3

 72
    65
 73
     0
 40
0.0
  0
LTYPE
  5
15
330
5
100
AcDbSymbolTableRecord
100
AcDbLinetypeTableRecord
  2
BYLAYER
 70
     0
  3

 72
    65
 73
     0
 40
0.0
  0
LTYPE
  5
16
330
5
100
AcDbSymbolTableRecord
100
AcDbLinetypeTableRecord
  2
CONTINUOUS
 70
     0
  3
Solid line
 72
    65
 73
     0
 40
0.0
  0
LTYPE
  5
555
330
5
100
AcDbSymbolTableRecord
100
AcDbLinetypeTableRecord
  2
CENTER
 70
     0
  3
Center ____ _ ____ _ ____ _ ____ _ ____ _ ____
 72
    65
 73
     4
 40
50.8
 49
31.75
 74
     0
 49
-6.349999999999999
 74
     0
 49
6.349999999999999
 74
     0
 49
-6.349999999999999
 74
     0
  0
LTYPE
  5
556
330
5
100
AcDbSymbolTableRecord
100
AcDbLinetypeTableRecord
  2
HIDDEN
 70
     0
  3
Hidden __ __ __ __ __ __ __ __ __ __ __ __ __ _
 72
    65
 73
     2
 40
9.524999999999998
 49
6.349999999999999
 74
     0
 49
-3.174999999999999
 74
     0
  0
LTYPE
  5
557
330
5
100
AcDbSymbolTableRecord
100
AcDbLinetypeTableRecord
  2
HIDDEN2
 70
     0
  3
Hidden (.5x) _ _ _ _ _ _ _ _ _ _ _ _ _ _ _ _ _
 72
    65
 73
     2
 40
4.762499999999999
 49
3.174999999999999
 74
     0
 49
-1.587499999999999
 74
     0
  0
LTYPE
  5
558
330
5
100
AcDbSymbolTableRecord
100
AcDbLinetypeTableRecord
  2
PHANTOM
 70
     0
  3
Phantom ______  __  __  ______  __  __  ______
 72
    65
 73
     6
 40
63.5
 49
31.75
 74
     0
 49
-6.349999999999999
 74
     0
 49
6.349999999999999
 74
     0
 49
-6.349999999999999
 74
     0
 49
6.349999999999999
 74
     0
 49
-6.349999999999999
 74
     0
  0
ENDTAB
  0
TABLE
  2
LAYER
  5
2
330
0
100
AcDbSymbolTable
 70
    22
  0
LAYER
  5
10
330
2
100
AcDbSymbolTableRecord
100
AcDbLayerTableRecord
  2
0
 70
     0
 62
     7
  6
CONTINUOUS
  0
LAYER
  5
75
330
2
100
AcDbSymbolTableRecord
100
AcDbLayerTableRecord
  2
VIEWPORT
 70
     0
 62
     1
  6
CONTINUOUS
  0
LAYER
  5
504
330
2
100
AcDbSymbolTableRecord
100
AcDbLayerTableRecord
  2
DEFPOINTS
 70
     0
 62
     7
  6
CONTINUOUS
  0
LAYER
  5
505
330
2
100
AcDbSymbolTableRecord
100
AcDbLayerTableRecord
  2
1C1
 70
     0
 62
   254
  6
CONTINUOUS
  0
LAYER
  5
506
330
2
100
AcDbSymbolTableRecord
100
AcDbLayerTableRecord
  2
1C2
 70
     0
 62
   254
  6
CONTINUOUS
  0
LAYER
  5
507
330
2
100
AcDbSymbolTableRecord
100
AcDbLayerTableRecord
  2
2C1
 70
     0
 62
   144
  6
CONTINUOUS
  0
LAYER
  5
508
330
2
100
AcDbSymbolTableRecord
100
AcDbLayerTableRecord
  2
2C2
 70
     0
 62
   144
  6
CONTINUOUS
  0
LAYER
  5
509
330
2
100
AcDbSymbolTableRecord
100
AcDbLayerTableRecord
  2
2H1
 70
     0
 62
   144
  6
HIDDEN
  0
LAYER
  5
50A
330
2
100
AcDbSymbolTableRecord
100
AcDbLayerTableRecord
  2
2H2
 70
     0
 62
   144
  6
HIDDEN2
  0
LAYER
  5
50B
330
2
100
AcDbSymbolTableRecord
100
AcDbLayerTableRecord
  2
2P1
 70
     0
 62
   144
  6
PHANTOM
  0
LAYER
  5
50C
330
2
100
AcDbSymbolTableRecord
100
AcDbLayerTableRecord
  2
3C1
 70
     0
 62
     7
  6
CONTINUOUS
  0
LAYER
  5
50D
330
2
100
AcDbSymbolTableRecord
100
AcDbLayerTableRecord
  2
3C2
 70
     0
 62
     7
  6
CONTINUOUS
  0
LAYER
  5
50E
330
2
100
AcDbSymbolTableRecord
100
AcDbLayerTableRecord
  2
3C3
 70
     0
 62
     7
  6
CONTINUOUS
  0
LAYER
  5
50F
330
2
100
AcDbSymbolTableRecord
100
AcDbLayerTableRecord
  2
4H1
 70
     0
 62
     6
  6
HIDDEN
  0
LAYER
  5
510
330
2
100
AcDbSymbolTableRecord
100
AcDbLayerTableRecord
  2
4H2
 70
     0
 62
     6
  6
HIDDEN2
  0
LAYER
  5
511
330
2
100
AcDbSymbolTableRecord
100
AcDbLayerTableRecord
  2
5C1
 70
     0
 62
    55
  6
CONTINUOUS
  0
LAYER
  5
512
330
2
100
AcDbSymbolTableRecord
100
AcDbLayerTableRecord
  2
5C2
 70
     0
 62
    55
  6
CONTINUOUS
  0
LAYER
  5
513
330
2
100
AcDbSymbolTableRecord
100
AcDbLayerTableRecord
  2
8C1
 70
     0
 62
    92
  6
CONTINUOUS
  0
LAYER
  5
514
330
2
100
AcDbSymbolTableRecord
100
AcDbLayerTableRecord
  2
HOJO
 70
     0
 62
     5
  6
CONTINUOUS
  0
LAYER
  5
515
330
2
100
AcDbSymbolTableRecord
100
AcDbLayerTableRecord
  2
KIJUN
 70
     0
 62
     1
  6
CENTER
  0
LAYER
  5
516
330
2
100
AcDbSymbolTableRecord
100
AcDbLayerTableRecord
  2
MOJI
 70
     0
 62
     7
  6
CONTINUOUS
  0
LAYER
  5
517
330
2
100
AcDbSymbolTableRecord
100
AcDbLayerTableRecord
  2
SUNPO
 70
     0
 62
   144
  6
CONTINUOUS
  0
ENDTAB
  0
TABLE
  2
STYLE
  5
3
330
0
100
AcDbSymbolTable
 70
     6
  0
STYLE
  5
11
330
3
100
AcDbSymbolTableRecord
100
AcDbTextStyleTableRecord
  2
STANDARD
 70
     0
 40
0.0
 41
1.0
 50
0.0
 71
     0
 42
2.5
  3
txt
  4

  0
STYLE
  5
2C
330
3
100
AcDbSymbolTableRecord
100
AcDbTextStyleTableRecord
  2

 70
     1
 40
0.0
 41
1.0
 50
0.0
 71
     0
 42
2.5
  3
ltypeshp.shx
  4

  0
STYLE
  5
18E
330
3
100
AcDbSymbolTableRecord
100
AcDbTextStyleTableRecord
  2
ADD
 70
     0
 40
0.0
 41
1.0
 50
0.0
 71
     0
 42
50.0
  3
romans.shx
  4
bigfont.shx
  0
STYLE
  5
191
330
3
100
AcDbSymbolTableRecord
100
AcDbTextStyleTableRecord
  2
MSG
 70
     0
 40
0.0
 41
1.0
 50
0.0
 71
     0
 42
2.5
  3
MS Gothic.ttf
  4

1001
ACAD
1000
MS Gothic
1071
    32817
  0
STYLE
  5
5C8
330
3
100
AcDbSymbolTableRecord
100
AcDbTextStyleTableRecord
  2
STANDARD15
 70
     0
 40
0.0
 41
1.0
 50
15.0
 71
     0
 42
2.5
  3
ROMANS
  4
bigfont
  0
STYLE
  5
5C9
330
3
100
AcDbSymbolTableRecord
100
AcDbTextStyleTableRecord
  2
ROMANS15
 70
     0
 40
0.0
 41
1.0
 50
15.0
 71
     0
 42
2.5
  3
romans
  4

  0
ENDTAB
  0
TABLE
  2
VIEW
  5
6
330
0
100
AcDbSymbolTable
 70
     1
  0
VIEW
  5
54D
330
6
100
AcDbSymbolTableRecord
100
AcDbViewTableRecord
  2
ALL
 70
     0
 40
594.0
 10
420.5
 20
297.0
 41
865.125
 11
0.0
 21
0.0
 31
1.0
 12
0.0
 22
0.0
 32
0.0
 42
50.0
 43
0.0
 44
0.0
 50
0.0
 71
     0
  0
ENDTAB
  0
TABLE
  2
UCS
  5
7
330
0
100
AcDbSymbolTable
 70
     0
  0
ENDTAB
  0
TABLE
  2
APPID
  5
9
330
0
100
AcDbSymbolTable
 70
     4
  0
APPID
  5
12
330
9
100
AcDbSymbolTableRecord
100
AcDbRegAppTableRecord
  2
ACAD
 70
     0
  0
APPID
  5
5CB
330
9
100
AcDbSymbolTableRecord
100
AcDbRegAppTableRecord
  2
ARAIGUMI_YOHEKI
 70
     0
  0
APPID
  5
5CC
330
9
100
AcDbSymbolTableRecord
100
AcDbRegAppTableRecord
  2
CONTENTTABDATA
 70
     0
  0
APPID
  5
5CD
330
9
100
AcDbSymbolTableRecord
100
AcDbRegAppTableRecord
  2
CONTENTCURRENTTAB
 70
     0
  0
ENDTAB
  0
TABLE
  2
DIMSTYLE
  5
A
330
0
100
AcDbSymbolTable
 70
    10
  0
DIMSTYLE
105
27
330
A
100
AcDbSymbolTableRecord
100
AcDbDimStyleTableRecord
  2
ISO-25
 70
     0
  3

  4

  5

  6

  7

 40
1.0
 41
2.5
 42
0.625
 43
3.75
 44
1.25
 45
0.0
 46
0.0
 47
0.0
 48
0.0
140
2.5
141
2.5
142
0.0
143
0.03937007874016
144
1.0
145
0.0
146
1.0
147
0.625
 71
     0
 72
     0
 73
     0
 74
     0
 75
     0
 76
     0
 77
     1
 78
     8
170
     0
171
     3
172
     1
173
     0
174
     0
175
     0
176
     0
177
     0
178
     0
270
     2
271
     2
272
     2
273
     2
274
     3
340
11
275
     0
280
     0
281
     0
282
     0
283
     0
284
     8
285
     0
286
     0
287
     3
288
     0
  0
DIMSTYLE
105
197
330
A
100
AcDbSymbolTableRecord
100
AcDbDimStyleTableRecord
  2
ADD
 70
     0
  3

  4

  5

  6

  7

 40
1.0
 41
2.5
 42
1.0
 43
7.0
 44
0.5
 45
0.0
 46
0.0
 47
0.0
 48
0.0
140
2.5
141
2.5
142
0.0
143
0.03937007874016
144
1.0
145
0.7
146
1.0
147
0.625
 71
     0
 72
     0
 73
     0
 74
     0
 75
     0
 76
     0
 77
     1
 78
     8
170
     0
171
     3
172
     1
173
     0
174
     1
175
     0
176
   144
177
   144
178
     7
270
     2
271
     1
272
     1
273
     2
274
     3
340
18E
275
     0
280
     0
281
     0
282
     0
283
     2
284
     8
285
     0
286
     0
287
     5
288
     0
  0
DIMSTYLE
105
3E6
330
A
100
AcDbSymbolTableRecord
100
AcDbDimStyleTableRecord
  2
ADD$2
 70
     0
  3

  4

  5

  6

  7

 40
1.0
 41
2.5
 42
1.0
 43
7.0
 44
0.5
 45
0.0
 46
0.0
 47
0.0
 48
0.0
140
2.5
141
2.5
142
0.0
143
0.03937007874016
144
1.0
145
0.7
146
1.0
147
0.625
 71
     0
 72
     0
 73
     0
 74
     0
 75
     0
 76
     0
 77
     1
 78
     8
170
     0
171
     3
172
     1
173
     0
174
     1
175
     0
176
   144
177
   144
178
     7
270
     2
271
     1
272
     1
273
     2
274
     3
340
18E
275
     0
280
     0
281
     0
282
     0
283
     2
284
     8
285
     0
286
     0
287
     5
288
     0
  0
DIMSTYLE
105
3E7
330
A
100
AcDbSymbolTableRecord
100
AcDbDimStyleTableRecord
  2
ADD$4
 70
     0
  3

  4

  5

  6

  7

 40
1.0
 41
2.5
 42
1.0
 43
7.0
 44
0.5
 45
0.0
 46
0.0
 47
0.0
 48
0.0
140
2.5
141
2.5
142
0.0
143
0.03937007874016
144
1.0
145
0.0
146
1.0
147
0.625
 71
     0
 72
     0
 73
     0
 74
     0
 75
     0
 76
     0
 77
     1
 78
     8
170
     0
171
     3
172
     1
173
     0
174
     1
175
     0
176
   144
177
   144
178
     7
270
     2
271
     1
272
     1
273
     2
274
     3
340
18E
275
     0
280
     0
281
     0
282
     0
283
     2
284
     8
285
     0
286
     0
287
     5
288
     0
  0
DIMSTYLE
105
3E8
330
A
100
AcDbSymbolTableRecord
100
AcDbDimStyleTableRecord
  2
ADD$3
 70
     0
  3

  4

  5

  6

  7

 40
1.0
 41
2.5
 42
1.0
 43
7.0
 44
0.5
 45
0.0
 46
0.0
 47
0.0
 48
0.0
140
2.5
141
2.5
142
0.0
143
0.03937007874016
144
1.0
145
0.0
146
1.0
147
0.625
 71
     0
 72
     0
 73
     0
 74
     0
 75
     0
 76
     0
 77
     1
 78
     8
170
     0
171
     3
172
     1
173
     0
174
     1
175
     0
176
   144
177
   144
178
     7
270
     2
271
     1
272
     1
273
     2
274
     3
340
18E
275
     0
280
     0
281
     0
282
     0
283
     2
284
     8
285
     0
286
     0
287
     5
288
     0
  0
DIMSTYLE
105
3E9
330
A
100
AcDbSymbolTableRecord
100
AcDbDimStyleTableRecord
  2
ADD$6
 70
     0
  3

  4

  5

  6

  7

 40
1.0
 41
2.5
 42
1.0
 43
7.0
 44
0.5
 45
0.0
 46
0.0
 47
0.0
 48
0.0
140
2.5
141
2.5
142
0.0
143
0.03937007874016
144
1.0
145
0.0
146
1.0
147
0.625
 71
     0
 72
     0
 73
     0
 74
     0
 75
     0
 76
     0
 77
     1
 78
     8
170
     0
171
     3
172
     1
173
     0
174
     1
175
     0
176
   144
177
   144
178
     7
270
     2
271
     1
272
     1
273
     2
274
     3
340
18E
275
     0
280
     0
281
     0
282
     0
283
     2
284
     8
285
     0
286
     0
287
     5
288
     0
  0
DIMSTYLE
105
3EA
330
A
100
AcDbSymbolTableRecord
100
AcDbDimStyleTableRecord
  2
ADD$7
 70
     0
  3

  4

  5

  6

  7

 40
1.0
 41
2.5
 42
1.0
 43
7.0
 44
0.5
 45
0.0
 46
0.0
 47
0.0
 48
0.0
140
2.5
141
2.5
142
0.0
143
0.03937007874016
144
1.0
145
0.0
146
1.0
147
0.625
 71
     0
 72
     0
 73
     0
 74
     0
 75
     0
 76
     0
 77
     0
 78
     8
170
     0
171
     3
172
     1
173
     0
174
     1
175
     0
176
   144
177
   144
178
     7
270
     2
271
     1
272
     1
273
     2
274
     3
340
18E
275
     0
280
     0
281
     0
282
     0
283
     2
284
     8
285
     0
286
     0
287
     5
288
     0
  0
DIMSTYLE
105
518
330
A
100
AcDbSymbolTableRecord
100
AcDbDimStyleTableRecord
  2
STANDARD
 70
     0
  3

  4

  5

  6

  7

 40
1.0
 41
0.18
 42
0.0625
 43
0.38
 44
0.18
 45
0.0
 46
0.0
 47
0.0
 48
0.0
140
0.18
141
0.09
142
0.0
143
25.4
144
1.0
145
0.0
146
1.0
147
0.09
 71
     0
 72
     0
 73
     1
 74
     1
 75
     0
 76
     0
 77
     0
 78
     0
170
     0
171
     2
172
     0
173
     0
174
     0
175
     0
176
     0
177
     0
178
     0
270
     2
271
     4
272
     4
273
     2
274
     2
340
11
275
     0
280
     0
281
     0
282
     0
283
     1
284
     0
285
     0
286
     0
287
     3
288
     0
  0
DIMSTYLE
105
550
102
{ACAD_REACTORS
330
1141
330
1119
330
110A
330
10F9
330
10EC
330
10DD
330
10BF
330
1020
330
1011
330
FE4
330
FBF
330
FB0
330
F89
330
F7C
330
F6F
330
EEA
330
EDB
330
EBD
330
EB0
330
EA1
102
}
330
A
100
AcDbSymbolTableRecord
100
AcDbDimStyleTableRecord
  2
ADD$0
 70
     0
  3

  4

  5

  6

  7

 40
1.0
 41
2.2
 42
1.0
 43
7.0
 44
0.5
 45
0.0
 46
0.0
 47
0.0
 48
0.0
140
2.5
141
2.5
142
0.0
143
0.03937007874016
144
1.0
145
0.7
146
1.0
147
0.625
 71
     0
 72
     0
 73
     0
 74
     0
 75
     0
 76
     0
 77
     1
 78
     8
170
     0
171
     3
172
     1
173
     0
174
     1
175
     0
176
   144
177
   144
178
     7
270
     2
271
     1
272
     1
273
     2
274
     3
340
18E
275
     0
280
     0
281
     0
282
     0
283
     2
284
     8
285
     0
286
     0
287
     5
288
     0
  0
DIMSTYLE
105
59B
330
A
100
AcDbSymbolTableRecord
100
AcDbDimStyleTableRecord
  2
ADD_M
 70
     0
  3

  4

  5

  6

  7

 40
1.0
 41
2.5
 42
1.0
 43
7.0
 44
0.5
 45
0.0
 46
0.0
 47
0.0
 48
0.0
140
2.5
141
2.5
142
0.0
143
0.03937007874016
144
1.0
145
0.7
146
1.0
147
0.625
 71
     0
 72
     0
 73
     0
 74
     0
 75
     0
 76
     0
 77
     1
 78
     8
170
     0
171
     3
172
     1
173
     0
174
     1
175
     0
176
   144
177
   144
178
     7
270
     2
271
     1
272
     1
273
     2
274
     3
340
18E
275
     0
280
     0
281
     0
282
     0
283
     2
284
     8
285
     0
286
     0
287
     5
288
     0
  0
ENDTAB
  0
TABLE
  2
BLOCK_RECORD
  5
1
330
0
100
AcDbSymbolTable
 70
    24
  0
BLOCK_RECORD
  5
1F
102
{ACAD_XDICTIONARY
360
1875
102
}
330
1
100
AcDbSymbolTableRecord
100
AcDbBlockTableRecord
  2
*MODEL_SPACE
  0
BLOCK_RECORD
  5
1B
102
{ACAD_XDICTIONARY
360
1877
102
}
330
1
100
AcDbSymbolTableRecord
100
AcDbBlockTableRecord
  2
*PAPER_SPACE
  0
BLOCK_RECORD
  5
192
330
1
100
AcDbSymbolTableRecord
100
AcDbBlockTableRecord
  2
_DOT
  0
BLOCK_RECORD
  5
5CE
330
1
100
AcDbSymbolTableRecord
100
AcDbBlockTableRecord
  2
A4
  0
BLOCK_RECORD
  5
636
330
1
100
AcDbSymbolTableRecord
100
AcDbBlockTableRecord
  2
_OPEN90
  0
BLOCK_RECORD
  5
63C
330
1
100
AcDbSymbolTableRecord
100
AcDbBlockTableRecord
  2
_OPEN30
  0
BLOCK_RECORD
  5
EA2
330
1
100
AcDbSymbolTableRecord
100
AcDbBlockTableRecord
  2
*D4
  0
BLOCK_RECORD
  5
EB1
330
1
100
AcDbSymbolTableRecord
100
AcDbBlockTableRecord
  2
*D5
  0
BLOCK_RECORD
  5
EBE
330
1
100
AcDbSymbolTableRecord
100
AcDbBlockTableRecord
  2
*D6
  0
BLOCK_RECORD
  5
EDC
330
1
100
AcDbSymbolTableRecord
100
AcDbBlockTableRecord
  2
*D7
  0
BLOCK_RECORD
  5
EEB
330
1
100
AcDbSymbolTableRecord
100
AcDbBlockTableRecord
  2
*D8
  0
BLOCK_RECORD
  5
F70
330
1
100
AcDbSymbolTableRecord
100
AcDbBlockTableRecord
  2
*D9
  0
BLOCK_RECORD
  5
F7D
330
1
100
AcDbSymbolTableRecord
100
AcDbBlockTableRecord
  2
*D10
  0
BLOCK_RECORD
  5
F8A
330
1
100
AcDbSymbolTableRecord
100
AcDbBlockTableRecord
  2
*D11
  0
BLOCK_RECORD
  5
FB1
330
1
100
AcDbSymbolTableRecord
100
AcDbBlockTableRecord
  2
*D12
  0
BLOCK_RECORD
  5
FC0
330
1
100
AcDbSymbolTableRecord
100
AcDbBlockTableRecord
  2
*D13
  0
BLOCK_RECORD
  5
FE5
330
1
100
AcDbSymbolTableRecord
100
AcDbBlockTableRecord
  2
*D14
  0
BLOCK_RECORD
  5
1012
330
1
100
AcDbSymbolTableRecord
100
AcDbBlockTableRecord
  2
*D15
  0
BLOCK_RECORD
  5
1021
330
1
100
AcDbSymbolTableRecord
100
AcDbBlockTableRecord
  2
*D16
  0
BLOCK_RECORD
  5
10C0
330
1
100
AcDbSymbolTableRecord
100
AcDbBlockTableRecord
  2
*D17
  0
BLOCK_RECORD
  5
10DE
330
1
100
AcDbSymbolTableRecord
100
AcDbBlockTableRecord
  2
*D18
  0
BLOCK_RECORD
  5
10ED
330
1
100
AcDbSymbolTableRecord
100
AcDbBlockTableRecord
  2
*D19
  0
BLOCK_RECORD
  5
10FA
330
1
100
AcDbSymbolTableRecord
100
AcDbBlockTableRecord
  2
*D20
  0
BLOCK_RECORD
  5
110B
330
1
100
AcDbSymbolTableRecord
100
AcDbBlockTableRecord
  2
*D21
  0
BLOCK_RECORD
  5
111A
330
1
100
AcDbSymbolTableRecord
100
AcDbBlockTableRecord
  2
*D22
  0
BLOCK_RECORD
  5
1142
330
1
100
AcDbSymbolTableRecord
100
AcDbBlockTableRecord
  2
*D23
  0
ENDTAB
  0
ENDSEC
  0
SECTION
  2
BLOCKS
  0
BLOCK
  5
20
330
1F
100
AcDbEntity
  8
0
100
AcDbBlockBegin
  2
*MODEL_SPACE
 70
     0
 10
0.0
 20
0.0
 30
0.0
  3
*MODEL_SPACE
  1

  0
ENDBLK
  5
21
330
1F
100
AcDbEntity
  8
0
100
AcDbBlockEnd
  0
BLOCK
  5
1C
330
1B
100
AcDbEntity
 67
     1
  8
0
100
AcDbBlockBegin
  2
*PAPER_SPACE
 70
     0
 10
0.0
 20
0.0
 30
0.0
  3
*PAPER_SPACE
  1

  0
ENDBLK
  5
1D
330
1B
100
AcDbEntity
 67
     1
  8
0
100
AcDbBlockEnd
  0
BLOCK
  5
195
330
192
100
AcDbEntity
  8
0
100
AcDbBlockBegin
  2
_DOT
 70
     0
 10
0.0
 20
0.0
 30
0.0
  3
_DOT
  1

  0
POLYLINE
  5
193
330
192
100
AcDbEntity
  8
0
 62
     0
100
AcDb2dPolyline
 66
     1
 10
0.0
 20
0.0
 30
0.0
 70
     1
 40
0.5
 41
0.5
  0
VERTEX
  5
19A6
330
193
100
AcDbEntity
  8
0
 62
     0
100
AcDbVertex
100
AcDb2dVertex
 10
-0.25
 20
0.0
 30
0.0
 42
1.0
  0
VERTEX
  5
19A7
330
193
100
AcDbEntity
  8
0
 62
     0
100
AcDbVertex
100
AcDb2dVertex
 10
0.25
 20
0.0
 30
0.0
 42
1.0
  0
SEQEND
  5
19A8
330
193
100
AcDbEntity
  8
0
 62
     0
  0
LINE
  5
194
330
192
100
AcDbEntity
  8
0
 62
     0
100
AcDbLine
 10
-0.5
 20
0.0
 30
0.0
 11
-1.0
 21
0.0
 31
0.0
  0
ENDBLK
  5
196
330
192
100
AcDbEntity
  8
0
100
AcDbBlockEnd
  0
BLOCK
  5
5D1
330
5CE
100
AcDbEntity
  8
0
100
AcDbBlockBegin
  2
A4
 70
     0
 10
0.0
 20
0.0
 30
0.0
  3
A4
  1

  0
POLYLINE
  5
5CF
330
5CE
100
AcDbEntity
  8
HOJO
100
AcDb2dPolyline
 66
     1
 10
0.0
 20
0.0
 30
0.0
 70
     1
  0
VERTEX
  5
19A9
330
5CF
100
AcDbEntity
  8
HOJO
100
AcDbVertex
100
AcDb2dVertex
 10
0.0
 20
0.0
 30
0.0
  0
VERTEX
  5
19AA
330
5CF
100
AcDbEntity
  8
HOJO
100
AcDbVertex
100
AcDb2dVertex
 10
297.0
 20
0.0
 30
0.0
  0
VERTEX
  5
19AB
330
5CF
100
AcDbEntity
  8
HOJO
100
AcDbVertex
100
AcDb2dVertex
 10
297.0
 20
210.0
 30
0.0
  0
VERTEX
  5
19AC
330
5CF
100
AcDbEntity
  8
HOJO
100
AcDbVertex
100
AcDb2dVertex
 10
0.0
 20
210.0
 30
0.0
  0
SEQEND
  5
19AD
330
5CF
100
AcDbEntity
  8
HOJO
  0
POLYLINE
  5
5D0
330
5CE
100
AcDbEntity
  8
HOJO
100
AcDb2dPolyline
 66
     1
 10
0.0
 20
0.0
 30
0.0
 70
     1
  0
VERTEX
  5
19AE
330
5D0
100
AcDbEntity
  8
HOJO
100
AcDbVertex
100
AcDb2dVertex
 10
18.0
 20
13.0
 30
0.0
  0
VERTEX
  5
19AF
330
5D0
100
AcDbEntity
  8
HOJO
100
AcDbVertex
100
AcDb2dVertex
 10
279.0
 20
13.0
 30
0.0
  0
VERTEX
  5
19B0
330
5D0
100
AcDbEntity
  8
HOJO
100
AcDbVertex
100
AcDb2dVertex
 10
279.0
 20
197.0
 30
0.0
  0
VERTEX
  5
19B1
330
5D0
100
AcDbEntity
  8
HOJO
100
AcDbVertex
100
AcDb2dVertex
 10
18.0
 20
197.0
 30
0.0
  0
SEQEND
  5
19B2
330
5D0
100
AcDbEntity
  8
HOJO
  0
ENDBLK
  5
5D2
330
5CE
100
AcDbEntity
  8
0
100
AcDbBlockEnd
  0
BLOCK
  5
63A
330
636
100
AcDbEntity
  8
0
100
AcDbBlockBegin
  2
_OPEN90
 70
     0
 10
0.0
 20
0.0
 30
0.0
  3
_OPEN90
  1

  0
LINE
  5
637
330
636
100
AcDbEntity
  8
SUNPO
 62
     0
100
AcDbLine
 10
-0.5
 20
0.5
 30
0.0
 11
0.0
 21
0.0
 31
0.0
  0
LINE
  5
638
330
636
100
AcDbEntity
  8
SUNPO
 62
     0
100
AcDbLine
 10
0.0
 20
0.0
 30
0.0
 11
-0.5
 21
-0.5
 31
0.0
  0
LINE
  5
639
330
636
100
AcDbEntity
  8
SUNPO
 62
     0
100
AcDbLine
 10
0.0
 20
0.0
 30
0.0
 11
-1.0
 21
0.0
 31
0.0
  0
ENDBLK
  5
63B
330
636
100
AcDbEntity
  8
0
100
AcDbBlockEnd
  0
BLOCK
  5
640
330
63C
100
AcDbEntity
  8
0
100
AcDbBlockBegin
  2
_OPEN30
 70
     0
 10
0.0
 20
0.0
 30
0.0
  3
_OPEN30
  1

  0
LINE
  5
63D
330
63C
100
AcDbEntity
  8
SUNPO
 62
     0
100
AcDbLine
 10
-1.0
 20
0.26794919
 30
0.0
 11
0.0
 21
0.0
 31
0.0
  0
LINE
  5
63E
330
63C
100
AcDbEntity
  8
SUNPO
 62
     0
100
AcDbLine
 10
0.0
 20
0.0
 30
0.0
 11
-1.0
 21
-0.26794919
 31
0.0
  0
LINE
  5
63F
330
63C
100
AcDbEntity
  8
SUNPO
 62
     0
100
AcDbLine
 10
0.0
 20
0.0
 30
0.0
 11
-1.0
 21
0.0
 31
0.0
  0
ENDBLK
  5
641
330
63C
100
AcDbEntity
  8
0
100
AcDbBlockEnd
  0
BLOCK
  5
EAE
330
EA2
100
AcDbEntity
  8
0
100
AcDbBlockBegin
  2
*D4
 70
     1
 10
0.0
 20
0.0
 30
0.0
  3
*D4
  1

  0
LINE
  5
180B
330
EA2
100
AcDbEntity
  8
SUNPO
 62
   144
100
AcDbLine
 10
1246.880369778165
 20
2636.657765319065
 30
0.0
 11
1246.880369778165
 21
2957.61619864781
 31
0.0
  0
LINE
  5
180C
330
EA2
100
AcDbEntity
  8
SUNPO
 62
   144
100
AcDbLine
 10
1321.880369778165
 20
2636.657765319065
 30
0.0
 11
1321.880369778165
 21
2957.61619864781
 31
0.0
  0
LINE
  5
180D
330
EA2
100
AcDbEntity
  8
SUNPO
 62
   144
100
AcDbLine
 10
1202.880369778165
 20
2947.616198647811
 30
0.0
 11
1158.880369778165
 21
2947.616198647811
 31
0.0
  0
LINE
  5
180E
330
EA2
100
AcDbEntity
  8
SUNPO
 62
   144
100
AcDbLine
 10
1365.880369778165
 20
2947.616198647811
 30
0.0
 11
1409.880369778165
 21
2947.616198647811
 31
0.0
  0
MTEXT
  5
180F
330
EA2
100
AcDbEntity
  8
SUNPO
 62
     7
100
AcDbMText
 10
1182.113842037084
 20
2989.520443761808
 30
0.0
 40
50.0
 41
0.0
 71
     5
 72
     1
  1
\A2;75
  7
ADD
1001
ACAD
1000
MTEXTBEGIN
1070
    73
1070
     1
1070
    44
1040
1.0
1070
    74
1070
     0
1000
MTEXTEND
1000
MTEXTBEGIN
1070
    73
1070
     1
1070
    44
1040
1.0
1070
    74
1070
     0
1000
MTEXTEND
  0
LINE
  5
1810
330
EA2
100
AcDbEntity
  8
SUNPO
 62
   144
100
AcDbLine
 10
1246.880369778165
 20
2947.616198647811
 30
0.0
 11
1321.880369778165
 21
2947.616198647811
 31
0.0
  0
SOLID
  5
1811
330
EA2
100
AcDbEntity
  8
SUNPO
 62
   144
100
AcDbTrace
 10
1202.880369778165
 20
2954.949531981144
 30
0.0
 11
1202.880369778165
 21
2940.282865314477
 31
0.0
 12
1246.880369778165
 22
2947.616198647811
 32
0.0
 13
1246.880369778165
 23
2947.616198647811
 33
0.0
  0
SOLID
  5
1812
330
EA2
100
AcDbEntity
  8
SUNPO
 62
   144
100
AcDbTrace
 10
1365.880369778165
 20
2954.949531981144
 30
0.0
 11
1365.880369778165
 21
2940.282865314477
 31
0.0
 12
1321.880369778165
 22
2947.616198647811
 32
0.0
 13
1321.880369778165
 23
2947.616198647811
 33
0.0
  0
POINT
  5
1813
330
EA2
100
AcDbEntity
  8
DEFPOINTS
 62
     0
100
AcDbPoint
 10
1246.880369778165
 20
2616.657765319065
 30
0.0
  0
POINT
  5
1814
330
EA2
100
AcDbEntity
  8
DEFPOINTS
 62
     0
100
AcDbPoint
 10
1321.880369778165
 20
2616.657765319065
 30
0.0
  0
POINT
  5
1815
330
EA2
100
AcDbEntity
  8
DEFPOINTS
 62
     0
100
AcDbPoint
 10
1321.880369778165
 20
2947.616198647811
 30
0.0
  0
ENDBLK
  5
EAF
330
EA2
100
AcDbEntity
  8
0
100
AcDbBlockEnd
  0
BLOCK
  5
EBB
330
EB1
100
AcDbEntity
  8
0
100
AcDbBlockBegin
  2
*D5
 70
     1
 10
0.0
 20
0.0
 30
0.0
  3
*D5
  1

  0
LINE
  5
1802
330
EB1
100
AcDbEntity
  8
SUNPO
 62
   144
100
AcDbLine
 10
1321.880369778165
 20
2636.657765319065
 30
0.0
 11
1321.880369778165
 21
2957.61619864781
 31
0.0
  0
LINE
  5
1803
330
EB1
100
AcDbEntity
  8
SUNPO
 62
   144
100
AcDbLine
 10
5321.880369778166
 20
2636.657765319065
 30
0.0
 11
5321.880369778166
 21
2957.61619864781
 31
0.0
  0
LINE
  5
1804
330
EB1
100
AcDbEntity
  8
SUNPO
 62
   144
100
AcDbLine
 10
1365.880369778165
 20
2947.616198647811
 30
0.0
 11
5277.880369778166
 21
2947.616198647811
 31
0.0
  0
SOLID
  5
1805
330
EB1
100
AcDbEntity
  8
SUNPO
 62
   144
100
AcDbTrace
 10
1365.880369778165
 20
2954.949531981144
 30
0.0
 11
1365.880369778165
 21
2940.282865314477
 31
0.0
 12
1321.880369778165
 22
2947.616198647811
 32
0.0
 13
1321.880369778165
 23
2947.616198647811
 33
0.0
  0
SOLID
  5
1806
330
EB1
100
AcDbEntity
  8
SUNPO
 62
   144
100
AcDbTrace
 10
5277.880369778166
 20
2954.949531981144
 30
0.0
 11
5277.880369778166
 21
2940.282865314477
 31
0.0
 12
5321.880369778166
 22
2947.616198647811
 32
0.0
 13
5321.880369778166
 23
2947.616198647811
 33
0.0
  0
MTEXT
  5
1807
330
EB1
100
AcDbEntity
  8
SUNPO
 62
     7
100
AcDbMText
 10
3321.880369778166
 20
2985.116198647811
 30
0.0
 40
50.0
 41
0.0
 71
     5
 72
     1
  1
\A2;4000
  7
ADD
1001
ACAD
1000
MTEXTBEGIN
1070
    73
1070
     1
1070
    44
1040
1.0
1070
    74
1070
     0
1000
MTEXTEND
1000
MTEXTBEGIN
1070
    73
1070
     1
1070
    44
1040
1.0
1070
    74
1070
     0
1000
MTEXTEND
  0
POINT
  5
1808
330
EB1
100
AcDbEntity
  8
DEFPOINTS
 62
     0
100
AcDbPoint
 10
1321.880369778165
 20
2616.657765319065
 30
0.0
  0
POINT
  5
1809
330
EB1
100
AcDbEntity
  8
DEFPOINTS
 62
     0
100
AcDbPoint
 10
5321.880369778166
 20
2616.657765319065
 30
0.0
  0
POINT
  5
180A
330
EB1
100
AcDbEntity
  8
DEFPOINTS
 62
     0
100
AcDbPoint
 10
5321.880369778166
 20
2947.616198647811
 30
0.0
  0
ENDBLK
  5
EBC
330
EB1
100
AcDbEntity
  8
0
100
AcDbBlockEnd
  0
BLOCK
  5
ECA
330
EBE
100
AcDbEntity
  8
0
100
AcDbBlockBegin
  2
*D6
 70
     1
 10
0.0
 20
0.0
 30
0.0
  3
*D6
  1

  0
LINE
  5
17F7
330
EBE
100
AcDbEntity
  8
SUNPO
 62
   144
100
AcDbLine
 10
5321.880369778166
 20
2636.657765319065
 30
0.0
 11
5321.880369778166
 21
2957.61619864781
 31
0.0
  0
LINE
  5
17F8
330
EBE
100
AcDbEntity
  8
SUNPO
 62
   144
100
AcDbLine
 10
5396.880369778166
 20
2636.657765319065
 30
0.0
 11
5396.880369778166
 21
2957.61619864781
 31
0.0
  0
LINE
  5
17F9
330
EBE
100
AcDbEntity
  8
SUNPO
 62
   144
100
AcDbLine
 10
5277.880369778166
 20
2947.616198647811
 30
0.0
 11
5233.880369778166
 21
2947.616198647811
 31
0.0
  0
LINE
  5
17FA
330
EBE
100
AcDbEntity
  8
SUNPO
 62
   144
100
AcDbLine
 10
5440.880369778166
 20
2947.616198647811
 30
0.0
 11
5484.880369778166
 21
2947.616198647811
 31
0.0
  0
MTEXT
  5
17FB
330
EBE
100
AcDbEntity
  8
SUNPO
 62
     7
100
AcDbMText
 10
5458.397844765259
 20
2986.561915583623
 30
0.0
 40
50.0
 41
0.0
 71
     5
 72
     1
  1
\A2;75
  7
ADD
1001
ACAD
1000
MTEXTBEGIN
1070
    73
1070
     1
1070
    44
1040
1.0
1070
    74
1070
     0
1000
MTEXTEND
1000
MTEXTBEGIN
1070
    73
1070
     1
1070
    44
1040
1.0
1070
    74
1070
     0
1000
MTEXTEND
  0
LINE
  5
17FC
330
EBE
100
AcDbEntity
  8
SUNPO
 62
   144
100
AcDbLine
 10
5321.880369778166
 20
2947.616198647811
 30
0.0
 11
5396.880369778166
 21
2947.616198647811
 31
0.0
  0
SOLID
  5
17FD
330
EBE
100
AcDbEntity
  8
SUNPO
 62
   144
100
AcDbTrace
 10
5277.880369778166
 20
2954.949531981144
 30
0.0
 11
5277.880369778166
 21
2940.282865314477
 31
0.0
 12
5321.880369778166
 22
2947.616198647811
 32
0.0
 13
5321.880369778166
 23
2947.616198647811
 33
0.0
  0
SOLID
  5
17FE
330
EBE
100
AcDbEntity
  8
SUNPO
 62
   144
100
AcDbTrace
 10
5440.880369778166
 20
2954.949531981144
 30
0.0
 11
5440.880369778166
 21
2940.282865314477
 31
0.0
 12
5396.880369778166
 22
2947.616198647811
 32
0.0
 13
5396.880369778166
 23
2947.616198647811
 33
0.0
  0
POINT
  5
17FF
330
EBE
100
AcDbEntity
  8
DEFPOINTS
 62
     0
100
AcDbPoint
 10
5321.880369778166
 20
2616.657765319065
 30
0.0
  0
POINT
  5
1800
330
EBE
100
AcDbEntity
  8
DEFPOINTS
 62
     0
100
AcDbPoint
 10
5396.880369778166
 20
2616.657765319065
 30
0.0
  0
POINT
  5
1801
330
EBE
100
AcDbEntity
  8
DEFPOINTS
 62
     0
100
AcDbPoint
 10
5396.880369778166
 20
2947.616198647811
 30
0.0
  0
ENDBLK
  5
ECB
330
EBE
100
AcDbEntity
  8
0
100
AcDbBlockEnd
  0
BLOCK
  5
EE8
330
EDC
100
AcDbEntity
  8
0
100
AcDbBlockBegin
  2
*D7
 70
     1
 10
0.0
 20
0.0
 30
0.0
  3
*D7
  1

  0
LINE
  5
17EC
330
EDC
100
AcDbEntity
  8
SUNPO
 62
   144
100
AcDbLine
 10
1321.880369778165
 20
2636.657765319065
 30
0.0
 11
1321.880369778165
 21
2792.264995605992
 31
0.0
  0
LINE
  5
17ED
330
EDC
100
AcDbEntity
  8
SUNPO
 62
   144
100
AcDbLine
 10
1261.932385392624
 20
2634.159932636334
 30
0.0
 11
1261.932385392624
 21
2792.264995605992
 31
0.0
  0
LINE
  5
17EE
330
EDC
100
AcDbEntity
  8
SUNPO
 62
   144
100
AcDbLine
 10
1365.880369778165
 20
2782.264995605992
 30
0.0
 11
1409.880369778165
 21
2782.264995605992
 31
0.0
  0
LINE
  5
17EF
330
EDC
100
AcDbEntity
  8
SUNPO
 62
   144
100
AcDbLine
 10
1217.932385392624
 20
2782.264995605992
 30
0.0
 11
1173.932385392624
 21
2782.264995605992
 31
0.0
  0
LINE
  5
17F0
330
EDC
100
AcDbEntity
  8
SUNPO
 62
   144
100
AcDbLine
 10
1321.880369778165
 20
2782.264995605992
 30
0.0
 11
1261.932385392624
 21
2782.264995605992
 31
0.0
  0
SOLID
  5
17F1
330
EDC
100
AcDbEntity
  8
SUNPO
 62
   144
100
AcDbTrace
 10
1365.880369778165
 20
2789.598328939325
 30
0.0
 11
1365.880369778165
 21
2774.931662272658
 31
0.0
 12
1321.880369778165
 22
2782.264995605992
 32
0.0
 13
1321.880369778165
 23
2782.264995605992
 33
0.0
  0
SOLID
  5
17F2
330
EDC
100
AcDbEntity
  8
SUNPO
 62
   144
100
AcDbTrace
 10
1217.932385392624
 20
2789.598328939325
 30
0.0
 11
1217.932385392624
 21
2774.931662272658
 31
0.0
 12
1261.932385392624
 22
2782.264995605992
 32
0.0
 13
1261.932385392624
 23
2782.264995605992
 33
0.0
  0
MTEXT
  5
17F3
330
EDC
100
AcDbEntity
  8
SUNPO
 62
     7
100
AcDbMText
 10
1291.906377585395
 20
2819.764995605992
 30
0.0
 40
50.0
 41
0.0
 71
     5
 72
     1
  1
\A2;60
  7
ADD
1001
ACAD
1000
MTEXTBEGIN
1070
    73
1070
     1
1070
    44
1040
1.0
1070
    74
1070
     0
1000
MTEXTEND
1000
MTEXTBEGIN
1070
    73
1070
     1
1070
    44
1040
1.0
1070
    74
1070
     0
1000
MTEXTEND
  0
POINT
  5
17F4
330
EDC
100
AcDbEntity
  8
DEFPOINTS
 62
     0
100
AcDbPoint
 10
1321.880369778165
 20
2616.657765319065
 30
0.0
  0
POINT
  5
17F5
330
EDC
100
AcDbEntity
  8
DEFPOINTS
 62
     0
100
AcDbPoint
 10
1261.932385392624
 20
2614.159932636335
 30
0.0
  0
POINT
  5
17F6
330
EDC
100
AcDbEntity
  8
DEFPOINTS
 62
     0
100
AcDbPoint
 10
1261.932385392624
 20
2782.264995605992
 30
0.0
  0
ENDBLK
  5
EE9
330
EDC
100
AcDbEntity
  8
0
100
AcDbBlockEnd
  0
BLOCK
  5
EF7
330
EEB
100
AcDbEntity
  8
0
100
AcDbBlockBegin
  2
*D8
 70
     1
 10
0.0
 20
0.0
 30
0.0
  3
*D8
  1

  0
LINE
  5
17E1
330
EEB
100
AcDbEntity
  8
SUNPO
 62
   144
100
AcDbLine
 10
5321.880369778166
 20
2636.657765319065
 30
0.0
 11
5321.880369778166
 21
2792.264995605992
 31
0.0
  0
LINE
  5
17E2
330
EEB
100
AcDbEntity
  8
SUNPO
 62
   144
100
AcDbLine
 10
5381.828354163706
 20
2634.159932636334
 30
0.0
 11
5381.828354163706
 21
2792.264995605992
 31
0.0
  0
LINE
  5
17E3
330
EEB
100
AcDbEntity
  8
SUNPO
 62
   144
100
AcDbLine
 10
5277.880369778166
 20
2782.264995605992
 30
0.0
 11
5233.880369778166
 21
2782.264995605992
 31
0.0
  0
LINE
  5
17E4
330
EEB
100
AcDbEntity
  8
SUNPO
 62
   144
100
AcDbLine
 10
5425.828354163707
 20
2782.264995605992
 30
0.0
 11
5469.828354163706
 21
2782.264995605992
 31
0.0
  0
LINE
  5
17E5
330
EEB
100
AcDbEntity
  8
SUNPO
 62
   144
100
AcDbLine
 10
5321.880369778166
 20
2782.264995605992
 30
0.0
 11
5381.828354163706
 21
2782.264995605992
 31
0.0
  0
SOLID
  5
17E6
330
EEB
100
AcDbEntity
  8
SUNPO
 62
   144
100
AcDbTrace
 10
5277.880369778166
 20
2789.598328939325
 30
0.0
 11
5277.880369778166
 21
2774.931662272658
 31
0.0
 12
5321.880369778166
 22
2782.264995605992
 32
0.0
 13
5321.880369778166
 23
2782.264995605992
 33
0.0
  0
SOLID
  5
17E7
330
EEB
100
AcDbEntity
  8
SUNPO
 62
   144
100
AcDbTrace
 10
5425.828354163707
 20
2789.598328939325
 30
0.0
 11
5425.828354163707
 21
2774.931662272658
 31
0.0
 12
5381.828354163706
 22
2782.264995605992
 32
0.0
 13
5381.828354163706
 23
2782.264995605992
 33
0.0
  0
MTEXT
  5
17E8
330
EEB
100
AcDbEntity
  8
SUNPO
 62
     7
100
AcDbMText
 10
5351.854361970936
 20
2819.764995605992
 30
0.0
 40
50.0
 41
0.0
 71
     5
 72
     1
  1
\A2;60
  7
ADD
1001
ACAD
1000
MTEXTBEGIN
1070
    73
1070
     1
1070
    44
1040
1.0
1070
    74
1070
     0
1000
MTEXTEND
1000
MTEXTBEGIN
1070
    73
1070
     1
1070
    44
1040
1.0
1070
    74
1070
     0
1000
MTEXTEND
  0
POINT
  5
17E9
330
EEB
100
AcDbEntity
  8
DEFPOINTS
 62
     0
100
AcDbPoint
 10
5321.880369778166
 20
2616.657765319065
 30
0.0
  0
POINT
  5
17EA
330
EEB
100
AcDbEntity
  8
DEFPOINTS
 62
     0
100
AcDbPoint
 10
5381.828354163706
 20
2614.159932636335
 30
0.0
  0
POINT
  5
17EB
330
EEB
100
AcDbEntity
  8
DEFPOINTS
 62
     0
100
AcDbPoint
 10
5381.828354163706
 20
2782.264995605992
 30
0.0
  0
ENDBLK
  5
EF8
330
EEB
100
AcDbEntity
  8
0
100
AcDbBlockEnd
  0
BLOCK
  5
F7A
330
F70
100
AcDbEntity
  8
0
100
AcDbBlockBegin
  2
*D9
 70
     1
 10
0.0
 20
0.0
 30
0.0
  3
*D9
  1

  0
LINE
  5
17D8
330
F70
100
AcDbEntity
  8
SUNPO
 62
   144
100
AcDbLine
 10
1226.880369778165
 20
1916.657765319065
 30
0.0
 11
868.1719402827509
 21
1916.657765319065
 31
0.0
  0
LINE
  5
17D9
330
F70
100
AcDbEntity
  8
SUNPO
 62
   144
100
AcDbLine
 10
1226.880369778165
 20
2616.657765319065
 30
0.0
 11
868.1719402827509
 21
2616.657765319065
 31
0.0
  0
LINE
  5
17DA
330
F70
100
AcDbEntity
  8
SUNPO
 62
   144
100
AcDbLine
 10
878.1719402827508
 20
1960.657765319065
 30
0.0
 11
878.1719402827508
 21
2572.657765319065
 31
0.0
  0
SOLID
  5
17DB
330
F70
100
AcDbEntity
  8
SUNPO
 62
   144
100
AcDbTrace
 10
870.8386069494174
 20
1960.657765319065
 30
0.0
 11
885.5052736160841
 21
1960.657765319065
 31
0.0
 12
878.1719402827508
 22
1916.657765319065
 32
0.0
 13
878.1719402827508
 23
1916.657765319065
 33
0.0
  0
SOLID
  5
17DC
330
F70
100
AcDbEntity
  8
SUNPO
 62
   144
100
AcDbTrace
 10
870.8386069494176
 20
2572.657765319065
 30
0.0
 11
885.5052736160843
 21
2572.657765319065
 31
0.0
 12
878.1719402827508
 22
2616.657765319065
 32
0.0
 13
878.1719402827508
 23
2616.657765319065
 33
0.0
  0
MTEXT
  5
17DD
330
F70
100
AcDbEntity
  8
SUNPO
 62
     7
100
AcDbMText
 10
840.6719402827505
 20
2266.657765319065
 30
0.0
 40
50.0
 41
0.0
 71
     5
 72
     1
  1
\A2;700
  7
ADD
 11
0.0000000000000001
 21
1.0
 31
0.0
1001
ACAD
1000
MTEXTBEGIN
1070
    73
1070
     1
1070
    44
1040
1.0
1070
    74
1070
     0
1000
MTEXTEND
1000
MTEXTBEGIN
1070
    73
1070
     1
1070
    44
1040
1.0
1070
    74
1070
     0
1000
MTEXTEND
  0
POINT
  5
17DE
330
F70
100
AcDbEntity
  8
DEFPOINTS
 62
     0
100
AcDbPoint
 10
1246.880369778165
 20
1916.657765319065
 30
0.0
  0
POINT
  5
17DF
330
F70
100
AcDbEntity
  8
DEFPOINTS
 62
     0
100
AcDbPoint
 10
1246.880369778165
 20
2616.657765319065
 30
0.0
  0
POINT
  5
17E0
330
F70
100
AcDbEntity
  8
DEFPOINTS
 62
     0
100
AcDbPoint
 10
878.1719402827508
 20
2616.657765319065
 30
0.0
  0
ENDBLK
  5
F7B
330
F70
100
AcDbEntity
  8
0
100
AcDbBlockEnd
  0
BLOCK
  5
F87
330
F7D
100
AcDbEntity
  8
0
100
AcDbBlockBegin
  2
*D10
 70
     1
 10
0.0
 20
0.0
 30
0.0
  3
*D10
  1

  0
LINE
  5
17CF
330
F7D
100
AcDbEntity
  8
SUNPO
 62
   144
100
AcDbLine
 10
1226.880369778165
 20
2616.657765319065
 30
0.0
 11
1060.713911128295
 21
2616.657765319065
 31
0.0
  0
LINE
  5
17D0
330
F7D
100
AcDbEntity
  8
SUNPO
 62
   144
100
AcDbLine
 10
1226.880369778165
 20
2016.657765319064
 30
0.0
 11
1060.713911128295
 21
2016.657765319064
 31
0.0
  0
LINE
  5
17D1
330
F7D
100
AcDbEntity
  8
SUNPO
 62
   144
100
AcDbLine
 10
1070.713911128295
 20
2572.657765319065
 30
0.0
 11
1070.713911128295
 21
2060.657765319064
 31
0.0
  0
SOLID
  5
17D2
330
F7D
100
AcDbEntity
  8
SUNPO
 62
   144
100
AcDbTrace
 10
1063.380577794962
 20
2572.657765319065
 30
0.0
 11
1078.047244461629
 21
2572.657765319065
 31
0.0
 12
1070.713911128295
 22
2616.657765319065
 32
0.0
 13
1070.713911128295
 23
2616.657765319065
 33
0.0
  0
SOLID
  5
17D3
330
F7D
100
AcDbEntity
  8
SUNPO
 62
   144
100
AcDbTrace
 10
1063.380577794962
 20
2060.657765319064
 30
0.0
 11
1078.047244461629
 21
2060.657765319064
 31
0.0
 12
1070.713911128295
 22
2016.657765319064
 32
0.0
 13
1070.713911128295
 23
2016.657765319064
 33
0.0
  0
MTEXT
  5
17D4
330
F7D
100
AcDbEntity
  8
SUNPO
 62
     7
100
AcDbMText
 10
1033.213911128295
 20
2316.657765319065
 30
0.0
 40
50.0
 41
0.0
 71
     5
 72
     1
  1
\A2;600
  7
ADD
 11
0.0000000000000001
 21
1.0
 31
0.0
1001
ACAD
1000
MTEXTBEGIN
1070
    73
1070
     1
1070
    44
1040
1.0
1070
    74
1070
     0
1000
MTEXTEND
1000
MTEXTBEGIN
1070
    73
1070
     1
1070
    44
1040
1.0
1070
    74
1070
     0
1000
MTEXTEND
  0
POINT
  5
17D5
330
F7D
100
AcDbEntity
  8
DEFPOINTS
 62
     0
100
AcDbPoint
 10
1246.880369778165
 20
2616.657765319065
 30
0.0
  0
POINT
  5
17D6
330
F7D
100
AcDbEntity
  8
DEFPOINTS
 62
     0
100
AcDbPoint
 10
1246.880369778165
 20
2016.657765319064
 30
0.0
  0
POINT
  5
17D7
330
F7D
100
AcDbEntity
  8
DEFPOINTS
 62
     0
100
AcDbPoint
 10
1070.713911128295
 20
2016.657765319064
 30
0.0
  0
ENDBLK
  5
F88
330
F7D
100
AcDbEntity
  8
0
100
AcDbBlockEnd
  0
BLOCK
  5
F96
330
F8A
100
AcDbEntity
  8
0
100
AcDbBlockBegin
  2
*D11
 70
     1
 10
0.0
 20
0.0
 30
0.0
  3
*D11
  1

  0
LINE
  5
1863
330
F8A
100
AcDbEntity
  8
SUNPO
 62
   144
100
AcDbLine
 10
1226.880369778165
 20
2016.657765319064
 30
0.0
 11
1060.713911128295
 21
2016.657765319064
 31
0.0
  0
LINE
  5
1864
330
F8A
100
AcDbEntity
  8
SUNPO
 62
   144
100
AcDbLine
 10
1226.880369778165
 20
1916.657765319065
 30
0.0
 11
1060.713911128295
 21
1916.657765319065
 31
0.0
  0
LINE
  5
1865
330
F8A
100
AcDbEntity
  8
SUNPO
 62
   144
100
AcDbLine
 10
1070.713911128295
 20
1986.657765319065
 30
0.0
 11
1070.713911128295
 21
1946.657765319065
 31
0.0
  0
MTEXT
  5
1866
330
F8A
100
AcDbEntity
  8
SUNPO
 62
     7
100
AcDbMText
 10
1029.705546839584
 20
1951.951762938806
 30
0.0
 40
50.0
 41
0.0
 71
     5
 72
     1
  1
\A2;100
  7
ADD
 11
0.0000000000000001
 21
1.0
 31
0.0
1001
ACAD
1000
MTEXTBEGIN
1070
    73
1070
     1
1070
    44
1040
1.0
1070
    74
1070
     0
1000
MTEXTEND
1000
MTEXTBEGIN
1070
    73
1070
     1
1070
    44
1040
1.0
1070
    74
1070
     0
1000
MTEXTEND
  0
SOLID
  5
1867
330
F8A
100
AcDbEntity
  8
SUNPO
 62
   144
100
AcDbTrace
 10
1065.713911128295
 20
1986.657765319065
 30
0.0
 11
1075.713911128295
 21
1986.657765319065
 31
0.0
 12
1070.713911128295
 22
2016.657765319064
 32
0.0
 13
1070.713911128295
 23
2016.657765319064
 33
0.0
  0
SOLID
  5
1868
330
F8A
100
AcDbEntity
  8
SUNPO
 62
   144
100
AcDbTrace
 10
1065.713911128295
 20
1946.657765319065
 30
0.0
 11
1075.713911128295
 21
1946.657765319065
 31
0.0
 12
1070.713911128295
 22
1916.657765319065
 32
0.0
 13
1070.713911128295
 23
1916.657765319065
 33
0.0
  0
POINT
  5
1869
330
F8A
100
AcDbEntity
  8
DEFPOINTS
 62
     0
100
AcDbPoint
 10
1246.880369778165
 20
2016.657765319064
 30
0.0
  0
POINT
  5
186A
330
F8A
100
AcDbEntity
  8
DEFPOINTS
 62
     0
100
AcDbPoint
 10
1246.880369778165
 20
1916.657765319065
 30
0.0
  0
POINT
  5
186B
330
F8A
100
AcDbEntity
  8
DEFPOINTS
 62
     0
100
AcDbPoint
 10
1070.713911128295
 20
1916.657765319065
 30
0.0
  0
ENDBLK
  5
F97
330
F8A
100
AcDbEntity
  8
0
100
AcDbBlockEnd
  0
BLOCK
  5
FBD
330
FB1
100
AcDbEntity
  8
0
100
AcDbBlockBegin
  2
*D12
 70
     1
 10
0.0
 20
0.0
 30
0.0
  3
*D12
  1

  0
LINE
  5
177B
330
FB1
100
AcDbEntity
  8
SUNPO
 62
   144
100
AcDbLine
 10
547.2844382457878
 20
2636.657765319065
 30
0.0
 11
547.2844382457878
 21
2957.61619864781
 31
0.0
  0
LINE
  5
177C
330
FB1
100
AcDbEntity
  8
SUNPO
 62
   144
100
AcDbLine
 10
597.2844382457878
 20
2636.657765319065
 30
0.0
 11
597.2844382457878
 21
2957.61619864781
 31
0.0
  0
LINE
  5
177D
330
FB1
100
AcDbEntity
  8
SUNPO
 62
   144
100
AcDbLine
 10
503.2844382457879
 20
2947.616198647811
 30
0.0
 11
459.2844382457879
 21
2947.616198647811
 31
0.0
  0
LINE
  5
177E
330
FB1
100
AcDbEntity
  8
SUNPO
 62
   144
100
AcDbLine
 10
641.2844382457879
 20
2947.616198647811
 30
0.0
 11
685.2844382457878
 21
2947.616198647811
 31
0.0
  0
MTEXT
  5
177F
330
FB1
100
AcDbEntity
  8
SUNPO
 62
     7
100
AcDbMText
 10
485.7114689118425
 20
2987.086481232296
 30
0.0
 40
50.0
 41
0.0
 71
     5
 72
     1
  1
\A2;50
  7
ADD
1001
ACAD
1000
MTEXTBEGIN
1070
    73
1070
     1
1070
    44
1040
1.0
1070
    74
1070
     0
1000
MTEXTEND
1000
MTEXTBEGIN
1070
    73
1070
     1
1070
    44
1040
1.0
1070
    74
1070
     0
1000
MTEXTEND
  0
LINE
  5
1780
330
FB1
100
AcDbEntity
  8
SUNPO
 62
   144
100
AcDbLine
 10
547.2844382457878
 20
2947.616198647811
 30
0.0
 11
597.2844382457878
 21
2947.616198647811
 31
0.0
  0
SOLID
  5
1781
330
FB1
100
AcDbEntity
  8
SUNPO
 62
   144
100
AcDbTrace
 10
503.2844382457879
 20
2954.949531981144
 30
0.0
 11
503.2844382457879
 21
2940.282865314477
 31
0.0
 12
547.2844382457878
 22
2947.616198647811
 32
0.0
 13
547.2844382457878
 23
2947.616198647811
 33
0.0
  0
SOLID
  5
1782
330
FB1
100
AcDbEntity
  8
SUNPO
 62
   144
100
AcDbTrace
 10
641.2844382457879
 20
2954.949531981144
 30
0.0
 11
641.2844382457879
 21
2940.282865314477
 31
0.0
 12
597.2844382457878
 22
2947.616198647811
 32
0.0
 13
597.2844382457878
 23
2947.616198647811
 33
0.0
  0
POINT
  5
1783
330
FB1
100
AcDbEntity
  8
DEFPOINTS
 62
     0
100
AcDbPoint
 10
547.2844382457878
 20
2616.657765319065
 30
0.0
  0
POINT
  5
1784
330
FB1
100
AcDbEntity
  8
DEFPOINTS
 62
     0
100
AcDbPoint
 10
597.2844382457878
 20
2616.657765319065
 30
0.0
  0
POINT
  5
1785
330
FB1
100
AcDbEntity
  8
DEFPOINTS
 62
     0
100
AcDbPoint
 10
597.2844382457878
 20
2947.616198647811
 30
0.0
  0
ENDBLK
  5
FBE
330
FB1
100
AcDbEntity
  8
0
100
AcDbBlockEnd
  0
BLOCK
  5
FCC
330
FC0
100
AcDbEntity
  8
0
100
AcDbBlockBegin
  2
*D13
 70
     1
 10
0.0
 20
0.0
 30
0.0
  3
*D13
  1

  0
LINE
  5
1770
330
FC0
100
AcDbEntity
  8
SUNPO
 62
   144
100
AcDbLine
 10
727.2844382457878
 20
2636.657765319065
 30
0.0
 11
727.2844382457878
 21
2957.61619864781
 31
0.0
  0
LINE
  5
1771
330
FC0
100
AcDbEntity
  8
SUNPO
 62
   144
100
AcDbLine
 10
677.2844382457878
 20
2636.657765319065
 30
0.0
 11
677.2844382457878
 21
2957.61619864781
 31
0.0
  0
LINE
  5
1772
330
FC0
100
AcDbEntity
  8
SUNPO
 62
   144
100
AcDbLine
 10
771.2844382457879
 20
2947.616198647811
 30
0.0
 11
815.2844382457878
 21
2947.616198647811
 31
0.0
  0
LINE
  5
1773
330
FC0
100
AcDbEntity
  8
SUNPO
 62
   144
100
AcDbLine
 10
633.2844382457879
 20
2947.616198647811
 30
0.0
 11
589.2844382457878
 21
2947.616198647811
 31
0.0
  0
MTEXT
  5
1774
330
FC0
100
AcDbEntity
  8
SUNPO
 62
     7
100
AcDbMText
 10
785.1889374858074
 20
2982.900651204676
 30
0.0
 40
50.0
 41
0.0
 71
     5
 72
     1
  1
\A2;50
  7
ADD
1001
ACAD
1000
MTEXTBEGIN
1070
    73
1070
     1
1070
    44
1040
1.0
1070
    74
1070
     0
1000
MTEXTEND
1000
MTEXTBEGIN
1070
    73
1070
     1
1070
    44
1040
1.0
1070
    74
1070
     0
1000
MTEXTEND
  0
LINE
  5
1775
330
FC0
100
AcDbEntity
  8
SUNPO
 62
   144
100
AcDbLine
 10
727.2844382457878
 20
2947.616198647811
 30
0.0
 11
677.2844382457878
 21
2947.616198647811
 31
0.0
  0
SOLID
  5
1776
330
FC0
100
AcDbEntity
  8
SUNPO
 62
   144
100
AcDbTrace
 10
771.2844382457879
 20
2954.949531981144
 30
0.0
 11
771.2844382457879
 21
2940.282865314477
 31
0.0
 12
727.2844382457878
 22
2947.616198647811
 32
0.0
 13
727.2844382457878
 23
2947.616198647811
 33
0.0
  0
SOLID
  5
1777
330
FC0
100
AcDbEntity
  8
SUNPO
 62
   144
100
AcDbTrace
 10
633.2844382457879
 20
2954.949531981144
 30
0.0
 11
633.2844382457879
 21
2940.282865314477
 31
0.0
 12
677.2844382457878
 22
2947.616198647811
 32
0.0
 13
677.2844382457878
 23
2947.616198647811
 33
0.0
  0
POINT
  5
1778
330
FC0
100
AcDbEntity
  8
DEFPOINTS
 62
     0
100
AcDbPoint
 10
727.2844382457878
 20
2616.657765319065
 30
0.0
  0
POINT
  5
1779
330
FC0
100
AcDbEntity
  8
DEFPOINTS
 62
     0
100
AcDbPoint
 10
677.2844382457878
 20
2616.657765319065
 30
0.0
  0
POINT
  5
177A
330
FC0
100
AcDbEntity
  8
DEFPOINTS
 62
     0
100
AcDbPoint
 10
677.2844382457878
 20
2947.616198647811
 30
0.0
  0
ENDBLK
  5
FCD
330
FC0
100
AcDbEntity
  8
0
100
AcDbBlockEnd
  0
BLOCK
  5
FF1
330
FE5
100
AcDbEntity
  8
0
100
AcDbBlockBegin
  2
*D14
 70
     1
 10
0.0
 20
0.0
 30
0.0
  3
*D14
  1

  0
LINE
  5
1765
330
FE5
100
AcDbEntity
  8
SUNPO
 62
   144
100
AcDbLine
 10
602.2844382457878
 20
2636.657765319065
 30
0.0
 11
602.2844382457878
 21
2957.61619864781
 31
0.0
  0
LINE
  5
1766
330
FE5
100
AcDbEntity
  8
SUNPO
 62
   144
100
AcDbLine
 10
672.2844382457878
 20
2636.657765319065
 30
0.0
 11
672.2844382457878
 21
2957.61619864781
 31
0.0
  0
LINE
  5
1767
330
FE5
100
AcDbEntity
  8
SUNPO
 62
   144
100
AcDbLine
 10
558.2844382457879
 20
2947.616198647811
 30
0.0
 11
514.2844382457878
 21
2947.616198647811
 31
0.0
  0
LINE
  5
1768
330
FE5
100
AcDbEntity
  8
SUNPO
 62
   144
100
AcDbLine
 10
716.2844382457879
 20
2947.616198647811
 30
0.0
 11
760.2844382457878
 21
2947.616198647811
 31
0.0
  0
LINE
  5
1769
330
FE5
100
AcDbEntity
  8
SUNPO
 62
   144
100
AcDbLine
 10
602.2844382457878
 20
2947.616198647811
 30
0.0
 11
672.2844382457878
 21
2947.616198647811
 31
0.0
  0
SOLID
  5
176A
330
FE5
100
AcDbEntity
  8
SUNPO
 62
   144
100
AcDbTrace
 10
558.2844382457879
 20
2954.949531981144
 30
0.0
 11
558.2844382457879
 21
2940.282865314477
 31
0.0
 12
602.2844382457878
 22
2947.616198647811
 32
0.0
 13
602.2844382457878
 23
2947.616198647811
 33
0.0
  0
SOLID
  5
176B
330
FE5
100
AcDbEntity
  8
SUNPO
 62
   144
100
AcDbTrace
 10
716.2844382457879
 20
2954.949531981144
 30
0.0
 11
716.2844382457879
 21
2940.282865314477
 31
0.0
 12
672.2844382457878
 22
2947.616198647811
 32
0.0
 13
672.2844382457878
 23
2947.616198647811
 33
0.0
  0
MTEXT
  5
176C
330
FE5
100
AcDbEntity
  8
SUNPO
 62
     7
100
AcDbMText
 10
637.2844382457879
 20
2985.116198647811
 30
0.0
 40
50.0
 41
0.0
 71
     5
 72
     1
  1
\A2;70
  7
ADD
1001
ACAD
1000
MTEXTBEGIN
1070
    73
1070
     1
1070
    44
1040
1.0
1070
    74
1070
     0
1000
MTEXTEND
1000
MTEXTBEGIN
1070
    73
1070
     1
1070
    44
1040
1.0
1070
    74
1070
     0
1000
MTEXTEND
  0
POINT
  5
176D
330
FE5
100
AcDbEntity
  8
DEFPOINTS
 62
     0
100
AcDbPoint
 10
602.2844382457878
 20
2616.657765319065
 30
0.0
  0
POINT
  5
176E
330
FE5
100
AcDbEntity
  8
DEFPOINTS
 62
     0
100
AcDbPoint
 10
672.2844382457878
 20
2616.657765319065
 30
0.0
  0
POINT
  5
176F
330
FE5
100
AcDbEntity
  8
DEFPOINTS
 62
     0
100
AcDbPoint
 10
672.2844382457878
 20
2947.616198647811
 30
0.0
  0
ENDBLK
  5
FF2
330
FE5
100
AcDbEntity
  8
0
100
AcDbBlockEnd
  0
BLOCK
  5
101E
330
1012
100
AcDbEntity
  8
0
100
AcDbBlockBegin
  2
*D15
 70
     1
 10
0.0
 20
0.0
 30
0.0
  3
*D15
  1

  0
LINE
  5
175A
330
1012
100
AcDbEntity
  8
SUNPO
 62
   144
100
AcDbLine
 10
597.2844382457878
 20
2636.657765319065
 30
0.0
 11
597.2844382457878
 21
2795.129573934556
 31
0.0
  0
LINE
  5
175B
330
1012
100
AcDbEntity
  8
SUNPO
 62
   144
100
AcDbLine
 10
602.2844382457878
 20
2636.657765319065
 30
0.0
 11
602.2844382457878
 21
2795.129573934556
 31
0.0
  0
LINE
  5
175C
330
1012
100
AcDbEntity
  8
SUNPO
 62
   144
100
AcDbLine
 10
553.2844382457879
 20
2785.129573934557
 30
0.0
 11
509.2844382457879
 21
2785.129573934557
 31
0.0
  0
LINE
  5
175D
330
1012
100
AcDbEntity
  8
SUNPO
 62
   144
100
AcDbLine
 10
646.2844382457879
 20
2785.129573934557
 30
0.0
 11
690.2844382457878
 21
2785.129573934557
 31
0.0
  0
LINE
  5
175E
330
1012
100
AcDbEntity
  8
SUNPO
 62
   144
100
AcDbLine
 10
597.2844382457878
 20
2785.129573934557
 30
0.0
 11
602.2844382457878
 21
2785.129573934557
 31
0.0
  0
SOLID
  5
175F
330
1012
100
AcDbEntity
  8
SUNPO
 62
   144
100
AcDbTrace
 10
553.2844382457879
 20
2792.46290726789
 30
0.0
 11
553.2844382457879
 21
2777.796240601223
 31
0.0
 12
597.2844382457878
 22
2785.129573934557
 32
0.0
 13
597.2844382457878
 23
2785.129573934557
 33
0.0
  0
SOLID
  5
1760
330
1012
100
AcDbEntity
  8
SUNPO
 62
   144
100
AcDbTrace
 10
646.2844382457879
 20
2792.46290726789
 30
0.0
 11
646.2844382457879
 21
2777.796240601223
 31
0.0
 12
602.2844382457878
 22
2785.129573934557
 32
0.0
 13
602.2844382457878
 23
2785.129573934557
 33
0.0
  0
MTEXT
  5
1761
330
1012
100
AcDbEntity
  8
SUNPO
 62
     7
100
AcDbMText
 10
599.7844382457879
 20
2822.629573934557
 30
0.0
 40
50.0
 41
0.0
 71
     5
 72
     1
  1
\A2;5
  7
ADD
1001
ACAD
1000
MTEXTBEGIN
1070
    73
1070
     1
1070
    44
1040
1.0
1070
    74
1070
     0
1000
MTEXTEND
1000
MTEXTBEGIN
1070
    73
1070
     1
1070
    44
1040
1.0
1070
    74
1070
     0
1000
MTEXTEND
  0
POINT
  5
1762
330
1012
100
AcDbEntity
  8
DEFPOINTS
 62
     0
100
AcDbPoint
 10
597.2844382457878
 20
2616.657765319065
 30
0.0
  0
POINT
  5
1763
330
1012
100
AcDbEntity
  8
DEFPOINTS
 62
     0
100
AcDbPoint
 10
602.2844382457878
 20
2616.657765319065
 30
0.0
  0
POINT
  5
1764
330
1012
100
AcDbEntity
  8
DEFPOINTS
 62
     0
100
AcDbPoint
 10
602.2844382457878
 20
2785.129573934557
 30
0.0
  0
ENDBLK
  5
101F
330
1012
100
AcDbEntity
  8
0
100
AcDbBlockEnd
  0
BLOCK
  5
102D
330
1021
100
AcDbEntity
  8
0
100
AcDbBlockBegin
  2
*D16
 70
     1
 10
0.0
 20
0.0
 30
0.0
  3
*D16
  1

  0
LINE
  5
174F
330
1021
100
AcDbEntity
  8
SUNPO
 62
   144
100
AcDbLine
 10
672.2844382457878
 20
2636.657765319065
 30
0.0
 11
672.2844382457878
 21
2795.129573934556
 31
0.0
  0
LINE
  5
1750
330
1021
100
AcDbEntity
  8
SUNPO
 62
   144
100
AcDbLine
 10
677.2844382457878
 20
2636.657765319065
 30
0.0
 11
677.2844382457878
 21
2795.129573934556
 31
0.0
  0
LINE
  5
1751
330
1021
100
AcDbEntity
  8
SUNPO
 62
   144
100
AcDbLine
 10
628.2844382457879
 20
2785.129573934557
 30
0.0
 11
584.2844382457879
 21
2785.129573934557
 31
0.0
  0
LINE
  5
1752
330
1021
100
AcDbEntity
  8
SUNPO
 62
   144
100
AcDbLine
 10
721.2844382457879
 20
2785.129573934557
 30
0.0
 11
765.2844382457878
 21
2785.129573934557
 31
0.0
  0
LINE
  5
1753
330
1021
100
AcDbEntity
  8
SUNPO
 62
   144
100
AcDbLine
 10
672.2844382457878
 20
2785.129573934557
 30
0.0
 11
677.2844382457878
 21
2785.129573934557
 31
0.0
  0
SOLID
  5
1754
330
1021
100
AcDbEntity
  8
SUNPO
 62
   144
100
AcDbTrace
 10
628.2844382457879
 20
2792.46290726789
 30
0.0
 11
628.2844382457879
 21
2777.796240601223
 31
0.0
 12
672.2844382457878
 22
2785.129573934557
 32
0.0
 13
672.2844382457878
 23
2785.129573934557
 33
0.0
  0
SOLID
  5
1755
330
1021
100
AcDbEntity
  8
SUNPO
 62
   144
100
AcDbTrace
 10
721.2844382457879
 20
2792.46290726789
 30
0.0
 11
721.2844382457879
 21
2777.796240601223
 31
0.0
 12
677.2844382457878
 22
2785.129573934557
 32
0.0
 13
677.2844382457878
 23
2785.129573934557
 33
0.0
  0
MTEXT
  5
1756
330
1021
100
AcDbEntity
  8
SUNPO
 62
     7
100
AcDbMText
 10
674.7844382457879
 20
2822.629573934557
 30
0.0
 40
50.0
 41
0.0
 71
     5
 72
     1
  1
\A2;5
  7
ADD
1001
ACAD
1000
MTEXTBEGIN
1070
    73
1070
     1
1070
    44
1040
1.0
1070
    74
1070
     0
1000
MTEXTEND
1000
MTEXTBEGIN
1070
    73
1070
     1
1070
    44
1040
1.0
1070
    74
1070
     0
1000
MTEXTEND
  0
POINT
  5
1757
330
1021
100
AcDbEntity
  8
DEFPOINTS
 62
     0
100
AcDbPoint
 10
672.2844382457878
 20
2616.657765319065
 30
0.0
  0
POINT
  5
1758
330
1021
100
AcDbEntity
  8
DEFPOINTS
 62
     0
100
AcDbPoint
 10
677.2844382457878
 20
2616.657765319065
 30
0.0
  0
POINT
  5
1759
330
1021
100
AcDbEntity
  8
DEFPOINTS
 62
     0
100
AcDbPoint
 10
677.2844382457878
 20
2785.129573934557
 30
0.0
  0
ENDBLK
  5
102E
330
1021
100
AcDbEntity
  8
0
100
AcDbBlockEnd
  0
BLOCK
  5
10CA
330
10C0
100
AcDbEntity
  8
0
100
AcDbBlockBegin
  2
*D17
 70
     1
 10
0.0
 20
0.0
 30
0.0
  3
*D17
  1

  0
LINE
  5
17BB
330
10C0
100
AcDbEntity
  8
SUNPO
 62
   144
100
AcDbLine
 10
1246.880369778165
 20
1896.657765319065
 30
0.0
 11
1246.880369778165
 21
1400.807728292304
 31
0.0
  0
LINE
  5
17BC
330
10C0
100
AcDbEntity
  8
SUNPO
 62
   144
100
AcDbLine
 10
5396.880369778166
 20
1896.657765319065
 30
0.0
 11
5396.880369778166
 21
1400.807728292304
 31
0.0
  0
LINE
  5
17BD
330
10C0
100
AcDbEntity
  8
SUNPO
 62
   144
100
AcDbLine
 10
1290.880369778165
 20
1410.807728292304
 30
0.0
 11
5352.880369778166
 21
1410.807728292304
 31
0.0
  0
SOLID
  5
17BE
330
10C0
100
AcDbEntity
  8
SUNPO
 62
   144
100
AcDbTrace
 10
1290.880369778165
 20
1418.141061625637
 30
0.0
 11
1290.880369778165
 21
1403.474394958971
 31
0.0
 12
1246.880369778165
 22
1410.807728292304
 32
0.0
 13
1246.880369778165
 23
1410.807728292304
 33
0.0
  0
SOLID
  5
17BF
330
10C0
100
AcDbEntity
  8
SUNPO
 62
   144
100
AcDbTrace
 10
5352.880369778166
 20
1418.141061625637
 30
0.0
 11
5352.880369778166
 21
1403.474394958971
 31
0.0
 12
5396.880369778166
 22
1410.807728292304
 32
0.0
 13
5396.880369778166
 23
1410.807728292304
 33
0.0
  0
MTEXT
  5
17C0
330
10C0
100
AcDbEntity
  8
SUNPO
 62
     7
100
AcDbMText
 10
3321.880369778166
 20
1443.307728292304
 30
0.0
 40
40.0
 41
0.0
 71
     5
 72
     1
  1
\A2;4150
  7
ADD
1001
ACAD
1000
MTEXTBEGIN
1070
    73
1070
     1
1070
    44
1040
1.0
1070
    74
1070
     0
1000
MTEXTEND
1000
MTEXTBEGIN
1070
    73
1070
     1
1070
    44
1040
1.0
1070
    74
1070
     0
1000
MTEXTEND
  0
POINT
  5
17C1
330
10C0
100
AcDbEntity
  8
DEFPOINTS
 62
     0
100
AcDbPoint
 10
1246.880369778165
 20
1916.657765319065
 30
0.0
  0
POINT
  5
17C2
330
10C0
100
AcDbEntity
  8
DEFPOINTS
 62
     0
100
AcDbPoint
 10
5396.880369778166
 20
1916.657765319065
 30
0.0
  0
POINT
  5
17C3
330
10C0
100
AcDbEntity
  8
DEFPOINTS
 62
     0
100
AcDbPoint
 10
5396.880369778166
 20
1410.807728292304
 30
0.0
  0
ENDBLK
  5
10CB
330
10C0
100
AcDbEntity
  8
0
100
AcDbBlockEnd
  0
BLOCK
  5
10EA
330
10DE
100
AcDbEntity
  8
0
100
AcDbBlockBegin
  2
*D18
 70
     1
 10
0.0
 20
0.0
 30
0.0
  3
*D18
  1

  0
LINE
  5
185A
330
10DE
100
AcDbEntity
  8
SUNPO
 62
   144
100
AcDbLine
 10
1246.880369778165
 20
1896.657765319065
 30
0.0
 11
1246.880369778165
 21
1638.732746805684
 31
0.0
  0
LINE
  5
185B
330
10DE
100
AcDbEntity
  8
SUNPO
 62
   144
100
AcDbLine
 10
1346.880369778165
 20
1896.657765319065
 30
0.0
 11
1346.880369778165
 21
1638.732746805684
 31
0.0
  0
LINE
  5
185C
330
10DE
100
AcDbEntity
  8
SUNPO
 62
   144
100
AcDbLine
 10
1276.880369778165
 20
1648.732746805685
 30
0.0
 11
1316.880369778165
 21
1648.732746805685
 31
0.0
  0
MTEXT
  5
185D
330
10DE
100
AcDbEntity
  8
SUNPO
 62
     7
100
AcDbMText
 10
1296.880369778165
 20
1681.232746805685
 30
0.0
 40
40.0
 41
0.0
 71
     5
 72
     1
  1
\A2;100
  7
ADD
1001
ACAD
1000
MTEXTBEGIN
1070
    73
1070
     1
1070
    44
1040
1.0
1070
    74
1070
     0
1000
MTEXTEND
1000
MTEXTBEGIN
1070
    73
1070
     1
1070
    44
1040
1.0
1070
    74
1070
     0
1000
MTEXTEND
  0
SOLID
  5
185E
330
10DE
100
AcDbEntity
  8
SUNPO
 62
   144
100
AcDbTrace
 10
1276.880369778165
 20
1653.732746805684
 30
0.0
 11
1276.880369778165
 21
1643.732746805684
 31
0.0
 12
1246.880369778165
 22
1648.732746805685
 32
0.0
 13
1246.880369778165
 23
1648.732746805685
 33
0.0
  0
SOLID
  5
185F
330
10DE
100
AcDbEntity
  8
SUNPO
 62
   144
100
AcDbTrace
 10
1316.880369778165
 20
1653.732746805684
 30
0.0
 11
1316.880369778165
 21
1643.732746805684
 31
0.0
 12
1346.880369778165
 22
1648.732746805685
 32
0.0
 13
1346.880369778165
 23
1648.732746805685
 33
0.0
  0
POINT
  5
1860
330
10DE
100
AcDbEntity
  8
DEFPOINTS
 62
     0
100
AcDbPoint
 10
1246.880369778165
 20
1916.657765319065
 30
0.0
  0
POINT
  5
1861
330
10DE
100
AcDbEntity
  8
DEFPOINTS
 62
     0
100
AcDbPoint
 10
1346.880369778165
 20
1916.657765319065
 30
0.0
  0
POINT
  5
1862
330
10DE
100
AcDbEntity
  8
DEFPOINTS
 62
     0
100
AcDbPoint
 10
1346.880369778165
 20
1648.732746805685
 30
0.0
  0
ENDBLK
  5
10EB
330
10DE
100
AcDbEntity
  8
0
100
AcDbBlockEnd
  0
BLOCK
  5
10F7
330
10ED
100
AcDbEntity
  8
0
100
AcDbBlockBegin
  2
*D19
 70
     1
 10
0.0
 20
0.0
 30
0.0
  3
*D19
  1

  0
LINE
  5
17A7
330
10ED
100
AcDbEntity
  8
SUNPO
 62
   144
100
AcDbLine
 10
1346.880369778165
 20
1896.657765319065
 30
0.0
 11
1346.880369778165
 21
1638.732746805684
 31
0.0
  0
LINE
  5
17A8
330
10ED
100
AcDbEntity
  8
SUNPO
 62
   144
100
AcDbLine
 10
5296.880369778166
 20
1896.657765319065
 30
0.0
 11
5296.880369778166
 21
1638.732746805684
 31
0.0
  0
LINE
  5
17A9
330
10ED
100
AcDbEntity
  8
SUNPO
 62
   144
100
AcDbLine
 10
1390.880369778165
 20
1648.732746805685
 30
0.0
 11
5252.880369778166
 21
1648.732746805685
 31
0.0
  0
SOLID
  5
17AA
330
10ED
100
AcDbEntity
  8
SUNPO
 62
   144
100
AcDbTrace
 10
1390.880369778165
 20
1656.066080139018
 30
0.0
 11
1390.880369778165
 21
1641.399413472351
 31
0.0
 12
1346.880369778165
 22
1648.732746805685
 32
0.0
 13
1346.880369778165
 23
1648.732746805685
 33
0.0
  0
SOLID
  5
17AB
330
10ED
100
AcDbEntity
  8
SUNPO
 62
   144
100
AcDbTrace
 10
5252.880369778166
 20
1656.066080139018
 30
0.0
 11
5252.880369778166
 21
1641.399413472351
 31
0.0
 12
5296.880369778166
 22
1648.732746805685
 32
0.0
 13
5296.880369778166
 23
1648.732746805685
 33
0.0
  0
MTEXT
  5
17AC
330
10ED
100
AcDbEntity
  8
SUNPO
 62
     7
100
AcDbMText
 10
3321.880369778166
 20
1681.232746805685
 30
0.0
 40
40.0
 41
0.0
 71
     5
 72
     1
  1
\A2;3950
  7
ADD
1001
ACAD
1000
MTEXTBEGIN
1070
    73
1070
     1
1070
    44
1040
1.0
1070
    74
1070
     0
1000
MTEXTEND
1000
MTEXTBEGIN
1070
    73
1070
     1
1070
    44
1040
1.0
1070
    74
1070
     0
1000
MTEXTEND
  0
POINT
  5
17AD
330
10ED
100
AcDbEntity
  8
DEFPOINTS
 62
     0
100
AcDbPoint
 10
1346.880369778165
 20
1916.657765319065
 30
0.0
  0
POINT
  5
17AE
330
10ED
100
AcDbEntity
  8
DEFPOINTS
 62
     0
100
AcDbPoint
 10
5296.880369778166
 20
1916.657765319065
 30
0.0
  0
POINT
  5
17AF
330
10ED
100
AcDbEntity
  8
DEFPOINTS
 62
     0
100
AcDbPoint
 10
5296.880369778166
 20
1648.732746805685
 30
0.0
  0
ENDBLK
  5
10F8
330
10ED
100
AcDbEntity
  8
0
100
AcDbBlockEnd
  0
BLOCK
  5
1106
330
10FA
100
AcDbEntity
  8
0
100
AcDbBlockBegin
  2
*D20
 70
     1
 10
0.0
 20
0.0
 30
0.0
  3
*D20
  1

  0
LINE
  5
1851
330
10FA
100
AcDbEntity
  8
SUNPO
 62
   144
100
AcDbLine
 10
5296.880369778166
 20
1896.657765319065
 30
0.0
 11
5296.880369778166
 21
1638.732746805684
 31
0.0
  0
LINE
  5
1852
330
10FA
100
AcDbEntity
  8
SUNPO
 62
   144
100
AcDbLine
 10
5396.880369778166
 20
1896.657765319065
 30
0.0
 11
5396.880369778166
 21
1638.732746805684
 31
0.0
  0
LINE
  5
1853
330
10FA
100
AcDbEntity
  8
SUNPO
 62
   144
100
AcDbLine
 10
5326.880369778166
 20
1648.732746805685
 30
0.0
 11
5366.880369778166
 21
1648.732746805685
 31
0.0
  0
MTEXT
  5
1854
330
10FA
100
AcDbEntity
  8
SUNPO
 62
     7
100
AcDbMText
 10
5346.880369778165
 20
1688.732746805684
 30
0.0
 40
40.0
 41
0.0
 71
     5
 72
     1
  1
\A2;100
  7
ADD
1001
ACAD
1000
MTEXTBEGIN
1070
    73
1070
     1
1070
    44
1040
1.0
1070
    74
1070
     0
1000
MTEXTEND
1000
MTEXTBEGIN
1070
    73
1070
     1
1070
    44
1040
1.0
1070
    74
1070
     0
1000
MTEXTEND
  0
SOLID
  5
1855
330
10FA
100
AcDbEntity
  8
SUNPO
 62
   144
100
AcDbTrace
 10
5326.880369778166
 20
1653.732746805684
 30
0.0
 11
5326.880369778166
 21
1643.732746805684
 31
0.0
 12
5296.880369778166
 22
1648.732746805685
 32
0.0
 13
5296.880369778166
 23
1648.732746805685
 33
0.0
  0
SOLID
  5
1856
330
10FA
100
AcDbEntity
  8
SUNPO
 62
   144
100
AcDbTrace
 10
5366.880369778166
 20
1653.732746805684
 30
0.0
 11
5366.880369778166
 21
1643.732746805684
 31
0.0
 12
5396.880369778166
 22
1648.732746805685
 32
0.0
 13
5396.880369778166
 23
1648.732746805685
 33
0.0
  0
POINT
  5
1857
330
10FA
100
AcDbEntity
  8
DEFPOINTS
 62
     0
100
AcDbPoint
 10
5296.880369778166
 20
1916.657765319065
 30
0.0
  0
POINT
  5
1858
330
10FA
100
AcDbEntity
  8
DEFPOINTS
 62
     0
100
AcDbPoint
 10
5396.880369778166
 20
1916.657765319065
 30
0.0
  0
POINT
  5
1859
330
10FA
100
AcDbEntity
  8
DEFPOINTS
 62
     0
100
AcDbPoint
 10
5396.880369778166
 20
1648.732746805685
 30
0.0
  0
ENDBLK
  5
1107
330
10FA
100
AcDbEntity
  8
0
100
AcDbBlockEnd
  0
BLOCK
  5
1117
330
110B
100
AcDbEntity
  8
0
100
AcDbBlockBegin
  2
*D21
 70
     1
 10
0.0
 20
0.0
 30
0.0
  3
*D21
  1

  0
LINE
  5
1791
330
110B
100
AcDbEntity
  8
SUNPO
 62
   144
100
AcDbLine
 10
1366.047758883921
 20
2036.640426780912
 30
0.0
 11
1568.673109109597
 21
2036.640426780912
 31
0.0
  0
LINE
  5
1792
330
110B
100
AcDbEntity
  8
SUNPO
 62
   144
100
AcDbLine
 10
1366.047758883921
 20
2016.657765319066
 30
0.0
 11
1568.673109109597
 21
2016.657765319065
 31
0.0
  0
LINE
  5
1793
330
110B
100
AcDbEntity
  8
SUNPO
 62
   144
100
AcDbLine
 10
1558.673109109597
 20
2080.640426780912
 30
0.0
 11
1558.673109109597
 21
2124.640426780912
 31
0.0
  0
LINE
  5
1794
330
110B
100
AcDbEntity
  8
SUNPO
 62
   144
100
AcDbLine
 10
1558.673109109597
 20
1972.657765319065
 30
0.0
 11
1558.673109109597
 21
1928.657765319066
 31
0.0
  0
MTEXT
  5
1795
330
110B
100
AcDbEntity
  8
SUNPO
 62
     7
100
AcDbMText
 10
1526.173109109596
 20
2090.165926386347
 30
0.0
 40
40.0
 41
0.0
 71
     5
 72
     1
  1
\A2;20
  7
ADD
 11
0.0000000000000001
 21
1.0
 31
0.0
1001
ACAD
1000
MTEXTBEGIN
1070
    73
1070
     1
1070
    44
1040
1.0
1070
    74
1070
     0
1000
MTEXTEND
1000
MTEXTBEGIN
1070
    73
1070
     1
1070
    44
1040
1.0
1070
    74
1070
     0
1000
MTEXTEND
  0
LINE
  5
1796
330
110B
100
AcDbEntity
  8
SUNPO
 62
   144
100
AcDbLine
 10
1558.673109109597
 20
2036.640426780912
 30
0.0
 11
1558.673109109597
 21
2016.657765319065
 31
0.0
  0
SOLID
  5
1797
330
110B
100
AcDbEntity
  8
SUNPO
 62
   144
100
AcDbTrace
 10
1551.339775776263
 20
2080.640426780912
 30
0.0
 11
1566.00644244293
 21
2080.640426780912
 31
0.0
 12
1558.673109109597
 22
2036.640426780912
 32
0.0
 13
1558.673109109597
 23
2036.640426780912
 33
0.0
  0
SOLID
  5
1798
330
110B
100
AcDbEntity
  8
SUNPO
 62
   144
100
AcDbTrace
 10
1551.339775776263
 20
1972.657765319065
 30
0.0
 11
1566.00644244293
 21
1972.657765319065
 31
0.0
 12
1558.673109109597
 22
2016.657765319065
 32
0.0
 13
1558.673109109597
 23
2016.657765319065
 33
0.0
  0
POINT
  5
1799
330
110B
100
AcDbEntity
  8
DEFPOINTS
 62
     0
100
AcDbPoint
 10
1346.047758883922
 20
2036.640426780912
 30
0.0
  0
POINT
  5
179A
330
110B
100
AcDbEntity
  8
DEFPOINTS
 62
     0
100
AcDbPoint
 10
1346.047758883922
 20
2016.657765319066
 30
0.0
  0
POINT
  5
179B
330
110B
100
AcDbEntity
  8
DEFPOINTS
 62
     0
100
AcDbPoint
 10
1558.673109109597
 20
2016.657765319065
 30
0.0
  0
ENDBLK
  5
1118
330
110B
100
AcDbEntity
  8
0
100
AcDbBlockEnd
  0
BLOCK
  5
1126
330
111A
100
AcDbEntity
  8
0
100
AcDbBlockBegin
  2
*D22
 70
     1
 10
0.0
 20
0.0
 30
0.0
  3
*D22
  1

  0
LINE
  5
1786
330
111A
100
AcDbEntity
  8
SUNPO
 62
   144
100
AcDbLine
 10
1346.047758883922
 20
2036.657765319066
 30
0.0
 11
1346.047758883922
 21
2162.334342684744
 31
0.0
  0
LINE
  5
1787
330
111A
100
AcDbEntity
  8
SUNPO
 62
   144
100
AcDbLine
 10
1366.047758883921
 20
2036.657765319066
 30
0.0
 11
1366.047758883921
 21
2162.334342684744
 31
0.0
  0
LINE
  5
1788
330
111A
100
AcDbEntity
  8
SUNPO
 62
   144
100
AcDbLine
 10
1302.047758883921
 20
2152.334342684744
 30
0.0
 11
1258.047758883922
 21
2152.334342684744
 31
0.0
  0
LINE
  5
1789
330
111A
100
AcDbEntity
  8
SUNPO
 62
   144
100
AcDbLine
 10
1410.047758883921
 20
2152.334342684744
 30
0.0
 11
1454.047758883922
 21
2152.334342684744
 31
0.0
  0
MTEXT
  5
178A
330
111A
100
AcDbEntity
  8
SUNPO
 62
     7
100
AcDbMText
 10
1420.953947326539
 20
2184.834342684744
 30
0.0
 40
40.0
 41
0.0
 71
     5
 72
     1
  1
\A2;20
  7
ADD
1001
ACAD
1000
MTEXTBEGIN
1070
    73
1070
     1
1070
    44
1040
1.0
1070
    74
1070
     0
1000
MTEXTEND
1000
MTEXTBEGIN
1070
    73
1070
     1
1070
    44
1040
1.0
1070
    74
1070
     0
1000
MTEXTEND
  0
LINE
  5
178B
330
111A
100
AcDbEntity
  8
SUNPO
 62
   144
100
AcDbLine
 10
1346.047758883922
 20
2152.334342684744
 30
0.0
 11
1366.047758883921
 21
2152.334342684744
 31
0.0
  0
SOLID
  5
178C
330
111A
100
AcDbEntity
  8
SUNPO
 62
   144
100
AcDbTrace
 10
1302.047758883921
 20
2159.667676018077
 30
0.0
 11
1302.047758883921
 21
2145.00100935141
 31
0.0
 12
1346.047758883922
 22
2152.334342684744
 32
0.0
 13
1346.047758883922
 23
2152.334342684744
 33
0.0
  0
SOLID
  5
178D
330
111A
100
AcDbEntity
  8
SUNPO
 62
   144
100
AcDbTrace
 10
1410.047758883921
 20
2159.667676018077
 30
0.0
 11
1410.047758883921
 21
2145.00100935141
 31
0.0
 12
1366.047758883921
 22
2152.334342684744
 32
0.0
 13
1366.047758883921
 23
2152.334342684744
 33
0.0
  0
POINT
  5
178E
330
111A
100
AcDbEntity
  8
DEFPOINTS
 62
     0
100
AcDbPoint
 10
1346.047758883922
 20
2016.657765319066
 30
0.0
  0
POINT
  5
178F
330
111A
100
AcDbEntity
  8
DEFPOINTS
 62
     0
100
AcDbPoint
 10
1366.047758883921
 20
2016.657765319066
 30
0.0
  0
POINT
  5
1790
330
111A
100
AcDbEntity
  8
DEFPOINTS
 62
     0
100
AcDbPoint
 10
1366.047758883921
 20
2152.334342684744
 30
0.0
  0
ENDBLK
  5
1127
330
111A
100
AcDbEntity
  8
0
100
AcDbBlockEnd
  0
BLOCK
  5
114C
330
1142
100
AcDbEntity
  8
0
100
AcDbBlockBegin
  2
*D23
 70
     1
 10
0.0
 20
0.0
 30
0.0
  3
*D23
  1

  0
LINE
  5
1746
330
1142
100
AcDbEntity
  8
SUNPO
 62
   144
100
AcDbLine
 10
547.2844382457878
 20
1896.657765319065
 30
0.0
 11
547.2844382457878
 21
1400.807728292304
 31
0.0
  0
LINE
  5
1747
330
1142
100
AcDbEntity
  8
SUNPO
 62
   144
100
AcDbLine
 10
727.2844382457878
 20
1896.657765319065
 30
0.0
 11
727.2844382457878
 21
1400.807728292304
 31
0.0
  0
LINE
  5
1748
330
1142
100
AcDbEntity
  8
SUNPO
 62
   144
100
AcDbLine
 10
591.2844382457879
 20
1410.807728292304
 30
0.0
 11
683.2844382457879
 21
1410.807728292304
 31
0.0
  0
SOLID
  5
1749
330
1142
100
AcDbEntity
  8
SUNPO
 62
   144
100
AcDbTrace
 10
591.2844382457879
 20
1418.141061625637
 30
0.0
 11
591.2844382457879
 21
1403.474394958971
 31
0.0
 12
547.2844382457878
 22
1410.807728292304
 32
0.0
 13
547.2844382457878
 23
1410.807728292304
 33
0.0
  0
SOLID
  5
174A
330
1142
100
AcDbEntity
  8
SUNPO
 62
   144
100
AcDbTrace
 10
683.2844382457879
 20
1418.141061625637
 30
0.0
 11
683.2844382457879
 21
1403.474394958971
 31
0.0
 12
727.2844382457878
 22
1410.807728292304
 32
0.0
 13
727.2844382457878
 23
1410.807728292304
 33
0.0
  0
MTEXT
  5
174B
330
1142
100
AcDbEntity
  8
SUNPO
 62
     7
100
AcDbMText
 10
637.2844382457879
 20
1443.307728292304
 30
0.0
 40
40.0
 41
0.0
 71
     5
 72
     1
  1
\A2;180
  7
ADD
1001
ACAD
1000
MTEXTBEGIN
1070
    73
1070
     1
1070
    44
1040
1.0
1070
    74
1070
     0
1000
MTEXTEND
1000
MTEXTBEGIN
1070
    73
1070
     1
1070
    44
1040
1.0
1070
    74
1070
     0
1000
MTEXTEND
  0
POINT
  5
174C
330
1142
100
AcDbEntity
  8
DEFPOINTS
 62
     0
100
AcDbPoint
 10
547.2844382457878
 20
1916.657765319065
 30
0.0
  0
POINT
  5
174D
330
1142
100
AcDbEntity
  8
DEFPOINTS
 62
     0
100
AcDbPoint
 10
727.2844382457878
 20
1916.657765319065
 30
0.0
  0
POINT
  5
174E
330
1142
100
AcDbEntity
  8
DEFPOINTS
 62
     0
100
AcDbPoint
 10
727.2844382457878
 20
1410.807728292304
 30
0.0
  0
ENDBLK
  5
114D
330
1142
100
AcDbEntity
  8
0
100
AcDbBlockEnd
  0
ENDSEC
  0
SECTION
  2
ENTITIES
  0
LINE
  5
60A
330
1F
100
AcDbEntity
  8
HOJO
100
AcDbLine
 10
360.0
 20
260.0
 30
0.0
 11
5580.0
 21
260.0
 31
0.0
  0
LINE
  5
60B
330
1F
100
AcDbEntity
  8
HOJO
100
AcDbLine
 10
360.0
 20
560.0
 30
0.0
 11
5580.0
 21
560.0
 31
0.0
  0
LINE
  5
60C
330
1F
100
AcDbEntity
  8
HOJO
100
AcDbLine
 10
360.0
 20
260.0
 30
0.0
 11
360.0
 21
560.0
 31
0.0
  0
LINE
  5
60D
330
1F
100
AcDbEntity
  8
HOJO
100
AcDbLine
 10
2360.0
 20
260.0
 30
0.0
 11
2360.0
 21
560.0
 31
0.0
  0
LINE
  5
60F
330
1F
100
AcDbEntity
  8
HOJO
100
AcDbLine
 10
3160.0
 20
260.0
 30
0.0
 11
3160.0
 21
560.0
 31
0.0
  0
LINE
  5
610
330
1F
100
AcDbEntity
  8
HOJO
100
AcDbLine
 10
3660.0
 20
260.0
 30
0.0
 11
3660.0
 21
560.0
 31
0.0
  0
LINE
  5
E71
330
1F
100
AcDbEntity
  8
3C1
100
AcDbLine
 10
1246.880369778165
 20
2616.657765319065
 30
0.0
 11
1246.880369778165
 21
1916.657765319065
 31
0.0
  0
LINE
  5
E72
330
1F
100
AcDbEntity
  8
3C1
100
AcDbLine
 10
1246.880369778165
 20
1916.657765319065
 30
0.0
 11
5396.880369778166
 21
1916.657765319065
 31
0.0
  0
LINE
  5
E73
330
1F
100
AcDbEntity
  8
3C1
100
AcDbLine
 10
5396.880369778166
 20
1916.657765319065
 30
0.0
 11
5396.880369778166
 21
2616.657765319065
 31
0.0
  0
LINE
  5
E74
330
1F
100
AcDbEntity
  8
3C1
100
AcDbLine
 10
1246.880369778165
 20
2616.657765319065
 30
0.0
 11
1321.880369778165
 21
2616.657765319065
 31
0.0
  0
LINE
  5
E75
330
1F
100
AcDbEntity
  8
3C1
100
AcDbLine
 10
5396.880369778166
 20
2616.657765319065
 30
0.0
 11
5321.880369778166
 21
2616.657765319065
 31
0.0
  0
LINE
  5
E77
330
1F
100
AcDbEntity
  8
3C1
100
AcDbLine
 10
1246.880369778165
 20
2016.657765319064
 30
0.0
 11
1286.828309030844
 21
2016.657765319064
 31
0.0
  0
LINE
  5
E79
330
1F
100
AcDbEntity
  8
3C1
100
AcDbLine
 10
1321.880369778165
 20
2616.657765319065
 30
0.0
 11
1346.047758883922
 21
2036.640426780912
 31
0.0
  0
LINE
  5
E7A
330
1F
100
AcDbEntity
  8
3C1
100
AcDbLine
 10
5321.880369778166
 20
2616.657765319065
 30
0.0
 11
5297.71298067241
 21
2036.640426780912
 31
0.0
  0
LINE
  5
E7D
330
1F
100
AcDbEntity
  8
3C1
100
AcDbLine
 10
1346.047758883922
 20
2036.640426780912
 30
0.0
 11
1366.880369778165
 21
2016.657765319066
 31
0.0
  0
LINE
  5
E7E
330
1F
100
AcDbEntity
  8
3C1
100
AcDbLine
 10
5276.880369778168
 20
2016.657765319066
 30
0.0
 11
5297.71298067241
 21
2036.640426780912
 31
0.0
  0
LINE
  5
E7F
330
1F
100
AcDbEntity
  8
3C1
100
AcDbLine
 10
1261.828309030844
 20
2616.657765319065
 30
0.0
 11
1286.828309030844
 21
2016.657765319064
 31
0.0
  0
LINE
  5
E80
330
1F
100
AcDbEntity
  8
3C1
100
AcDbLine
 10
5381.932430525487
 20
2616.657765319066
 30
0.0
 11
5356.932430525486
 21
2016.657765319065
 31
0.0
  0
LINE
  5
E81
330
1F
100
AcDbEntity
  8
3C1
100
AcDbLine
 10
1366.880369778165
 20
2016.657765319066
 30
0.0
 11
5276.880369778168
 21
2016.657765319066
 31
0.0
  0
LINE
  5
E82
330
1F
100
AcDbEntity
  8
3C1
100
AcDbLine
 10
5356.932430525486
 20
2016.657765319066
 30
0.0
 11
5396.880369778166
 21
2016.657765319066
 31
0.0
  0
LINE
  5
E86
330
1F
100
AcDbEntity
  8
SUNPO
100
AcDbLine
 10
705.9516972270594
 20
2559.344812225406
 30
0.0
 11
704.9516972270594
 21
2559.344812225406
 31
0.0
  0
LINE
  5
E87
330
1F
100
AcDbEntity
  8
SUNPO
100
AcDbLine
 10
705.9516972270593
 20
1859.302648786552
 30
0.0
 11
704.9516972270593
 21
1859.302648786552
 31
0.0
  0
LINE
  5
E89
330
1F
100
AcDbEntity
  8
3C1
100
AcDbLine
 10
727.2844382457878
 20
2616.657765319065
 30
0.0
 11
727.2844382457878
 21
1916.657765319065
 31
0.0
  0
LINE
  5
E8A
330
1F
100
AcDbEntity
  8
3C1
100
AcDbLine
 10
547.2844382457878
 20
2616.657765319065
 30
0.0
 11
547.2844382457878
 21
1916.657765319065
 31
0.0
  0
LINE
  5
E8B
330
1F
100
AcDbEntity
  8
3C1
100
AcDbLine
 10
547.2844382457878
 20
2616.657765319065
 30
0.0
 11
727.2844382457878
 21
2616.657765319065
 31
0.0
  0
LINE
  5
E8C
330
1F
100
AcDbEntity
  8
3C1
100
AcDbLine
 10
547.2844382457878
 20
1916.657765319065
 30
0.0
 11
727.2844382457878
 21
1916.657765319065
 31
0.0
  0
LINE
  5
E8D
330
1F
100
AcDbEntity
  8
3C1
100
AcDbLine
 10
547.2844382457878
 20
2016.657765319065
 30
0.0
 11
597.2844382457878
 21
2016.657765319065
 31
0.0
  0
LINE
  5
E8E
330
1F
100
AcDbEntity
  8
3C1
100
AcDbLine
 10
597.2844382457878
 20
2616.657765319065
 30
0.0
 11
597.2844382457878
 21
2016.657765319065
 31
0.0
  0
LINE
  5
E8F
330
1F
100
AcDbEntity
  8
3C1
100
AcDbLine
 10
677.2844382457878
 20
2616.657765319065
 30
0.0
 11
677.2844382457878
 21
2016.657765319065
 31
0.0
  0
LINE
  5
E90
330
1F
100
AcDbEntity
  8
3C1
100
AcDbLine
 10
602.2844382457878
 20
2616.657765319065
 30
0.0
 11
602.2844382457878
 21
2016.657765319065
 31
0.0
  0
LINE
  5
E91
330
1F
100
AcDbEntity
  8
3C1
100
AcDbLine
 10
672.2844382457878
 20
2616.657765319065
 30
0.0
 11
672.2844382457878
 21
2016.657765319065
 31
0.0
  0
LINE
  5
E93
330
1F
100
AcDbEntity
  8
3C1
100
AcDbLine
 10
677.2844382457878
 20
2016.657765319065
 30
0.0
 11
727.2844382457878
 21
2016.657765319065
 31
0.0
  0
LINE
  5
F12
330
1F
100
AcDbEntity
  8
3C1
100
AcDbLine
 10
5297.71298067241
 20
1990.909108274864
 30
0.0
 11
5297.71298067241
 21
1990.909108274864
 31
0.0
  0
LINE
  5
18F2
330
1F
100
AcDbEntity
  8
SUNPO
 62
   144
100
AcDbLine
 10
547.2844382457878
 20
1896.657765319065
 30
0.0
 11
547.2844382457878
 21
1400.807728292304
 31
0.0
  0
LINE
  5
18F3
330
1F
100
AcDbEntity
  8
SUNPO
 62
   144
100
AcDbLine
 10
727.2844382457878
 20
1896.657765319065
 30
0.0
 11
727.2844382457878
 21
1400.807728292304
 31
0.0
  0
LINE
  5
18F4
330
1F
100
AcDbEntity
  8
SUNPO
 62
   144
100
AcDbLine
 10
591.2844382457879
 20
1410.807728292304
 30
0.0
 11
683.2844382457879
 21
1410.807728292304
 31
0.0
  0
SOLID
  5
18F5
330
1F
100
AcDbEntity
  8
SUNPO
 62
   144
100
AcDbTrace
 10
591.2844382457879
 20
1418.141061625637
 30
0.0
 11
591.2844382457879
 21
1403.474394958971
 31
0.0
 12
547.2844382457878
 22
1410.807728292304
 32
0.0
 13
547.2844382457878
 23
1410.807728292304
 33
0.0
  0
SOLID
  5
18F6
330
1F
100
AcDbEntity
  8
SUNPO
 62
   144
100
AcDbTrace
 10
683.2844382457879
 20
1418.141061625637
 30
0.0
 11
683.2844382457879
 21
1403.474394958971
 31
0.0
 12
727.2844382457878
 22
1410.807728292304
 32
0.0
 13
727.2844382457878
 23
1410.807728292304
 33
0.0
  0
LINE
  5
18F8
330
1F
100
AcDbEntity
  8
SUNPO
 62
   144
100
AcDbLine
 10
1346.047758883922
 20
2036.657765319066
 30
0.0
 11
1346.047758883922
 21
2162.334342684744
 31
0.0
  0
LINE
  5
18F9
330
1F
100
AcDbEntity
  8
SUNPO
 62
   144
100
AcDbLine
 10
1366.047758883921
 20
2036.657765319066
 30
0.0
 11
1366.047758883921
 21
2162.334342684744
 31
0.0
  0
LINE
  5
18FA
330
1F
100
AcDbEntity
  8
SUNPO
 62
   144
100
AcDbLine
 10
1302.047758883921
 20
2152.334342684744
 30
0.0
 11
1258.047758883922
 21
2152.334342684744
 31
0.0
  0
LINE
  5
18FB
330
1F
100
AcDbEntity
  8
SUNPO
 62
   144
100
AcDbLine
 10
1410.047758883921
 20
2152.334342684744
 30
0.0
 11
1454.047758883922
 21
2152.334342684744
 31
0.0
  0
LINE
  5
18FD
330
1F
100
AcDbEntity
  8
SUNPO
 62
   144
100
AcDbLine
 10
1346.047758883922
 20
2152.334342684744
 30
0.0
 11
1366.047758883921
 21
2152.334342684744
 31
0.0
  0
SOLID
  5
18FE
330
1F
100
AcDbEntity
  8
SUNPO
 62
   144
100
AcDbTrace
 10
1302.047758883921
 20
2159.667676018077
 30
0.0
 11
1302.047758883921
 21
2145.00100935141
 31
0.0
 12
1346.047758883922
 22
2152.334342684744
 32
0.0
 13
1346.047758883922
 23
2152.334342684744
 33
0.0
  0
SOLID
  5
18FF
330
1F
100
AcDbEntity
  8
SUNPO
 62
   144
100
AcDbTrace
 10
1410.047758883921
 20
2159.667676018077
 30
0.0
 11
1410.047758883921
 21
2145.00100935141
 31
0.0
 12
1366.047758883921
 22
2152.334342684744
 32
0.0
 13
1366.047758883921
 23
2152.334342684744
 33
0.0
  0
LINE
  5
1900
330
1F
100
AcDbEntity
  8
SUNPO
 62
   144
100
AcDbLine
 10
1366.047758883921
 20
2036.640426780912
 30
0.0
 11
1568.673109109597
 21
2036.640426780912
 31
0.0
  0
LINE
  5
1901
330
1F
100
AcDbEntity
  8
SUNPO
 62
   144
100
AcDbLine
 10
1366.047758883921
 20
2016.657765319066
 30
0.0
 11
1568.673109109597
 21
2016.657765319065
 31
0.0
  0
LINE
  5
1902
330
1F
100
AcDbEntity
  8
SUNPO
 62
   144
100
AcDbLine
 10
1558.673109109597
 20
2080.640426780912
 30
0.0
 11
1558.673109109597
 21
2124.640426780912
 31
0.0
  0
LINE
  5
1903
330
1F
100
AcDbEntity
  8
SUNPO
 62
   144
100
AcDbLine
 10
1558.673109109597
 20
1972.657765319065
 30
0.0
 11
1558.673109109597
 21
1928.657765319066
 31
0.0
  0
LINE
  5
1905
330
1F
100
AcDbEntity
  8
SUNPO
 62
   144
100
AcDbLine
 10
1558.673109109597
 20
2036.640426780912
 30
0.0
 11
1558.673109109597
 21
2016.657765319065
 31
0.0
  0
SOLID
  5
1906
330
1F
100
AcDbEntity
  8
SUNPO
 62
   144
100
AcDbTrace
 10
1551.339775776263
 20
2080.640426780912
 30
0.0
 11
1566.00644244293
 21
2080.640426780912
 31
0.0
 12
1558.673109109597
 22
2036.640426780912
 32
0.0
 13
1558.673109109597
 23
2036.640426780912
 33
0.0
  0
SOLID
  5
1907
330
1F
100
AcDbEntity
  8
SUNPO
 62
   144
100
AcDbTrace
 10
1551.339775776263
 20
1972.657765319065
 30
0.0
 11
1566.00644244293
 21
1972.657765319065
 31
0.0
 12
1558.673109109597
 22
2016.657765319065
 32
0.0
 13
1558.673109109597
 23
2016.657765319065
 33
0.0
  0
LINE
  5
1908
330
1F
100
AcDbEntity
  8
SUNPO
 62
   144
100
AcDbLine
 10
5296.880369778166
 20
1896.657765319065
 30
0.0
 11
5296.880369778166
 21
1638.732746805684
 31
0.0
  0
LINE
  5
1909
330
1F
100
AcDbEntity
  8
SUNPO
 62
   144
100
AcDbLine
 10
5396.880369778166
 20
1896.657765319065
 30
0.0
 11
5396.880369778166
 21
1638.732746805684
 31
0.0
  0
LINE
  5
190A
330
1F
100
AcDbEntity
  8
SUNPO
 62
   144
100
AcDbLine
 10
5326.880369778166
 20
1648.732746805685
 30
0.0
 11
5366.880369778166
 21
1648.732746805685
 31
0.0
  0
SOLID
  5
190C
330
1F
100
AcDbEntity
  8
SUNPO
 62
   144
100
AcDbTrace
 10
5326.880369778166
 20
1653.732746805684
 30
0.0
 11
5326.880369778166
 21
1643.732746805684
 31
0.0
 12
5296.880369778166
 22
1648.732746805685
 32
0.0
 13
5296.880369778166
 23
1648.732746805685
 33
0.0
  0
SOLID
  5
190D
330
1F
100
AcDbEntity
  8
SUNPO
 62
   144
100
AcDbTrace
 10
5366.880369778166
 20
1653.732746805684
 30
0.0
 11
5366.880369778166
 21
1643.732746805684
 31
0.0
 12
5396.880369778166
 22
1648.732746805685
 32
0.0
 13
5396.880369778166
 23
1648.732746805685
 33
0.0
  0
LINE
  5
190E
330
1F
100
AcDbEntity
  8
SUNPO
 62
   144
100
AcDbLine
 10
1346.880369778165
 20
1896.657765319065
 30
0.0
 11
1346.880369778165
 21
1638.732746805684
 31
0.0
  0
LINE
  5
190F
330
1F
100
AcDbEntity
  8
SUNPO
 62
   144
100
AcDbLine
 10
5296.880369778166
 20
1896.657765319065
 30
0.0
 11
5296.880369778166
 21
1638.732746805684
 31
0.0
  0
LINE
  5
1910
330
1F
100
AcDbEntity
  8
SUNPO
 62
   144
100
AcDbLine
 10
1390.880369778165
 20
1648.732746805685
 30
0.0
 11
5252.880369778166
 21
1648.732746805685
 31
0.0
  0
SOLID
  5
1911
330
1F
100
AcDbEntity
  8
SUNPO
 62
   144
100
AcDbTrace
 10
1390.880369778165
 20
1656.066080139018
 30
0.0
 11
1390.880369778165
 21
1641.399413472351
 31
0.0
 12
1346.880369778165
 22
1648.732746805685
 32
0.0
 13
1346.880369778165
 23
1648.732746805685
 33
0.0
  0
SOLID
  5
1912
330
1F
100
AcDbEntity
  8
SUNPO
 62
   144
100
AcDbTrace
 10
5252.880369778166
 20
1656.066080139018
 30
0.0
 11
5252.880369778166
 21
1641.399413472351
 31
0.0
 12
5296.880369778166
 22
1648.732746805685
 32
0.0
 13
5296.880369778166
 23
1648.732746805685
 33
0.0
  0
LINE
  5
1914
330
1F
100
AcDbEntity
  8
SUNPO
 62
   144
100
AcDbLine
 10
1246.880369778165
 20
1896.657765319065
 30
0.0
 11
1246.880369778165
 21
1638.732746805684
 31
0.0
  0
LINE
  5
1915
330
1F
100
AcDbEntity
  8
SUNPO
 62
   144
100
AcDbLine
 10
1346.880369778165
 20
1896.657765319065
 30
0.0
 11
1346.880369778165
 21
1638.732746805684
 31
0.0
  0
LINE
  5
1916
330
1F
100
AcDbEntity
  8
SUNPO
 62
   144
100
AcDbLine
 10
1276.880369778165
 20
1648.732746805685
 30
0.0
 11
1316.880369778165
 21
1648.732746805685
 31
0.0
  0
SOLID
  5
1918
330
1F
100
AcDbEntity
  8
SUNPO
 62
   144
100
AcDbTrace
 10
1276.880369778165
 20
1653.732746805684
 30
0.0
 11
1276.880369778165
 21
1643.732746805684
 31
0.0
 12
1246.880369778165
 22
1648.732746805685
 32
0.0
 13
1246.880369778165
 23
1648.732746805685
 33
0.0
  0
SOLID
  5
1919
330
1F
100
AcDbEntity
  8
SUNPO
 62
   144
100
AcDbTrace
 10
1316.880369778165
 20
1653.732746805684
 30
0.0
 11
1316.880369778165
 21
1643.732746805684
 31
0.0
 12
1346.880369778165
 22
1648.732746805685
 32
0.0
 13
1346.880369778165
 23
1648.732746805685
 33
0.0
  0
LINE
  5
191A
330
1F
100
AcDbEntity
  8
SUNPO
 62
   144
100
AcDbLine
 10
1246.880369778165
 20
1896.657765319065
 30
0.0
 11
1246.880369778165
 21
1400.807728292304
 31
0.0
  0
LINE
  5
191B
330
1F
100
AcDbEntity
  8
SUNPO
 62
   144
100
AcDbLine
 10
5396.880369778166
 20
1896.657765319065
 30
0.0
 11
5396.880369778166
 21
1400.807728292304
 31
0.0
  0
LINE
  5
191C
330
1F
100
AcDbEntity
  8
SUNPO
 62
   144
100
AcDbLine
 10
1290.880369778165
 20
1410.807728292304
 30
0.0
 11
5352.880369778166
 21
1410.807728292304
 31
0.0
  0
SOLID
  5
191D
330
1F
100
AcDbEntity
  8
SUNPO
 62
   144
100
AcDbTrace
 10
1290.880369778165
 20
1418.141061625637
 30
0.0
 11
1290.880369778165
 21
1403.474394958971
 31
0.0
 12
1246.880369778165
 22
1410.807728292304
 32
0.0
 13
1246.880369778165
 23
1410.807728292304
 33
0.0
  0
SOLID
  5
191E
330
1F
100
AcDbEntity
  8
SUNPO
 62
   144
100
AcDbTrace
 10
5352.880369778166
 20
1418.141061625637
 30
0.0
 11
5352.880369778166
 21
1403.474394958971
 31
0.0
 12
5396.880369778166
 22
1410.807728292304
 32
0.0
 13
5396.880369778166
 23
1410.807728292304
 33
0.0
  0
TEXT
  5
1920
330
1F
100
AcDbEntity
  8
SUNPO
100
AcDbText
 10
2445.638814694684
 20
384.184634397292
 30
0.0
 40
50.0
  1
600×4000
  7
ADD
100
AcDbText
1001
ACAD
1000
MTEXTBEGIN
1070
    73
1070
     1
1070
    44
1040
1.0
1070
    74
1070
     0
1000
MTEXTEND
  0
TEXT
  5
1921
330
1F
100
AcDbEntity
  8
SUNPO
100
AcDbText
 10
716.3449809950885
 20
365.4236157718478
 30
0.0
 40
50.0
  1
B型柵渠　杭
  7
ADD
100
AcDbText
1001
ACAD
1000
MTEXTBEGIN
1070
    73
1070
     1
1070
    44
1040
1.0
1070
    74
1070
     0
1000
MTEXTEND
  0
LINE
  5
1922
330
1F
100
AcDbEntity
  8
SUNPO
 62
   144
100
AcDbLine
 10
672.2844382457878
 20
2636.657765319065
 30
0.0
 11
672.2844382457878
 21
2795.129573934556
 31
0.0
  0
LINE
  5
1923
330
1F
100
AcDbEntity
  8
SUNPO
 62
   144
100
AcDbLine
 10
677.2844382457878
 20
2636.657765319065
 30
0.0
 11
677.2844382457878
 21
2795.129573934556
 31
0.0
  0
LINE
  5
1924
330
1F
100
AcDbEntity
  8
SUNPO
 62
   144
100
AcDbLine
 10
628.2844382457879
 20
2785.129573934557
 30
0.0
 11
584.2844382457879
 21
2785.129573934557
 31
0.0
  0
LINE
  5
1925
330
1F
100
AcDbEntity
  8
SUNPO
 62
   144
100
AcDbLine
 10
721.2844382457879
 20
2785.129573934557
 30
0.0
 11
765.2844382457878
 21
2785.129573934557
 31
0.0
  0
LINE
  5
1926
330
1F
100
AcDbEntity
  8
SUNPO
 62
   144
100
AcDbLine
 10
672.2844382457878
 20
2785.129573934557
 30
0.0
 11
677.2844382457878
 21
2785.129573934557
 31
0.0
  0
SOLID
  5
1927
330
1F
100
AcDbEntity
  8
SUNPO
 62
   144
100
AcDbTrace
 10
628.2844382457879
 20
2792.46290726789
 30
0.0
 11
628.2844382457879
 21
2777.796240601223
 31
0.0
 12
672.2844382457878
 22
2785.129573934557
 32
0.0
 13
672.2844382457878
 23
2785.129573934557
 33
0.0
  0
SOLID
  5
1928
330
1F
100
AcDbEntity
  8
SUNPO
 62
   144
100
AcDbTrace
 10
721.2844382457879
 20
2792.46290726789
 30
0.0
 11
721.2844382457879
 21
2777.796240601223
 31
0.0
 12
677.2844382457878
 22
2785.129573934557
 32
0.0
 13
677.2844382457878
 23
2785.129573934557
 33
0.0
  0
LINE
  5
192A
330
1F
100
AcDbEntity
  8
SUNPO
 62
   144
100
AcDbLine
 10
597.2844382457878
 20
2636.657765319065
 30
0.0
 11
597.2844382457878
 21
2795.129573934556
 31
0.0
  0
LINE
  5
192B
330
1F
100
AcDbEntity
  8
SUNPO
 62
   144
100
AcDbLine
 10
602.2844382457878
 20
2636.657765319065
 30
0.0
 11
602.2844382457878
 21
2795.129573934556
 31
0.0
  0
LINE
  5
192C
330
1F
100
AcDbEntity
  8
SUNPO
 62
   144
100
AcDbLine
 10
553.2844382457879
 20
2785.129573934557
 30
0.0
 11
509.2844382457879
 21
2785.129573934557
 31
0.0
  0
LINE
  5
192D
330
1F
100
AcDbEntity
  8
SUNPO
 62
   144
100
AcDbLine
 10
646.2844382457879
 20
2785.129573934557
 30
0.0
 11
690.2844382457878
 21
2785.129573934557
 31
0.0
  0
LINE
  5
192E
330
1F
100
AcDbEntity
  8
SUNPO
 62
   144
100
AcDbLine
 10
597.2844382457878
 20
2785.129573934557
 30
0.0
 11
602.2844382457878
 21
2785.129573934557
 31
0.0
  0
SOLID
  5
192F
330
1F
100
AcDbEntity
  8
SUNPO
 62
   144
100
AcDbTrace
 10
553.2844382457879
 20
2792.46290726789
 30
0.0
 11
553.2844382457879
 21
2777.796240601223
 31
0.0
 12
597.2844382457878
 22
2785.129573934557
 32
0.0
 13
597.2844382457878
 23
2785.129573934557
 33
0.0
  0
SOLID
  5
1930
330
1F
100
AcDbEntity
  8
SUNPO
 62
   144
100
AcDbTrace
 10
646.2844382457879
 20
2792.46290726789
 30
0.0
 11
646.2844382457879
 21
2777.796240601223
 31
0.0
 12
602.2844382457878
 22
2785.129573934557
 32
0.0
 13
602.2844382457878
 23
2785.129573934557
 33
0.0
  0
LINE
  5
1932
330
1F
100
AcDbEntity
  8
SUNPO
 62
   144
100
AcDbLine
 10
602.2844382457878
 20
2636.657765319065
 30
0.0
 11
602.2844382457878
 21
2957.61619864781
 31
0.0
  0
LINE
  5
1933
330
1F
100
AcDbEntity
  8
SUNPO
 62
   144
100
AcDbLine
 10
672.2844382457878
 20
2636.657765319065
 30
0.0
 11
672.2844382457878
 21
2957.61619864781
 31
0.0
  0
LINE
  5
1934
330
1F
100
AcDbEntity
  8
SUNPO
 62
   144
100
AcDbLine
 10
558.2844382457879
 20
2947.616198647811
 30
0.0
 11
514.2844382457878
 21
2947.616198647811
 31
0.0
  0
LINE
  5
1935
330
1F
100
AcDbEntity
  8
SUNPO
 62
   144
100
AcDbLine
 10
716.2844382457879
 20
2947.616198647811
 30
0.0
 11
760.2844382457878
 21
2947.616198647811
 31
0.0
  0
LINE
  5
1936
330
1F
100
AcDbEntity
  8
SUNPO
 62
   144
100
AcDbLine
 10
602.2844382457878
 20
2947.616198647811
 30
0.0
 11
672.2844382457878
 21
2947.616198647811
 31
0.0
  0
SOLID
  5
1937
330
1F
100
AcDbEntity
  8
SUNPO
 62
   144
100
AcDbTrace
 10
558.2844382457879
 20
2954.949531981144
 30
0.0
 11
558.2844382457879
 21
2940.282865314477
 31
0.0
 12
602.2844382457878
 22
2947.616198647811
 32
0.0
 13
602.2844382457878
 23
2947.616198647811
 33
0.0
  0
SOLID
  5
1938
330
1F
100
AcDbEntity
  8
SUNPO
 62
   144
100
AcDbTrace
 10
716.2844382457879
 20
2954.949531981144
 30
0.0
 11
716.2844382457879
 21
2940.282865314477
 31
0.0
 12
672.2844382457878
 22
2947.616198647811
 32
0.0
 13
672.2844382457878
 23
2947.616198647811
 33
0.0
  0
LINE
  5
193A
330
1F
100
AcDbEntity
  8
SUNPO
 62
   144
100
AcDbLine
 10
727.2844382457878
 20
2636.657765319065
 30
0.0
 11
727.2844382457878
 21
2957.61619864781
 31
0.0
  0
LINE
  5
193B
330
1F
100
AcDbEntity
  8
SUNPO
 62
   144
100
AcDbLine
 10
677.2844382457878
 20
2636.657765319065
 30
0.0
 11
677.2844382457878
 21
2957.61619864781
 31
0.0
  0
LINE
  5
193C
330
1F
100
AcDbEntity
  8
SUNPO
 62
   144
100
AcDbLine
 10
771.2844382457879
 20
2947.616198647811
 30
0.0
 11
815.2844382457878
 21
2947.616198647811
 31
0.0
  0
LINE
  5
193D
330
1F
100
AcDbEntity
  8
SUNPO
 62
   144
100
AcDbLine
 10
633.2844382457879
 20
2947.616198647811
 30
0.0
 11
589.2844382457878
 21
2947.616198647811
 31
0.0
  0
LINE
  5
193F
330
1F
100
AcDbEntity
  8
SUNPO
 62
   144
100
AcDbLine
 10
727.2844382457878
 20
2947.616198647811
 30
0.0
 11
677.2844382457878
 21
2947.616198647811
 31
0.0
  0
SOLID
  5
1940
330
1F
100
AcDbEntity
  8
SUNPO
 62
   144
100
AcDbTrace
 10
771.2844382457879
 20
2954.949531981144
 30
0.0
 11
771.2844382457879
 21
2940.282865314477
 31
0.0
 12
727.2844382457878
 22
2947.616198647811
 32
0.0
 13
727.2844382457878
 23
2947.616198647811
 33
0.0
  0
SOLID
  5
1941
330
1F
100
AcDbEntity
  8
SUNPO
 62
   144
100
AcDbTrace
 10
633.2844382457879
 20
2954.949531981144
 30
0.0
 11
633.2844382457879
 21
2940.282865314477
 31
0.0
 12
677.2844382457878
 22
2947.616198647811
 32
0.0
 13
677.2844382457878
 23
2947.616198647811
 33
0.0
  0
LINE
  5
1942
330
1F
100
AcDbEntity
  8
SUNPO
 62
   144
100
AcDbLine
 10
547.2844382457878
 20
2636.657765319065
 30
0.0
 11
547.2844382457878
 21
2957.61619864781
 31
0.0
  0
LINE
  5
1943
330
1F
100
AcDbEntity
  8
SUNPO
 62
   144
100
AcDbLine
 10
597.2844382457878
 20
2636.657765319065
 30
0.0
 11
597.2844382457878
 21
2957.61619864781
 31
0.0
  0
LINE
  5
1944
330
1F
100
AcDbEntity
  8
SUNPO
 62
   144
100
AcDbLine
 10
503.2844382457879
 20
2947.616198647811
 30
0.0
 11
459.2844382457879
 21
2947.616198647811
 31
0.0
  0
LINE
  5
1945
330
1F
100
AcDbEntity
  8
SUNPO
 62
   144
100
AcDbLine
 10
641.2844382457879
 20
2947.616198647811
 30
0.0
 11
685.2844382457878
 21
2947.616198647811
 31
0.0
  0
LINE
  5
1947
330
1F
100
AcDbEntity
  8
SUNPO
 62
   144
100
AcDbLine
 10
547.2844382457878
 20
2947.616198647811
 30
0.0
 11
597.2844382457878
 21
2947.616198647811
 31
0.0
  0
SOLID
  5
1948
330
1F
100
AcDbEntity
  8
SUNPO
 62
   144
100
AcDbTrace
 10
503.2844382457879
 20
2954.949531981144
 30
0.0
 11
503.2844382457879
 21
2940.282865314477
 31
0.0
 12
547.2844382457878
 22
2947.616198647811
 32
0.0
 13
547.2844382457878
 23
2947.616198647811
 33
0.0
  0
SOLID
  5
1949
330
1F
100
AcDbEntity
  8
SUNPO
 62
   144
100
AcDbTrace
 10
641.2844382457879
 20
2954.949531981144
 30
0.0
 11
641.2844382457879
 21
2940.282865314477
 31
0.0
 12
597.2844382457878
 22
2947.616198647811
 32
0.0
 13
597.2844382457878
 23
2947.616198647811
 33
0.0
  0
LINE
  5
194A
330
1F
100
AcDbEntity
  8
SUNPO
 62
   144
100
AcDbLine
 10
1226.880369778165
 20
2016.657765319064
 30
0.0
 11
1060.713911128295
 21
2016.657765319064
 31
0.0
  0
LINE
  5
194B
330
1F
100
AcDbEntity
  8
SUNPO
 62
   144
100
AcDbLine
 10
1226.880369778165
 20
1916.657765319065
 30
0.0
 11
1060.713911128295
 21
1916.657765319065
 31
0.0
  0
LINE
  5
194C
330
1F
100
AcDbEntity
  8
SUNPO
 62
   144
100
AcDbLine
 10
1070.713911128295
 20
1986.657765319065
 30
0.0
 11
1070.713911128295
 21
1946.657765319065
 31
0.0
  0
SOLID
  5
194E
330
1F
100
AcDbEntity
  8
SUNPO
 62
   144
100
AcDbTrace
 10
1065.713911128295
 20
1986.657765319065
 30
0.0
 11
1075.713911128295
 21
1986.657765319065
 31
0.0
 12
1070.713911128295
 22
2016.657765319064
 32
0.0
 13
1070.713911128295
 23
2016.657765319064
 33
0.0
  0
SOLID
  5
194F
330
1F
100
AcDbEntity
  8
SUNPO
 62
   144
100
AcDbTrace
 10
1065.713911128295
 20
1946.657765319065
 30
0.0
 11
1075.713911128295
 21
1946.657765319065
 31
0.0
 12
1070.713911128295
 22
1916.657765319065
 32
0.0
 13
1070.713911128295
 23
1916.657765319065
 33
0.0
  0
LINE
  5
1950
330
1F
100
AcDbEntity
  8
SUNPO
 62
   144
100
AcDbLine
 10
1226.880369778165
 20
2616.657765319065
 30
0.0
 11
1060.713911128295
 21
2616.657765319065
 31
0.0
  0
LINE
  5
1951
330
1F
100
AcDbEntity
  8
SUNPO
 62
   144
100
AcDbLine
 10
1226.880369778165
 20
2016.657765319064
 30
0.0
 11
1060.713911128295
 21
2016.657765319064
 31
0.0
  0
LINE
  5
1952
330
1F
100
AcDbEntity
  8
SUNPO
 62
   144
100
AcDbLine
 10
1070.713911128295
 20
2572.657765319065
 30
0.0
 11
1070.713911128295
 21
2060.657765319064
 31
0.0
  0
SOLID
  5
1953
330
1F
100
AcDbEntity
  8
SUNPO
 62
   144
100
AcDbTrace
 10
1063.380577794962
 20
2572.657765319065
 30
0.0
 11
1078.047244461629
 21
2572.657765319065
 31
0.0
 12
1070.713911128295
 22
2616.657765319065
 32
0.0
 13
1070.713911128295
 23
2616.657765319065
 33
0.0
  0
SOLID
  5
1954
330
1F
100
AcDbEntity
  8
SUNPO
 62
   144
100
AcDbTrace
 10
1063.380577794962
 20
2060.657765319064
 30
0.0
 11
1078.047244461629
 21
2060.657765319064
 31
0.0
 12
1070.713911128295
 22
2016.657765319064
 32
0.0
 13
1070.713911128295
 23
2016.657765319064
 33
0.0
  0
LINE
  5
1956
330
1F
100
AcDbEntity
  8
SUNPO
 62
   144
100
AcDbLine
 10
1226.880369778165
 20
1916.657765319065
 30
0.0
 11
868.1719402827509
 21
1916.657765319065
 31
0.0
  0
LINE
  5
1957
330
1F
100
AcDbEntity
  8
SUNPO
 62
   144
100
AcDbLine
 10
1226.880369778165
 20
2616.657765319065
 30
0.0
 11
868.1719402827509
 21
2616.657765319065
 31
0.0
  0
LINE
  5
1958
330
1F
100
AcDbEntity
  8
SUNPO
 62
   144
100
AcDbLine
 10
878.1719402827508
 20
1960.657765319065
 30
0.0
 11
878.1719402827508
 21
2572.657765319065
 31
0.0
  0
SOLID
  5
1959
330
1F
100
AcDbEntity
  8
SUNPO
 62
   144
100
AcDbTrace
 10
870.8386069494174
 20
1960.657765319065
 30
0.0
 11
885.5052736160841
 21
1960.657765319065
 31
0.0
 12
878.1719402827508
 22
1916.657765319065
 32
0.0
 13
878.1719402827508
 23
1916.657765319065
 33
0.0
  0
SOLID
  5
195A
330
1F
100
AcDbEntity
  8
SUNPO
 62
   144
100
AcDbTrace
 10
870.8386069494176
 20
2572.657765319065
 30
0.0
 11
885.5052736160843
 21
2572.657765319065
 31
0.0
 12
878.1719402827508
 22
2616.657765319065
 32
0.0
 13
878.1719402827508
 23
2616.657765319065
 33
0.0
  0
LINE
  5
195C
330
1F
100
AcDbEntity
  8
SUNPO
 62
   144
100
AcDbLine
 10
5321.880369778166
 20
2636.657765319065
 30
0.0
 11
5321.880369778166
 21
2792.264995605992
 31
0.0
  0
LINE
  5
195D
330
1F
100
AcDbEntity
  8
SUNPO
 62
   144
100
AcDbLine
 10
5381.828354163706
 20
2634.159932636334
 30
0.0
 11
5381.828354163706
 21
2792.264995605992
 31
0.0
  0
LINE
  5
195E
330
1F
100
AcDbEntity
  8
SUNPO
 62
   144
100
AcDbLine
 10
5277.880369778166
 20
2782.264995605992
 30
0.0
 11
5233.880369778166
 21
2782.264995605992
 31
0.0
  0
LINE
  5
195F
330
1F
100
AcDbEntity
  8
SUNPO
 62
   144
100
AcDbLine
 10
5425.828354163707
 20
2782.264995605992
 30
0.0
 11
5469.828354163706
 21
2782.264995605992
 31
0.0
  0
LINE
  5
1960
330
1F
100
AcDbEntity
  8
SUNPO
 62
   144
100
AcDbLine
 10
5321.880369778166
 20
2782.264995605992
 30
0.0
 11
5381.828354163706
 21
2782.264995605992
 31
0.0
  0
SOLID
  5
1961
330
1F
100
AcDbEntity
  8
SUNPO
 62
   144
100
AcDbTrace
 10
5277.880369778166
 20
2789.598328939325
 30
0.0
 11
5277.880369778166
 21
2774.931662272658
 31
0.0
 12
5321.880369778166
 22
2782.264995605992
 32
0.0
 13
5321.880369778166
 23
2782.264995605992
 33
0.0
  0
SOLID
  5
1962
330
1F
100
AcDbEntity
  8
SUNPO
 62
   144
100
AcDbTrace
 10
5425.828354163707
 20
2789.598328939325
 30
0.0
 11
5425.828354163707
 21
2774.931662272658
 31
0.0
 12
5381.828354163706
 22
2782.264995605992
 32
0.0
 13
5381.828354163706
 23
2782.264995605992
 33
0.0
  0
LINE
  5
1964
330
1F
100
AcDbEntity
  8
SUNPO
 62
   144
100
AcDbLine
 10
1321.880369778165
 20
2636.657765319065
 30
0.0
 11
1321.880369778165
 21
2792.264995605992
 31
0.0
  0
LINE
  5
1965
330
1F
100
AcDbEntity
  8
SUNPO
 62
   144
100
AcDbLine
 10
1261.932385392624
 20
2634.159932636334
 30
0.0
 11
1261.932385392624
 21
2792.264995605992
 31
0.0
  0
LINE
  5
1966
330
1F
100
AcDbEntity
  8
SUNPO
 62
   144
100
AcDbLine
 10
1365.880369778165
 20
2782.264995605992
 30
0.0
 11
1409.880369778165
 21
2782.264995605992
 31
0.0
  0
LINE
  5
1967
330
1F
100
AcDbEntity
  8
SUNPO
 62
   144
100
AcDbLine
 10
1217.932385392624
 20
2782.264995605992
 30
0.0
 11
1173.932385392624
 21
2782.264995605992
 31
0.0
  0
LINE
  5
1968
330
1F
100
AcDbEntity
  8
SUNPO
 62
   144
100
AcDbLine
 10
1321.880369778165
 20
2782.264995605992
 30
0.0
 11
1261.932385392624
 21
2782.264995605992
 31
0.0
  0
SOLID
  5
1969
330
1F
100
AcDbEntity
  8
SUNPO
 62
   144
100
AcDbTrace
 10
1365.880369778165
 20
2789.598328939325
 30
0.0
 11
1365.880369778165
 21
2774.931662272658
 31
0.0
 12
1321.880369778165
 22
2782.264995605992
 32
0.0
 13
1321.880369778165
 23
2782.264995605992
 33
0.0
  0
SOLID
  5
196A
330
1F
100
AcDbEntity
  8
SUNPO
 62
   144
100
AcDbTrace
 10
1217.932385392624
 20
2789.598328939325
 30
0.0
 11
1217.932385392624
 21
2774.931662272658
 31
0.0
 12
1261.932385392624
 22
2782.264995605992
 32
0.0
 13
1261.932385392624
 23
2782.264995605992
 33
0.0
  0
LINE
  5
196C
330
1F
100
AcDbEntity
  8
SUNPO
 62
   144
100
AcDbLine
 10
5321.880369778166
 20
2636.657765319065
 30
0.0
 11
5321.880369778166
 21
2957.61619864781
 31
0.0
  0
LINE
  5
196D
330
1F
100
AcDbEntity
  8
SUNPO
 62
   144
100
AcDbLine
 10
5396.880369778166
 20
2636.657765319065
 30
0.0
 11
5396.880369778166
 21
2957.61619864781
 31
0.0
  0
LINE
  5
196E
330
1F
100
AcDbEntity
  8
SUNPO
 62
   144
100
AcDbLine
 10
5277.880369778166
 20
2947.616198647811
 30
0.0
 11
5233.880369778166
 21
2947.616198647811
 31
0.0
  0
LINE
  5
196F
330
1F
100
AcDbEntity
  8
SUNPO
 62
   144
100
AcDbLine
 10
5440.880369778166
 20
2947.616198647811
 30
0.0
 11
5484.880369778166
 21
2947.616198647811
 31
0.0
  0
LINE
  5
1971
330
1F
100
AcDbEntity
  8
SUNPO
 62
   144
100
AcDbLine
 10
5321.880369778166
 20
2947.616198647811
 30
0.0
 11
5396.880369778166
 21
2947.616198647811
 31
0.0
  0
SOLID
  5
1972
330
1F
100
AcDbEntity
  8
SUNPO
 62
   144
100
AcDbTrace
 10
5277.880369778166
 20
2954.949531981144
 30
0.0
 11
5277.880369778166
 21
2940.282865314477
 31
0.0
 12
5321.880369778166
 22
2947.616198647811
 32
0.0
 13
5321.880369778166
 23
2947.616198647811
 33
0.0
  0
SOLID
  5
1973
330
1F
100
AcDbEntity
  8
SUNPO
 62
   144
100
AcDbTrace
 10
5440.880369778166
 20
2954.949531981144
 30
0.0
 11
5440.880369778166
 21
2940.282865314477
 31
0.0
 12
5396.880369778166
 22
2947.616198647811
 32
0.0
 13
5396.880369778166
 23
2947.616198647811
 33
0.0
  0
LINE
  5
1974
330
1F
100
AcDbEntity
  8
SUNPO
 62
   144
100
AcDbLine
 10
1321.880369778165
 20
2636.657765319065
 30
0.0
 11
1321.880369778165
 21
2957.61619864781
 31
0.0
  0
LINE
  5
1975
330
1F
100
AcDbEntity
  8
SUNPO
 62
   144
100
AcDbLine
 10
5321.880369778166
 20
2636.657765319065
 30
0.0
 11
5321.880369778166
 21
2957.61619864781
 31
0.0
  0
LINE
  5
1976
330
1F
100
AcDbEntity
  8
SUNPO
 62
   144
100
AcDbLine
 10
1365.880369778165
 20
2947.616198647811
 30
0.0
 11
5277.880369778166
 21
2947.616198647811
 31
0.0
  0
SOLID
  5
1977
330
1F
100
AcDbEntity
  8
SUNPO
 62
   144
100
AcDbTrace
 10
1365.880369778165
 20
2954.949531981144
 30
0.0
 11
1365.880369778165
 21
2940.282865314477
 31
0.0
 12
1321.880369778165
 22
2947.616198647811
 32
0.0
 13
1321.880369778165
 23
2947.616198647811
 33
0.0
  0
SOLID
  5
1978
330
1F
100
AcDbEntity
  8
SUNPO
 62
   144
100
AcDbTrace
 10
5277.880369778166
 20
2954.949531981144
 30
0.0
 11
5277.880369778166
 21
2940.282865314477
 31
0.0
 12
5321.880369778166
 22
2947.616198647811
 32
0.0
 13
5321.880369778166
 23
2947.616198647811
 33
0.0
  0
LINE
  5
197A
330
1F
100
AcDbEntity
  8
SUNPO
 62
   144
100
AcDbLine
 10
1246.880369778165
 20
2636.657765319065
 30
0.0
 11
1246.880369778165
 21
2957.61619864781
 31
0.0
  0
LINE
  5
197B
330
1F
100
AcDbEntity
  8
SUNPO
 62
   144
100
AcDbLine
 10
1321.880369778165
 20
2636.657765319065
 30
0.0
 11
1321.880369778165
 21
2957.61619864781
 31
0.0
  0
LINE
  5
197C
330
1F
100
AcDbEntity
  8
SUNPO
 62
   144
100
AcDbLine
 10
1202.880369778165
 20
2947.616198647811
 30
0.0
 11
1158.880369778165
 21
2947.616198647811
 31
0.0
  0
LINE
  5
197D
330
1F
100
AcDbEntity
  8
SUNPO
 62
   144
100
AcDbLine
 10
1365.880369778165
 20
2947.616198647811
 30
0.0
 11
1409.880369778165
 21
2947.616198647811
 31
0.0
  0
LINE
  5
197F
330
1F
100
AcDbEntity
  8
SUNPO
 62
   144
100
AcDbLine
 10
1246.880369778165
 20
2947.616198647811
 30
0.0
 11
1321.880369778165
 21
2947.616198647811
 31
0.0
  0
SOLID
  5
1980
330
1F
100
AcDbEntity
  8
SUNPO
 62
   144
100
AcDbTrace
 10
1202.880369778165
 20
2954.949531981144
 30
0.0
 11
1202.880369778165
 21
2940.282865314477
 31
0.0
 12
1246.880369778165
 22
2947.616198647811
 32
0.0
 13
1246.880369778165
 23
2947.616198647811
 33
0.0
  0
SOLID
  5
1981
330
1F
100
AcDbEntity
  8
SUNPO
 62
   144
100
AcDbTrace
 10
1365.880369778165
 20
2954.949531981144
 30
0.0
 11
1365.880369778165
 21
2940.282865314477
 31
0.0
 12
1321.880369778165
 22
2947.616198647811
 32
0.0
 13
1321.880369778165
 23
2947.616198647811
 33
0.0
  0
TEXT
  5
1982
330
1F
100
AcDbEntity
  8
SUNPO
100
AcDbText
 10
3246.680311730542
 20
359.2274732162223
 30
0.0
 40
70.0
  1
１／２０
  7
ADD
100
AcDbText
1001
ACAD
1000
MTEXTBEGIN
1070
    73
1070
     1
1070
    44
1040
1.0
1070
    74
1070
     0
1000
MTEXTEND
  0
TEXT
  5
1983
330
1F
100
AcDbEntity
  8
SUNPO
100
AcDbText
 10
381.8862574011546
 20
488.6918916770627
 30
0.0
 40
50.0
  1
製品名
  7
ADD
100
AcDbText
1001
ACAD
1000
MTEXTBEGIN
1070
    73
1070
     1
1070
    44
1040
1.0
1070
    74
1070
     0
1000
MTEXTEND
  0
TEXT
  5
1984
330
1F
100
AcDbEntity
  8
SUNPO
100
AcDbText
 10
2376.290169028722
 20
494.4531736811823
 30
0.0
 40
50.0
  1
型式
  7
ADD
100
AcDbText
1001
ACAD
1000
MTEXTBEGIN
1070
    73
1070
     1
1070
    44
1040
1.0
1070
    74
1070
     0
1000
MTEXTEND
  0
TEXT
  5
1985
330
1F
100
AcDbEntity
  8
SUNPO
100
AcDbText
 10
3177.510249231658
 20
488.6918916770627
 30
0.0
 40
50.0
  1
縮尺
  7
ADD
100
AcDbText
1001
ACAD
1000
MTEXTBEGIN
1070
    73
1070
     1
1070
    44
1040
1.0
1070
    74
1070
     0
1000
MTEXTEND
  0
TEXT
  5
1986
330
1F
100
AcDbEntity
  8
SUNPO
100
AcDbText
 10
3730.870883051572
 20
352.2726133092145
 30
0.0
 40
100.0
  1
千葉県コンクリート製品協同組合
  7
ADD
100
AcDbText
1001
ACAD
1000
MTEXTBEGIN
1070
    73
1070
     1
1070
    44
1040
1.0
1070
    74
1070
     0
1000
MTEXTEND
  0
LINE
  5
1987
330
1F
100
AcDbEntity
  8
HOJO
100
AcDbLine
 10
360.0
 20
260.0
 30
0.0
 11
5580.0
 21
260.0
 31
0.0
  0
LINE
  5
1988
330
1F
100
AcDbEntity
  8
HOJO
100
AcDbLine
 10
5580.0
 20
260.0
 30
0.0
 11
5580.0
 21
3940.0
 31
0.0
  0
LINE
  5
1989
330
1F
100
AcDbEntity
  8
HOJO
100
AcDbLine
 10
5580.0
 20
3940.0
 30
0.0
 11
360.0
 21
3940.0
 31
0.0
  0
LINE
  5
198A
330
1F
100
AcDbEntity
  8
HOJO
100
AcDbLine
 10
360.0
 20
3940.0
 30
0.0
 11
360.0
 21
260.0
 31
0.0
  0
LINE
  5
198B
330
1F
100
AcDbEntity
  8
HOJO
100
AcDbLine
 10
0.0
 20
0.0
 30
0.0
 11
5940.0
 21
0.0
 31
0.0
  0
LINE
  5
198C
330
1F
100
AcDbEntity
  8
HOJO
100
AcDbLine
 10
5940.0
 20
0.0
 30
0.0
 11
5940.0
 21
4200.0
 31
0.0
  0
LINE
  5
198D
330
1F
100
AcDbEntity
  8
HOJO
100
AcDbLine
 10
5940.0
 20
4200.0
 30
0.0
 11
0.0
 21
4200.0
 31
0.0
  0
LINE
  5
198E
330
1F
100
AcDbEntity
  8
HOJO
100
AcDbLine
 10
0.0
 20
4200.0
 30
0.0
 11
0.0
 21
0.0
 31
0.0
  0
TEXT
  5
198F
330
1F
100
AcDbEntity
  8
SUNPO
 62
     7
100
AcDbText
 10
1134.494794418036
 20
2964.520443761808
 30
0.0
 40
50.0
  1
75
  7
ADD
100
AcDbText
1001
ACAD
1000
MTEXTBEGIN
1070
    73
1070
     1
1070
    44
1040
1.0
1070
    74
1070
     0
1000
MTEXTEND
  0
TEXT
  5
1990
330
1F
100
AcDbEntity
  8
SUNPO
 62
     7
100
AcDbText
 10
3226.64227454007
 20
2960.116198647811
 30
0.0
 40
50.0
  1
4000
  7
ADD
100
AcDbText
1001
ACAD
1000
MTEXTBEGIN
1070
    73
1070
     1
1070
    44
1040
1.0
1070
    74
1070
     0
1000
MTEXTEND
  0
TEXT
  5
1991
330
1F
100
AcDbEntity
  8
SUNPO
 62
     7
100
AcDbText
 10
5410.778797146211
 20
2961.561915583623
 30
0.0
 40
50.0
  1
75
  7
ADD
100
AcDbText
1001
ACAD
1000
MTEXTBEGIN
1070
    73
1070
     1
1070
    44
1040
1.0
1070
    74
1070
     0
1000
MTEXTEND
  0
TEXT
  5
1992
330
1F
100
AcDbEntity
  8
SUNPO
 62
     7
100
AcDbText
 10
1243.096853775871
 20
2794.764995605992
 30
0.0
 40
50.0
  1
60
  7
ADD
100
AcDbText
1001
ACAD
1000
MTEXTBEGIN
1070
    73
1070
     1
1070
    44
1040
1.0
1070
    74
1070
     0
1000
MTEXTEND
  0
TEXT
  5
1993
330
1F
100
AcDbEntity
  8
SUNPO
 62
     7
100
AcDbText
 10
5303.044838161412
 20
2794.764995605992
 30
0.0
 40
50.0
  1
60
  7
ADD
100
AcDbText
1001
ACAD
1000
MTEXTBEGIN
1070
    73
1070
     1
1070
    44
1040
1.0
1070
    74
1070
     0
1000
MTEXTEND
  0
TEXT
  5
1994
330
1F
100
AcDbEntity
  8
SUNPO
 62
     7
100
AcDbText
 10
865.6719402827505
 20
2195.229193890494
 30
0.0
 40
50.0
  1
700
 50
90.0
  7
ADD
100
AcDbText
1001
ACAD
1000
MTEXTBEGIN
1070
    73
1070
     1
1070
    44
1040
1.0
1070
    74
1070
     0
1000
MTEXTEND
  0
TEXT
  5
1995
330
1F
100
AcDbEntity
  8
SUNPO
 62
     7
100
AcDbText
 10
1058.213911128295
 20
2244.038717700017
 30
0.0
 40
50.0
  1
600
 50
90.0
  7
ADD
100
AcDbText
1001
ACAD
1000
MTEXTBEGIN
1070
    73
1070
     1
1070
    44
1040
1.0
1070
    74
1070
     0
1000
MTEXTEND
  0
TEXT
  5
1996
330
1F
100
AcDbEntity
  8
SUNPO
 62
     7
100
AcDbText
 10
1054.705546839584
 20
1876.951762938806
 30
0.0
 40
50.0
  1
100
 50
90.0
  7
ADD
100
AcDbText
1001
ACAD
1000
MTEXTBEGIN
1070
    73
1070
     1
1070
    44
1040
1.0
1070
    74
1070
     0
1000
MTEXTEND
  0
TEXT
  5
1997
330
1F
100
AcDbEntity
  8
SUNPO
 62
     7
100
AcDbText
 10
438.0924212927949
 20
2962.086481232296
 30
0.0
 40
50.0
  1
50
  7
ADD
100
AcDbText
1001
ACAD
1000
MTEXTBEGIN
1070
    73
1070
     1
1070
    44
1040
1.0
1070
    74
1070
     0
1000
MTEXTEND
  0
TEXT
  5
1998
330
1F
100
AcDbEntity
  8
SUNPO
 62
     7
100
AcDbText
 10
737.5698898667597
 20
2957.900651204676
 30
0.0
 40
50.0
  1
50
  7
ADD
100
AcDbText
1001
ACAD
1000
MTEXTBEGIN
1070
    73
1070
     1
1070
    44
1040
1.0
1070
    74
1070
     0
1000
MTEXTEND
  0
TEXT
  5
1999
330
1F
100
AcDbEntity
  8
SUNPO
 62
     7
100
AcDbText
 10
589.6653906267403
 20
2960.116198647811
 30
0.0
 40
50.0
  1
70
  7
ADD
100
AcDbText
1001
ACAD
1000
MTEXTBEGIN
1070
    73
1070
     1
1070
    44
1040
1.0
1070
    74
1070
     0
1000
MTEXTEND
  0
TEXT
  5
199A
330
1F
100
AcDbEntity
  8
SUNPO
 62
     7
100
AcDbText
 10
575.9749144362642
 20
2797.629573934557
 30
0.0
 40
50.0
  1
5
  7
ADD
100
AcDbText
1001
ACAD
1000
MTEXTBEGIN
1070
    73
1070
     1
1070
    44
1040
1.0
1070
    74
1070
     0
1000
MTEXTEND
  0
TEXT
  5
199B
330
1F
100
AcDbEntity
  8
SUNPO
 62
     7
100
AcDbText
 10
650.9749144362642
 20
2797.629573934557
 30
0.0
 40
50.0
  1
5
  7
ADD
100
AcDbText
1001
ACAD
1000
MTEXTBEGIN
1070
    73
1070
     1
1070
    44
1040
1.0
1070
    74
1070
     0
1000
MTEXTEND
  0
TEXT
  5
199C
330
1F
100
AcDbEntity
  8
SUNPO
 62
     7
100
AcDbText
 10
3245.68989358769
 20
1423.307728292304
 30
0.0
 40
40.0
  1
4150
  7
ADD
100
AcDbText
1001
ACAD
1000
MTEXTBEGIN
1070
    73
1070
     1
1070
    44
1040
1.0
1070
    74
1070
     0
1000
MTEXTEND
  0
TEXT
  5
199D
330
1F
100
AcDbEntity
  8
SUNPO
 62
     7
100
AcDbText
 10
1236.880369778165
 20
1661.232746805685
 30
0.0
 40
40.0
  1
100
  7
ADD
100
AcDbText
1001
ACAD
1000
MTEXTBEGIN
1070
    73
1070
     1
1070
    44
1040
1.0
1070
    74
1070
     0
1000
MTEXTEND
  0
TEXT
  5
199E
330
1F
100
AcDbEntity
  8
SUNPO
 62
     7
100
AcDbText
 10
3245.68989358769
 20
1661.232746805685
 30
0.0
 40
40.0
  1
3950
  7
ADD
100
AcDbText
1001
ACAD
1000
MTEXTBEGIN
1070
    73
1070
     1
1070
    44
1040
1.0
1070
    74
1070
     0
1000
MTEXTEND
  0
TEXT
  5
199F
330
1F
100
AcDbEntity
  8
SUNPO
 62
     7
100
AcDbText
 10
5286.880369778166
 20
1668.732746805685
 30
0.0
 40
40.0
  1
100
  7
ADD
100
AcDbText
1001
ACAD
1000
MTEXTBEGIN
1070
    73
1070
     1
1070
    44
1040
1.0
1070
    74
1070
     0
1000
MTEXTEND
  0
TEXT
  5
19A0
330
1F
100
AcDbEntity
  8
SUNPO
 62
     7
100
AcDbText
 10
1546.173109109596
 20
2052.070688291109
 30
0.0
 40
40.0
  1
20
 50
90.0
  7
ADD
100
AcDbText
1001
ACAD
1000
MTEXTBEGIN
1070
    73
1070
     1
1070
    44
1040
1.0
1070
    74
1070
     0
1000
MTEXTEND
  0
TEXT
  5
19A1
330
1F
100
AcDbEntity
  8
SUNPO
 62
     7
100
AcDbText
 10
1382.858709231301
 20
2164.834342684744
 30
0.0
 40
40.0
  1
20
  7
ADD
100
AcDbText
1001
ACAD
1000
MTEXTBEGIN
1070
    73
1070
     1
1070
    44
1040
1.0
1070
    74
1070
     0
1000
MTEXTEND
  0
TEXT
  5
19A2
330
1F
100
AcDbEntity
  8
SUNPO
 62
     7
100
AcDbText
 10
577.2844382457878
 20
1423.307728292304
 30
0.0
 40
40.0
  1
180
  7
ADD
100
AcDbText
1001
ACAD
1000
MTEXTBEGIN
1070
    73
1070
     1
1070
    44
1040
1.0
1070
    74
1070
     0
1000
MTEXTEND
  0
VIEWPORT
  5
72
330
1B
100
AcDbEntity
 67
     1
  8
0
100
AcDbViewport
 10
429.8380103383459
 20
277.0
 30
0.0
 40
948.9782706766918
 41
628.4520000000001
 68
     1
 69
     1
1001
ACAD
1000
MVIEW
1002
{
1070
    16
1010
0.0
1020
0.0
1030
0.0
1010
0.0
1020
0.0
1030
1.0
1040
0.0
1040
628.4520000000001
1040
429.8380103383459
1040
277.0
1040
50.0
1040
0.0
1040
0.0
1070
     0
1070
   100
1070
     1
1070
     1
1070
     0
1070
     0
1070
     0
1070
     0
1040
0.0
1040
0.0
1040
0.0
1040
10.0
1040
10.0
1040
10.0
1040
10.0
1070
     0
1002
{
1002
}
1002
}
  0
VIEWPORT
  5
74
330
1B
100
AcDbEntity
 67
     1
  8
VIEWPORT
100
AcDbViewport
 10
414.3779638919211
 20
277.3177265058034
 30
0.0
 40
840.0353682728887
 41
567.2285469943826
 68
     2
 69
     2
1001
ACAD
1000
MVIEW
1002
{
1070
    16
1010
0.0
1020
0.0
1030
0.0
1010
0.0
1020
0.0
1030
1.0
1040
0.0
1040
579.5583043546323
1040
424.4938908624541
1040
286.1973242720074
1040
50.0
1040
0.0
1040
0.0
1070
     0
1070
   100
1070
     1
1070
     1
1070
     0
1070
     0
1070
     0
1070
     0
1040
0.0
1040
0.0
1040
0.0
1040
10.0
1040
10.0
1040
10.0
1040
10.0
1070
     0
1002
{
1002
}
1002
}
  0
ENDSEC
  0
SECTION
  2
OBJECTS
  0
DICTIONARY
  5
C
330
0
100
AcDbDictionary
  3
ACAD_GROUP
350
D
  3
ACAD_LAYOUT
350
1A
  3
ACAD_MLINESTYLE
350
17
  3
ACAD_PLOTSETTINGS
350
19
  3
DWGPROPS
350
4C7
1001
ACAD
1000
TREAT_AS_HARD
1070
     0
  0
DICTIONARY
  5
1875
330
1F
100
AcDbDictionary
  3
ACAD_LAYOUTSELFREF
350
19A5
1001
ACAD
1000
TREAT_AS_HARD
1070
     1
  0
DICTIONARY
  5
1877
330
1B
100
AcDbDictionary
  3
ACAD_LAYOUTSELFREF
350
19A4
1001
ACAD
1000
TREAT_AS_HARD
1070
     1
  0
DICTIONARY
  5
D
102
{ACAD_REACTORS
330
C
102
}
330
C
100
AcDbDictionary
1001
ACAD
1000
TREAT_AS_HARD
1070
     0
  0
DICTIONARY
  5
1A
102
{ACAD_REACTORS
330
C
102
}
330
C
100
AcDbDictionary
1001
ACAD
1000
TREAT_AS_HARD
1070
     0
  0
DICTIONARY
  5
17
102
{ACAD_REACTORS
330
C
102
}
330
C
100
AcDbDictionary
  3
STANDARD
350
18
1001
ACAD
1000
TREAT_AS_HARD
1070
     0
  0
DICTIONARY
  5
19
102
{ACAD_REACTORS
330
C
102
}
330
C
100
AcDbDictionary
1001
ACAD
1000
TREAT_AS_HARD
1070
     0
  0
XRECORD
  5
4C7
102
{ACAD_REACTORS
330
C
102
}
330
C
100
AcDbXrecord
  1
DWGPROPS COOKIE
  2
印刷用テスト
  3
AutoCAD2000による建築設計
  4
鈴木 裕二
  6

  7

  8
U2
  9

300
=
301
=
302
=
303
=
304
=
305
=
306
=
307
=
308
=
309
=
 40
0.7653446875
 41
2451285.4846114
 42
2451333.689743032
  1

 90
        0
  0
XRECORD
  5
19A5
102
{ACAD_REACTORS
330
1875
102
}
330
1875
100
AcDbXrecord
340
1F
  0
XRECORD
  5
19A4
102
{ACAD_REACTORS
330
1877
102
}
330
1877
100
AcDbXrecord
340
1B
  0
MLINESTYLE
  5
18
102
{ACAD_REACTORS
330
17
102
}
330
17
100
AcDbMlineStyle
  2
STANDARD
 70
     0
  3

 62
   256
 51
90.0
 52
90.0
 71
     2
 49
0.5
 62
   256
  6
BYLAYER
 49
-0.5
 62
   256
  6
BYLAYER
  0
ENDSEC
  0
EOF
