  0
SECTION
  2
HEADER
  9
$ACADVER
  1
AC1012
  9
$DWGCODEPAGE
  3
dos932
  9
$INSBASE
 10
0.0
 20
0.0
 30
0.0
  9
$EXTMIN
 10
0.0
 20
0.0
 30
0.0
  9
$EXTMAX
 10
5940.0
 20
4200.0
 30
0.0
  9
$LIMMIN
 10
0.0
 20
0.0
  9
$LIMMAX
 10
5940.0
 20
4200.0
  9
$ORTHOMODE
 70
     0
  9
$REGENMODE
 70
     1
  9
$FILLMODE
 70
     1
  9
$QTEXTMODE
 70
     0
  9
$MIRRTEXT
 70
     0
  9
$DRAGMODE
 70
     2
  9
$LTSCALE
 40
10.0
  9
$OSMODE
 70
    37
  9
$ATTMODE
 70
     1
  9
$TEXTSIZE
 40
50.0
  9
$TRACEWID
 40
1.0
  9
$TEXTSTYLE
  7
ADD
  9
$CLAYER
  8
SUNPO
  9
$CELTYPE
  6
BYLAYER
  9
$CECOLOR
 62
   256
  9
$CELTSCALE
 40
1.0
  9
$DELOBJ
 70
     1
  9
$DISPSILH
 70
     0
  9
$DIMSCALE
 40
20.0
  9
$DIMASZ
 40
2.5
  9
$DIMEXO
 40
1.0
  9
$DIMDLI
 40
7.0
  9
$DIMRND
 40
0.0
  9
$DIMDLE
 40
0.0
  9
$DIMEXE
 40
0.5
  9
$DIMTP
 40
0.0
  9
$DIMTM
 40
0.0
  9
$DIMTXT
 40
2.0
  9
$DIMCEN
 40
2.5
  9
$DIMTSZ
 40
0.0
  9
$DIMTOL
 70
     0
  9
$DIMLIM
 70
     0
  9
$DIMTIH
 70
     0
  9
$DIMTOH
 70
     0
  9
$DIMSE1
 70
     0
  9
$DIMSE2
 70
     0
  9
$DIMTAD
 70
     1
  9
$DIMZIN
 70
     8
  9
$DIMBLK
  1

  9
$DIMASO
 70
     1
  9
$DIMSHO
 70
     1
  9
$DIMPOST
  1

  9
$DIMAPOST
  1

  9
$DIMALT
 70
     0
  9
$DIMALTD
 70
     3
  9
$DIMALTF
 40
0.03937007874016
  9
$DIMLFAC
 40
1.0
  9
$DIMTOFL
 70
     1
  9
$DIMTVP
 40
0.7
  9
$DIMTIX
 70
     1
  9
$DIMSOXD
 70
     0
  9
$DIMSAH
 70
     0
  9
$DIMBLK1
  1

  9
$DIMBLK2
  1

  9
$DIMSTYLE
  2
ADD
  9
$DIMCLRD
 70
   144
  9
$DIMCLRE
 70
   144
  9
$DIMCLRT
 70
     7
  9
$DIMTFAC
 40
1.0
  9
$DIMGAP
 40
0.625
  9
$DIMJUST
 70
     0
  9
$DIMSD1
 70
     0
  9
$DIMSD2
 70
     0
  9
$DIMTOLJ
 70
     2
  9
$DIMTZIN
 70
     8
  9
$DIMALTZ
 70
     0
  9
$DIMALTTZ
 70
     0
  9
$DIMFIT
 70
     5
  9
$DIMUPT
 70
     0
  9
$DIMUNIT
 70
     2
  9
$DIMDEC
 70
     1
  9
$DIMTDEC
 70
     1
  9
$DIMALTU
 70
     2
  9
$DIMALTTD
 70
     3
  9
$DIMTXSTY
  7
ADD
  9
$DIMAUNIT
 70
     0
  9
$LUNITS
 70
     2
  9
$LUPREC
 70
     4
  9
$SKETCHINC
 40
1.0
  9
$FILLETRAD
 40
0.0
  9
$AUNITS
 70
     0
  9
$AUPREC
 70
     1
  9
$MENU
  1
.
  9
$ELEVATION
 40
0.0
  9
$PELEVATION
 40
0.0
  9
$THICKNESS
 40
0.0
  9
$LIMCHECK
 70
     0
  9
$BLIPMODE
 70
     0
  9
$CHAMFERA
 40
20.0
  9
$CHAMFERB
 40
20.0
  9
$CHAMFERC
 40
20.0
  9
$CHAMFERD
 40
0.0
  9
$SKPOLY
 70
     0
  9
$TDCREATE
 40
2451801.142532870
  9
$TDUPDATE
 40
2451865.570691400
  9
$TDINDWG
 40
0.1932351736
  9
$TDUSRTIMER
 40
0.1932351736
  9
$USRTIMER
 70
     1
  9
$ANGBASE
 50
0.0
  9
$ANGDIR
 70
     0
  9
$PDMODE
 70
     0
  9
$PDSIZE
 40
0.0
  9
$PLINEWID
 40
0.0
  9
$COORDS
 70
     2
  9
$SPLFRAME
 70
     0
  9
$SPLINETYPE
 70
     6
  9
$SPLINESEGS
 70
     8
  9
$ATTDIA
 70
     0
  9
$ATTREQ
 70
     1
  9
$HANDLING
 70
 10241
  9
$HANDSEED
  5
131E
  9
$SURFTAB1
 70
     6
  9
$SURFTAB2
 70
     6
  9
$SURFTYPE
 70
     6
  9
$SURFU
 70
     6
  9
$SURFV
 70
     6
  9
$UCSNAME
  2

  9
$UCSORG
 10
0.0
 20
0.0
 30
0.0
  9
$UCSXDIR
 10
1.0
 20
0.0
 30
0.0
  9
$UCSYDIR
 10
0.0
 20
1.0
 30
0.0
  9
$PUCSNAME
  2

  9
$PUCSORG
 10
0.0
 20
0.0
 30
0.0
  9
$PUCSXDIR
 10
1.0
 20
0.0
 30
0.0
  9
$PUCSYDIR
 10
0.0
 20
1.0
 30
0.0
  9
$USERI1
 70
     0
  9
$USERI2
 70
     0
  9
$USERI3
 70
     0
  9
$USERI4
 70
     0
  9
$USERI5
 70
     0
  9
$USERR1
 40
841.0
  9
$USERR2
 40
594.0
  9
$USERR3
 40
1.0
  9
$USERR4
 40
0.0
  9
$USERR5
 40
0.0
  9
$WORLDVIEW
 70
     1
  9
$SHADEDGE
 70
     3
  9
$SHADEDIF
 70
    70
  9
$TILEMODE
 70
     1
  9
$MAXACTVP
 70
    48
  9
$PINSBASE
 10
0.0
 20
0.0
 30
0.0
  9
$PLIMCHECK
 70
     0
  9
$PEXTMIN
 10
-5.662975978526674
 20
-6.331907780761866
 30
-0.0015258207003583
  9
$PEXTMAX
 10
834.4213426047982
 20
560.9663709967471
 30
0.0000000349246037
  9
$PLIMMIN
 10
-7.500000000000001
 20
-20.0
  9
$PLIMMAX
 10
833.5000000000002
 20
574.0000000000001
  9
$UNITMODE
 70
     0
  9
$VISRETAIN
 70
     1
  9
$PLINEGEN
 70
     0
  9
$PSLTSCALE
 70
     1
  9
$TREEDEPTH
 70
  3020
  9
$PICKSTYLE
 70
     1
  9
$CMLSTYLE
  2
STANDARD
  9
$CMLJUST
 70
     0
  9
$CMLSCALE
 40
20.0
  9
$SAVEIMAGES
 70
     1
  0
ENDSEC
  0
SECTION
  2
CLASSES
  0
CLASS
  1
ACDBDICTIONARYWDFLT
  2
AcDbDictionaryWithDefault
  3
AutoCAD 2000
 90
    32768
280
     0
281
     0
  0
CLASS
  1
ACDBPLACEHOLDER
  2
AcDbPlaceHolder
  3
AutoCAD 2000
 90
    32768
280
     0
281
     0
  0
CLASS
  1
LAYOUT
  2
AcDbLayout
  3
AutoCAD 2000
 90
    32768
280
     0
281
     0
  0
CLASS
  1
RTEXT
  2
RText
  3
RText|AutoCAD Express Tool|expresstools@autodesk.com
 90
    32768
280
     0
281
     1
  0
CLASS
  1
DICTIONARYVAR
  2
AcDbDictionaryVar
  3
AutoCAD 2000
 90
    32768
280
     0
281
     0
  0
CLASS
  1
LONG_TRANSACTION
  2
AcDbLongTransaction
  3
AutoCAD 2000
 90
    32768
280
     0
281
     0
  0
CLASS
  1
LWPOLYLINE
  2
AcDbPolyline
  3
AutoCAD 2000
 90
    32768
280
     0
281
     1
  0
CLASS
  1
HATCH
  2
AcDbHatch
  3
AutoCAD 2000
 90
    32768
280
     0
281
     1
  0
CLASS
  1
XRECORD
  2
AcDbXrecord
  3
AutoCAD 2000
 90
    32768
280
     0
281
     0
  0
CLASS
  1
LONG_TRANSACTION
  2
AcDbLongTransaction
  3
AutoCAD 2000
 90
    32768
280
     0
281
     0
  0
CLASS
  1
LWPOLYLINE
  2
AcDbPolyline
  3
AutoCAD 2000
 90
    32768
280
     0
281
     1
  0
CLASS
  1
HATCH
  2
AcDbHatch
  3
AutoCAD 2000
 90
    32768
280
     0
281
     1
  0
CLASS
  1
XRECORD
  2
AcDbXrecord
  3
AutoCAD 2000
 90
    32768
280
     0
281
     0
  0
ENDSEC
  0
SECTION
  2
TABLES
  0
TABLE
  2
VPORT
  5
8
330
0
100
AcDbSymbolTable
 70
     2
  0
VPORT
  5
130E
330
8
100
AcDbSymbolTableRecord
100
AcDbViewportTableRecord
  2
*ACTIVE
 70
     0
 10
0.0
 20
0.0
 11
1.0
 21
1.0
 12
2970.000055323513
 22
2587.993913014541
 13
0.0
 23
0.0
 14
5.0
 24
5.0
 15
10.0
 25
10.0
 16
0.0
 26
0.0
 36
1.0
 17
0.0
 27
0.0
 37
0.0
 40
5228.44312801272
 41
1.461638491547464
 42
50.0
 43
0.0
 44
0.0
 50
0.0
 51
0.0
 71
     0
 72
   100
 73
     1
 74
     1
 75
     0
 76
     0
 77
     0
 78
     0
  0
ENDTAB
  0
TABLE
  2
LTYPE
  5
5
330
0
100
AcDbSymbolTable
 70
     5
  0
LTYPE
  5
14
330
5
100
AcDbSymbolTableRecord
100
AcDbLinetypeTableRecord
  2
BYBLOCK
 70
     0
  3

 72
    65
 73
     0
 40
0.0
  0
LTYPE
  5
15
330
5
100
AcDbSymbolTableRecord
100
AcDbLinetypeTableRecord
  2
BYLAYER
 70
     0
  3

 72
    65
 73
     0
 40
0.0
  0
LTYPE
  5
16
330
5
100
AcDbSymbolTableRecord
100
AcDbLinetypeTableRecord
  2
CONTINUOUS
 70
     0
  3
Solid line
 72
    65
 73
     0
 40
0.0
  0
LTYPE
  5
555
330
5
100
AcDbSymbolTableRecord
100
AcDbLinetypeTableRecord
  2
CENTER
 70
     0
  3
Center ____ _ ____ _ ____ _ ____ _ ____ _ ____
 72
    65
 73
     4
 40
50.8
 49
31.75
 74
     0
 49
-6.349999999999999
 74
     0
 49
6.349999999999999
 74
     0
 49
-6.349999999999999
 74
     0
  0
LTYPE
  5
556
330
5
100
AcDbSymbolTableRecord
100
AcDbLinetypeTableRecord
  2
HIDDEN
 70
     0
  3
Hidden __ __ __ __ __ __ __ __ __ __ __ __ __ _
 72
    65
 73
     2
 40
9.524999999999998
 49
6.349999999999999
 74
     0
 49
-3.174999999999999
 74
     0
  0
LTYPE
  5
557
330
5
100
AcDbSymbolTableRecord
100
AcDbLinetypeTableRecord
  2
HIDDEN2
 70
     0
  3
Hidden (.5x) _ _ _ _ _ _ _ _ _ _ _ _ _ _ _ _ _
 72
    65
 73
     2
 40
4.762499999999999
 49
3.174999999999999
 74
     0
 49
-1.587499999999999
 74
     0
  0
LTYPE
  5
558
330
5
100
AcDbSymbolTableRecord
100
AcDbLinetypeTableRecord
  2
PHANTOM
 70
     0
  3
Phantom ______  __  __  ______  __  __  ______
 72
    65
 73
     6
 40
63.5
 49
31.75
 74
     0
 49
-6.349999999999999
 74
     0
 49
6.349999999999999
 74
     0
 49
-6.349999999999999
 74
     0
 49
6.349999999999999
 74
     0
 49
-6.349999999999999
 74
     0
  0
ENDTAB
  0
TABLE
  2
LAYER
  5
2
330
0
100
AcDbSymbolTable
 70
    22
  0
LAYER
  5
10
330
2
100
AcDbSymbolTableRecord
100
AcDbLayerTableRecord
  2
0
 70
     0
 62
     7
  6
CONTINUOUS
  0
LAYER
  5
75
330
2
100
AcDbSymbolTableRecord
100
AcDbLayerTableRecord
  2
VIEWPORT
 70
     0
 62
     1
  6
CONTINUOUS
  0
LAYER
  5
504
330
2
100
AcDbSymbolTableRecord
100
AcDbLayerTableRecord
  2
DEFPOINTS
 70
     0
 62
     7
  6
CONTINUOUS
  0
LAYER
  5
505
330
2
100
AcDbSymbolTableRecord
100
AcDbLayerTableRecord
  2
1C1
 70
     0
 62
   254
  6
CONTINUOUS
  0
LAYER
  5
506
330
2
100
AcDbSymbolTableRecord
100
AcDbLayerTableRecord
  2
1C2
 70
     0
 62
   254
  6
CONTINUOUS
  0
LAYER
  5
507
330
2
100
AcDbSymbolTableRecord
100
AcDbLayerTableRecord
  2
2C1
 70
     0
 62
   144
  6
CONTINUOUS
  0
LAYER
  5
508
330
2
100
AcDbSymbolTableRecord
100
AcDbLayerTableRecord
  2
2C2
 70
     0
 62
   144
  6
CONTINUOUS
  0
LAYER
  5
509
330
2
100
AcDbSymbolTableRecord
100
AcDbLayerTableRecord
  2
2H1
 70
     0
 62
   144
  6
HIDDEN
  0
LAYER
  5
50A
330
2
100
AcDbSymbolTableRecord
100
AcDbLayerTableRecord
  2
2H2
 70
     0
 62
   144
  6
HIDDEN2
  0
LAYER
  5
50B
330
2
100
AcDbSymbolTableRecord
100
AcDbLayerTableRecord
  2
2P1
 70
     0
 62
   144
  6
PHANTOM
  0
LAYER
  5
50C
330
2
100
AcDbSymbolTableRecord
100
AcDbLayerTableRecord
  2
3C1
 70
     0
 62
     7
  6
CONTINUOUS
  0
LAYER
  5
50D
330
2
100
AcDbSymbolTableRecord
100
AcDbLayerTableRecord
  2
3C2
 70
     0
 62
     7
  6
CONTINUOUS
  0
LAYER
  5
50E
330
2
100
AcDbSymbolTableRecord
100
AcDbLayerTableRecord
  2
3C3
 70
     0
 62
     7
  6
CONTINUOUS
  0
LAYER
  5
50F
330
2
100
AcDbSymbolTableRecord
100
AcDbLayerTableRecord
  2
4H1
 70
     0
 62
     6
  6
HIDDEN
  0
LAYER
  5
510
330
2
100
AcDbSymbolTableRecord
100
AcDbLayerTableRecord
  2
4H2
 70
     0
 62
     6
  6
HIDDEN2
  0
LAYER
  5
511
330
2
100
AcDbSymbolTableRecord
100
AcDbLayerTableRecord
  2
5C1
 70
     0
 62
    55
  6
CONTINUOUS
  0
LAYER
  5
512
330
2
100
AcDbSymbolTableRecord
100
AcDbLayerTableRecord
  2
5C2
 70
     0
 62
    55
  6
CONTINUOUS
  0
LAYER
  5
513
330
2
100
AcDbSymbolTableRecord
100
AcDbLayerTableRecord
  2
8C1
 70
     0
 62
    92
  6
CONTINUOUS
  0
LAYER
  5
514
330
2
100
AcDbSymbolTableRecord
100
AcDbLayerTableRecord
  2
HOJO
 70
     0
 62
     5
  6
CONTINUOUS
  0
LAYER
  5
515
330
2
100
AcDbSymbolTableRecord
100
AcDbLayerTableRecord
  2
KIJUN
 70
     0
 62
     1
  6
CENTER
  0
LAYER
  5
516
330
2
100
AcDbSymbolTableRecord
100
AcDbLayerTableRecord
  2
MOJI
 70
     0
 62
     7
  6
CONTINUOUS
  0
LAYER
  5
517
330
2
100
AcDbSymbolTableRecord
100
AcDbLayerTableRecord
  2
SUNPO
 70
     0
 62
   144
  6
CONTINUOUS
  0
ENDTAB
  0
TABLE
  2
STYLE
  5
3
330
0
100
AcDbSymbolTable
 70
     6
  0
STYLE
  5
11
330
3
100
AcDbSymbolTableRecord
100
AcDbTextStyleTableRecord
  2
STANDARD
 70
     0
 40
0.0
 41
1.0
 50
0.0
 71
     0
 42
2.5
  3
txt
  4

  0
STYLE
  5
2C
330
3
100
AcDbSymbolTableRecord
100
AcDbTextStyleTableRecord
  2

 70
     1
 40
0.0
 41
1.0
 50
0.0
 71
     0
 42
2.5
  3
ltypeshp.shx
  4

  0
STYLE
  5
18E
330
3
100
AcDbSymbolTableRecord
100
AcDbTextStyleTableRecord
  2
ADD
 70
     0
 40
0.0
 41
1.0
 50
0.0
 71
     0
 42
50.0
  3
romans.shx
  4
bigfont.shx
  0
STYLE
  5
191
330
3
100
AcDbSymbolTableRecord
100
AcDbTextStyleTableRecord
  2
MSG
 70
     0
 40
0.0
 41
1.0
 50
0.0
 71
     0
 42
2.5
  3
MS Gothic.ttf
  4

1001
ACAD
1000
MS Gothic
1071
    32817
  0
STYLE
  5
5C8
330
3
100
AcDbSymbolTableRecord
100
AcDbTextStyleTableRecord
  2
STANDARD15
 70
     0
 40
0.0
 41
1.0
 50
15.0
 71
     0
 42
2.5
  3
ROMANS
  4
bigfont
  0
STYLE
  5
5C9
330
3
100
AcDbSymbolTableRecord
100
AcDbTextStyleTableRecord
  2
ROMANS15
 70
     0
 40
0.0
 41
1.0
 50
15.0
 71
     0
 42
2.5
  3
romans
  4

  0
ENDTAB
  0
TABLE
  2
VIEW
  5
6
330
0
100
AcDbSymbolTable
 70
     1
  0
VIEW
  5
54D
330
6
100
AcDbSymbolTableRecord
100
AcDbViewTableRecord
  2
ALL
 70
     0
 40
594.0
 10
420.5
 20
297.0
 41
865.125
 11
0.0
 21
0.0
 31
1.0
 12
0.0
 22
0.0
 32
0.0
 42
50.0
 43
0.0
 44
0.0
 50
0.0
 71
     0
  0
ENDTAB
  0
TABLE
  2
UCS
  5
7
330
0
100
AcDbSymbolTable
 70
     0
  0
ENDTAB
  0
TABLE
  2
APPID
  5
9
330
0
100
AcDbSymbolTable
 70
     4
  0
APPID
  5
12
330
9
100
AcDbSymbolTableRecord
100
AcDbRegAppTableRecord
  2
ACAD
 70
     0
  0
APPID
  5
5CB
330
9
100
AcDbSymbolTableRecord
100
AcDbRegAppTableRecord
  2
ARAIGUMI_YOHEKI
 70
     0
  0
APPID
  5
5CC
330
9
100
AcDbSymbolTableRecord
100
AcDbRegAppTableRecord
  2
CONTENTTABDATA
 70
     0
  0
APPID
  5
5CD
330
9
100
AcDbSymbolTableRecord
100
AcDbRegAppTableRecord
  2
CONTENTCURRENTTAB
 70
     0
  0
ENDTAB
  0
TABLE
  2
DIMSTYLE
  5
A
330
0
100
AcDbSymbolTable
 70
    10
  0
DIMSTYLE
105
27
330
A
100
AcDbSymbolTableRecord
100
AcDbDimStyleTableRecord
  2
ISO-25
 70
     0
  3

  4

  5

  6

  7

 40
1.0
 41
2.5
 42
0.625
 43
3.75
 44
1.25
 45
0.0
 46
0.0
 47
0.0
 48
0.0
140
2.5
141
2.5
142
0.0
143
0.03937007874016
144
1.0
145
0.0
146
1.0
147
0.625
 71
     0
 72
     0
 73
     0
 74
     0
 75
     0
 76
     0
 77
     1
 78
     8
170
     0
171
     3
172
     1
173
     0
174
     0
175
     0
176
     0
177
     0
178
     0
270
     2
271
     2
272
     2
273
     2
274
     3
340
11
275
     0
280
     0
281
     0
282
     0
283
     0
284
     8
285
     0
286
     0
287
     3
288
     0
  0
DIMSTYLE
105
197
330
A
100
AcDbSymbolTableRecord
100
AcDbDimStyleTableRecord
  2
ADD
 70
     0
  3

  4

  5

  6

  7

 40
1.0
 41
2.5
 42
1.0
 43
7.0
 44
0.5
 45
0.0
 46
0.0
 47
0.0
 48
0.0
140
2.5
141
2.5
142
0.0
143
0.03937007874016
144
1.0
145
0.7
146
1.0
147
0.625
 71
     0
 72
     0
 73
     0
 74
     0
 75
     0
 76
     0
 77
     1
 78
     8
170
     0
171
     3
172
     1
173
     0
174
     1
175
     0
176
   144
177
   144
178
     7
270
     2
271
     1
272
     1
273
     2
274
     3
340
18E
275
     0
280
     0
281
     0
282
     0
283
     2
284
     8
285
     0
286
     0
287
     5
288
     0
  0
DIMSTYLE
105
3E6
330
A
100
AcDbSymbolTableRecord
100
AcDbDimStyleTableRecord
  2
ADD$2
 70
     0
  3

  4

  5

  6

  7

 40
1.0
 41
2.5
 42
1.0
 43
7.0
 44
0.5
 45
0.0
 46
0.0
 47
0.0
 48
0.0
140
2.5
141
2.5
142
0.0
143
0.03937007874016
144
1.0
145
0.7
146
1.0
147
0.625
 71
     0
 72
     0
 73
     0
 74
     0
 75
     0
 76
     0
 77
     1
 78
     8
170
     0
171
     3
172
     1
173
     0
174
     1
175
     0
176
   144
177
   144
178
     7
270
     2
271
     1
272
     1
273
     2
274
     3
340
18E
275
     0
280
     0
281
     0
282
     0
283
     2
284
     8
285
     0
286
     0
287
     5
288
     0
  0
DIMSTYLE
105
3E7
330
A
100
AcDbSymbolTableRecord
100
AcDbDimStyleTableRecord
  2
ADD$4
 70
     0
  3

  4

  5

  6

  7

 40
1.0
 41
2.5
 42
1.0
 43
7.0
 44
0.5
 45
0.0
 46
0.0
 47
0.0
 48
0.0
140
2.5
141
2.5
142
0.0
143
0.03937007874016
144
1.0
145
0.0
146
1.0
147
0.625
 71
     0
 72
     0
 73
     0
 74
     0
 75
     0
 76
     0
 77
     1
 78
     8
170
     0
171
     3
172
     1
173
     0
174
     1
175
     0
176
   144
177
   144
178
     7
270
     2
271
     1
272
     1
273
     2
274
     3
340
18E
275
     0
280
     0
281
     0
282
     0
283
     2
284
     8
285
     0
286
     0
287
     5
288
     0
  0
DIMSTYLE
105
3E8
330
A
100
AcDbSymbolTableRecord
100
AcDbDimStyleTableRecord
  2
ADD$3
 70
     0
  3

  4

  5

  6

  7

 40
1.0
 41
2.5
 42
1.0
 43
7.0
 44
0.5
 45
0.0
 46
0.0
 47
0.0
 48
0.0
140
2.5
141
2.5
142
0.0
143
0.03937007874016
144
1.0
145
0.0
146
1.0
147
0.625
 71
     0
 72
     0
 73
     0
 74
     0
 75
     0
 76
     0
 77
     1
 78
     8
170
     0
171
     3
172
     1
173
     0
174
     1
175
     0
176
   144
177
   144
178
     7
270
     2
271
     1
272
     1
273
     2
274
     3
340
18E
275
     0
280
     0
281
     0
282
     0
283
     2
284
     8
285
     0
286
     0
287
     5
288
     0
  0
DIMSTYLE
105
3E9
330
A
100
AcDbSymbolTableRecord
100
AcDbDimStyleTableRecord
  2
ADD$6
 70
     0
  3

  4

  5

  6

  7

 40
1.0
 41
2.5
 42
1.0
 43
7.0
 44
0.5
 45
0.0
 46
0.0
 47
0.0
 48
0.0
140
2.5
141
2.5
142
0.0
143
0.03937007874016
144
1.0
145
0.0
146
1.0
147
0.625
 71
     0
 72
     0
 73
     0
 74
     0
 75
     0
 76
     0
 77
     1
 78
     8
170
     0
171
     3
172
     1
173
     0
174
     1
175
     0
176
   144
177
   144
178
     7
270
     2
271
     1
272
     1
273
     2
274
     3
340
18E
275
     0
280
     0
281
     0
282
     0
283
     2
284
     8
285
     0
286
     0
287
     5
288
     0
  0
DIMSTYLE
105
3EA
330
A
100
AcDbSymbolTableRecord
100
AcDbDimStyleTableRecord
  2
ADD$7
 70
     0
  3

  4

  5

  6

  7

 40
1.0
 41
2.5
 42
1.0
 43
7.0
 44
0.5
 45
0.0
 46
0.0
 47
0.0
 48
0.0
140
2.5
141
2.5
142
0.0
143
0.03937007874016
144
1.0
145
0.0
146
1.0
147
0.625
 71
     0
 72
     0
 73
     0
 74
     0
 75
     0
 76
     0
 77
     0
 78
     8
170
     0
171
     3
172
     1
173
     0
174
     1
175
     0
176
   144
177
   144
178
     7
270
     2
271
     1
272
     1
273
     2
274
     3
340
18E
275
     0
280
     0
281
     0
282
     0
283
     2
284
     8
285
     0
286
     0
287
     5
288
     0
  0
DIMSTYLE
105
518
330
A
100
AcDbSymbolTableRecord
100
AcDbDimStyleTableRecord
  2
STANDARD
 70
     0
  3

  4

  5

  6

  7

 40
1.0
 41
0.18
 42
0.0625
 43
0.38
 44
0.18
 45
0.0
 46
0.0
 47
0.0
 48
0.0
140
0.18
141
0.09
142
0.0
143
25.4
144
1.0
145
0.0
146
1.0
147
0.09
 71
     0
 72
     0
 73
     1
 74
     1
 75
     0
 76
     0
 77
     0
 78
     0
170
     0
171
     2
172
     0
173
     0
174
     0
175
     0
176
     0
177
     0
178
     0
270
     2
271
     4
272
     4
273
     2
274
     2
340
11
275
     0
280
     0
281
     0
282
     0
283
     1
284
     0
285
     0
286
     0
287
     3
288
     0
  0
DIMSTYLE
105
550
102
{ACAD_REACTORS
330
1141
330
1119
330
110A
330
10F9
330
10EC
330
10DD
330
10BF
330
1020
330
1011
330
FE4
330
FBF
330
FB0
330
F89
330
F7C
330
F6F
330
EEA
330
EDB
330
EBD
330
EB0
330
EA1
102
}
330
A
100
AcDbSymbolTableRecord
100
AcDbDimStyleTableRecord
  2
ADD$0
 70
     0
  3

  4

  5

  6

  7

 40
1.0
 41
2.2
 42
1.0
 43
7.0
 44
0.5
 45
0.0
 46
0.0
 47
0.0
 48
0.0
140
2.5
141
2.5
142
0.0
143
0.03937007874016
144
1.0
145
0.7
146
1.0
147
0.625
 71
     0
 72
     0
 73
     0
 74
     0
 75
     0
 76
     0
 77
     1
 78
     8
170
     0
171
     3
172
     1
173
     0
174
     1
175
     0
176
   144
177
   144
178
     7
270
     2
271
     1
272
     1
273
     2
274
     3
340
18E
275
     0
280
     0
281
     0
282
     0
283
     2
284
     8
285
     0
286
     0
287
     5
288
     0
  0
DIMSTYLE
105
59B
330
A
100
AcDbSymbolTableRecord
100
AcDbDimStyleTableRecord
  2
ADD_M
 70
     0
  3

  4

  5

  6

  7

 40
1.0
 41
2.5
 42
1.0
 43
7.0
 44
0.5
 45
0.0
 46
0.0
 47
0.0
 48
0.0
140
2.5
141
2.5
142
0.0
143
0.03937007874016
144
1.0
145
0.7
146
1.0
147
0.625
 71
     0
 72
     0
 73
     0
 74
     0
 75
     0
 76
     0
 77
     1
 78
     8
170
     0
171
     3
172
     1
173
     0
174
     1
175
     0
176
   144
177
   144
178
     7
270
     2
271
     1
272
     1
273
     2
274
     3
340
18E
275
     0
280
     0
281
     0
282
     0
283
     2
284
     8
285
     0
286
     0
287
     5
288
     0
  0
ENDTAB
  0
TABLE
  2
BLOCK_RECORD
  5
1
330
0
100
AcDbSymbolTable
 70
    24
  0
BLOCK_RECORD
  5
1F
102
{ACAD_XDICTIONARY
360
11E0
102
}
330
1
100
AcDbSymbolTableRecord
100
AcDbBlockTableRecord
  2
*MODEL_SPACE
  0
BLOCK_RECORD
  5
1B
102
{ACAD_XDICTIONARY
360
11E2
102
}
330
1
100
AcDbSymbolTableRecord
100
AcDbBlockTableRecord
  2
*PAPER_SPACE
  0
BLOCK_RECORD
  5
192
330
1
100
AcDbSymbolTableRecord
100
AcDbBlockTableRecord
  2
_DOT
  0
BLOCK_RECORD
  5
5CE
330
1
100
AcDbSymbolTableRecord
100
AcDbBlockTableRecord
  2
A4
  0
BLOCK_RECORD
  5
636
330
1
100
AcDbSymbolTableRecord
100
AcDbBlockTableRecord
  2
_OPEN90
  0
BLOCK_RECORD
  5
63C
330
1
100
AcDbSymbolTableRecord
100
AcDbBlockTableRecord
  2
_OPEN30
  0
BLOCK_RECORD
  5
EA2
330
1
100
AcDbSymbolTableRecord
100
AcDbBlockTableRecord
  2
*D4
  0
BLOCK_RECORD
  5
EB1
330
1
100
AcDbSymbolTableRecord
100
AcDbBlockTableRecord
  2
*D5
  0
BLOCK_RECORD
  5
EBE
330
1
100
AcDbSymbolTableRecord
100
AcDbBlockTableRecord
  2
*D6
  0
BLOCK_RECORD
  5
EDC
330
1
100
AcDbSymbolTableRecord
100
AcDbBlockTableRecord
  2
*D7
  0
BLOCK_RECORD
  5
EEB
330
1
100
AcDbSymbolTableRecord
100
AcDbBlockTableRecord
  2
*D8
  0
BLOCK_RECORD
  5
F70
330
1
100
AcDbSymbolTableRecord
100
AcDbBlockTableRecord
  2
*D9
  0
BLOCK_RECORD
  5
F7D
330
1
100
AcDbSymbolTableRecord
100
AcDbBlockTableRecord
  2
*D10
  0
BLOCK_RECORD
  5
F8A
330
1
100
AcDbSymbolTableRecord
100
AcDbBlockTableRecord
  2
*D11
  0
BLOCK_RECORD
  5
FB1
330
1
100
AcDbSymbolTableRecord
100
AcDbBlockTableRecord
  2
*D12
  0
BLOCK_RECORD
  5
FC0
330
1
100
AcDbSymbolTableRecord
100
AcDbBlockTableRecord
  2
*D13
  0
BLOCK_RECORD
  5
FE5
330
1
100
AcDbSymbolTableRecord
100
AcDbBlockTableRecord
  2
*D14
  0
BLOCK_RECORD
  5
1012
330
1
100
AcDbSymbolTableRecord
100
AcDbBlockTableRecord
  2
*D15
  0
BLOCK_RECORD
  5
1021
330
1
100
AcDbSymbolTableRecord
100
AcDbBlockTableRecord
  2
*D16
  0
BLOCK_RECORD
  5
10C0
330
1
100
AcDbSymbolTableRecord
100
AcDbBlockTableRecord
  2
*D17
  0
BLOCK_RECORD
  5
10DE
330
1
100
AcDbSymbolTableRecord
100
AcDbBlockTableRecord
  2
*D18
  0
BLOCK_RECORD
  5
10ED
330
1
100
AcDbSymbolTableRecord
100
AcDbBlockTableRecord
  2
*D19
  0
BLOCK_RECORD
  5
10FA
330
1
100
AcDbSymbolTableRecord
100
AcDbBlockTableRecord
  2
*D20
  0
BLOCK_RECORD
  5
110B
330
1
100
AcDbSymbolTableRecord
100
AcDbBlockTableRecord
  2
*D21
  0
BLOCK_RECORD
  5
111A
330
1
100
AcDbSymbolTableRecord
100
AcDbBlockTableRecord
  2
*D22
  0
BLOCK_RECORD
  5
1142
330
1
100
AcDbSymbolTableRecord
100
AcDbBlockTableRecord
  2
*D23
  0
ENDTAB
  0
ENDSEC
  0
SECTION
  2
BLOCKS
  0
BLOCK
  5
20
330
1F
100
AcDbEntity
  8
0
100
AcDbBlockBegin
  2
*MODEL_SPACE
 70
     0
 10
0.0
 20
0.0
 30
0.0
  3
*MODEL_SPACE
  1

  0
ENDBLK
  5
21
330
1F
100
AcDbEntity
  8
0
100
AcDbBlockEnd
  0
BLOCK
  5
1C
330
1B
100
AcDbEntity
 67
     1
  8
0
100
AcDbBlockBegin
  2
*PAPER_SPACE
 70
     0
 10
0.0
 20
0.0
 30
0.0
  3
*PAPER_SPACE
  1

  0
ENDBLK
  5
1D
330
1B
100
AcDbEntity
 67
     1
  8
0
100
AcDbBlockEnd
  0
BLOCK
  5
195
330
192
100
AcDbEntity
  8
0
100
AcDbBlockBegin
  2
_DOT
 70
     0
 10
0.0
 20
0.0
 30
0.0
  3
_DOT
  1

  0
POLYLINE
  5
193
330
192
100
AcDbEntity
  8
0
 62
     0
100
AcDb2dPolyline
 66
     1
 10
0.0
 20
0.0
 30
0.0
 70
     1
 40
0.5
 41
0.5
  0
VERTEX
  5
1311
330
193
100
AcDbEntity
  8
0
 62
     0
100
AcDbVertex
100
AcDb2dVertex
 10
-0.25
 20
0.0
 30
0.0
 42
1.0
  0
VERTEX
  5
1312
330
193
100
AcDbEntity
  8
0
 62
     0
100
AcDbVertex
100
AcDb2dVertex
 10
0.25
 20
0.0
 30
0.0
 42
1.0
  0
SEQEND
  5
1313
330
193
100
AcDbEntity
  8
0
 62
     0
  0
LINE
  5
194
330
192
100
AcDbEntity
  8
0
 62
     0
100
AcDbLine
 10
-0.5
 20
0.0
 30
0.0
 11
-1.0
 21
0.0
 31
0.0
  0
ENDBLK
  5
196
330
192
100
AcDbEntity
  8
0
100
AcDbBlockEnd
  0
BLOCK
  5
5D1
330
5CE
100
AcDbEntity
  8
0
100
AcDbBlockBegin
  2
A4
 70
     0
 10
0.0
 20
0.0
 30
0.0
  3
A4
  1

  0
POLYLINE
  5
5CF
330
5CE
100
AcDbEntity
  8
HOJO
100
AcDb2dPolyline
 66
     1
 10
0.0
 20
0.0
 30
0.0
 70
     1
  0
VERTEX
  5
1314
330
5CF
100
AcDbEntity
  8
HOJO
100
AcDbVertex
100
AcDb2dVertex
 10
0.0
 20
0.0
 30
0.0
  0
VERTEX
  5
1315
330
5CF
100
AcDbEntity
  8
HOJO
100
AcDbVertex
100
AcDb2dVertex
 10
297.0
 20
0.0
 30
0.0
  0
VERTEX
  5
1316
330
5CF
100
AcDbEntity
  8
HOJO
100
AcDbVertex
100
AcDb2dVertex
 10
297.0
 20
210.0
 30
0.0
  0
VERTEX
  5
1317
330
5CF
100
AcDbEntity
  8
HOJO
100
AcDbVertex
100
AcDb2dVertex
 10
0.0
 20
210.0
 30
0.0
  0
SEQEND
  5
1318
330
5CF
100
AcDbEntity
  8
HOJO
  0
POLYLINE
  5
5D0
330
5CE
100
AcDbEntity
  8
HOJO
100
AcDb2dPolyline
 66
     1
 10
0.0
 20
0.0
 30
0.0
 70
     1
  0
VERTEX
  5
1319
330
5D0
100
AcDbEntity
  8
HOJO
100
AcDbVertex
100
AcDb2dVertex
 10
18.0
 20
13.0
 30
0.0
  0
VERTEX
  5
131A
330
5D0
100
AcDbEntity
  8
HOJO
100
AcDbVertex
100
AcDb2dVertex
 10
279.0
 20
13.0
 30
0.0
  0
VERTEX
  5
131B
330
5D0
100
AcDbEntity
  8
HOJO
100
AcDbVertex
100
AcDb2dVertex
 10
279.0
 20
197.0
 30
0.0
  0
VERTEX
  5
131C
330
5D0
100
AcDbEntity
  8
HOJO
100
AcDbVertex
100
AcDb2dVertex
 10
18.0
 20
197.0
 30
0.0
  0
SEQEND
  5
131D
330
5D0
100
AcDbEntity
  8
HOJO
  0
ENDBLK
  5
5D2
330
5CE
100
AcDbEntity
  8
0
100
AcDbBlockEnd
  0
BLOCK
  5
63A
330
636
100
AcDbEntity
  8
0
100
AcDbBlockBegin
  2
_OPEN90
 70
     0
 10
0.0
 20
0.0
 30
0.0
  3
_OPEN90
  1

  0
LINE
  5
637
330
636
100
AcDbEntity
  8
SUNPO
 62
     0
100
AcDbLine
 10
-0.5
 20
0.5
 30
0.0
 11
0.0
 21
0.0
 31
0.0
  0
LINE
  5
638
330
636
100
AcDbEntity
  8
SUNPO
 62
     0
100
AcDbLine
 10
0.0
 20
0.0
 30
0.0
 11
-0.5
 21
-0.5
 31
0.0
  0
LINE
  5
639
330
636
100
AcDbEntity
  8
SUNPO
 62
     0
100
AcDbLine
 10
0.0
 20
0.0
 30
0.0
 11
-1.0
 21
0.0
 31
0.0
  0
ENDBLK
  5
63B
330
636
100
AcDbEntity
  8
0
100
AcDbBlockEnd
  0
BLOCK
  5
640
330
63C
100
AcDbEntity
  8
0
100
AcDbBlockBegin
  2
_OPEN30
 70
     0
 10
0.0
 20
0.0
 30
0.0
  3
_OPEN30
  1

  0
LINE
  5
63D
330
63C
100
AcDbEntity
  8
SUNPO
 62
     0
100
AcDbLine
 10
-1.0
 20
0.26794919
 30
0.0
 11
0.0
 21
0.0
 31
0.0
  0
LINE
  5
63E
330
63C
100
AcDbEntity
  8
SUNPO
 62
     0
100
AcDbLine
 10
0.0
 20
0.0
 30
0.0
 11
-1.0
 21
-0.26794919
 31
0.0
  0
LINE
  5
63F
330
63C
100
AcDbEntity
  8
SUNPO
 62
     0
100
AcDbLine
 10
0.0
 20
0.0
 30
0.0
 11
-1.0
 21
0.0
 31
0.0
  0
ENDBLK
  5
641
330
63C
100
AcDbEntity
  8
0
100
AcDbBlockEnd
  0
BLOCK
  5
EAE
330
EA2
100
AcDbEntity
  8
0
100
AcDbBlockBegin
  2
*D4
 70
     1
 10
0.0
 20
0.0
 30
0.0
  3
*D4
  1

  0
LINE
  5
102F
330
EA2
100
AcDbEntity
  8
SUNPO
 62
   144
100
AcDbLine
 10
3029.156943177513
 20
2636.657765319065
 30
0.0
 11
3029.156943177513
 21
2957.61619864781
 31
0.0
  0
LINE
  5
1030
330
EA2
100
AcDbEntity
  8
SUNPO
 62
   144
100
AcDbLine
 10
3104.156943177513
 20
2636.657765319065
 30
0.0
 11
3104.156943177513
 21
2957.61619864781
 31
0.0
  0
LINE
  5
1031
330
EA2
100
AcDbEntity
  8
SUNPO
 62
   144
100
AcDbLine
 10
2985.156943177513
 20
2947.616198647811
 30
0.0
 11
2941.156943177513
 21
2947.616198647811
 31
0.0
  0
LINE
  5
1032
330
EA2
100
AcDbEntity
  8
SUNPO
 62
   144
100
AcDbLine
 10
3148.156943177513
 20
2947.616198647811
 30
0.0
 11
3192.156943177513
 21
2947.616198647811
 31
0.0
  0
MTEXT
  5
1033
330
EA2
100
AcDbEntity
  8
SUNPO
 62
     7
100
AcDbMText
 10
2964.390415436431
 20
2989.520443761808
 30
0.0
 40
50.0
 41
0.0
 71
     5
 72
     1
  1
\A2;75
  7
ADD
1001
ACAD
1000
MTEXTBEGIN
1070
    73
1070
     1
1070
    44
1040
1.0
1070
    74
1070
     0
1000
MTEXTEND
1000
MTEXTBEGIN
1070
    73
1070
     1
1070
    44
1040
1.0
1070
    74
1070
     0
1000
MTEXTEND
  0
LINE
  5
1034
330
EA2
100
AcDbEntity
  8
SUNPO
 62
   144
100
AcDbLine
 10
3029.156943177513
 20
2947.616198647811
 30
0.0
 11
3104.156943177513
 21
2947.616198647811
 31
0.0
  0
SOLID
  5
1035
330
EA2
100
AcDbEntity
  8
SUNPO
 62
   144
100
AcDbTrace
 10
2985.156943177513
 20
2954.949531981144
 30
0.0
 11
2985.156943177513
 21
2940.282865314477
 31
0.0
 12
3029.156943177513
 22
2947.616198647811
 32
0.0
 13
3029.156943177513
 23
2947.616198647811
 33
0.0
  0
SOLID
  5
1036
330
EA2
100
AcDbEntity
  8
SUNPO
 62
   144
100
AcDbTrace
 10
3148.156943177513
 20
2954.949531981144
 30
0.0
 11
3148.156943177513
 21
2940.282865314477
 31
0.0
 12
3104.156943177513
 22
2947.616198647811
 32
0.0
 13
3104.156943177513
 23
2947.616198647811
 33
0.0
  0
POINT
  5
1037
330
EA2
100
AcDbEntity
  8
DEFPOINTS
 62
     0
100
AcDbPoint
 10
3029.156943177513
 20
2616.657765319065
 30
0.0
  0
POINT
  5
1038
330
EA2
100
AcDbEntity
  8
DEFPOINTS
 62
     0
100
AcDbPoint
 10
3104.156943177513
 20
2616.657765319065
 30
0.0
  0
POINT
  5
1039
330
EA2
100
AcDbEntity
  8
DEFPOINTS
 62
     0
100
AcDbPoint
 10
3104.156943177513
 20
2947.616198647811
 30
0.0
  0
ENDBLK
  5
EAF
330
EA2
100
AcDbEntity
  8
0
100
AcDbBlockEnd
  0
BLOCK
  5
EBB
330
EB1
100
AcDbEntity
  8
0
100
AcDbBlockBegin
  2
*D5
 70
     1
 10
0.0
 20
0.0
 30
0.0
  3
*D5
  1

  0
LINE
  5
1182
330
EB1
100
AcDbEntity
  8
SUNPO
 62
   144
100
AcDbLine
 10
3104.156943177513
 20
2636.657765319065
 30
0.0
 11
3104.156943177513
 21
2957.61619864781
 31
0.0
  0
LINE
  5
1183
330
EB1
100
AcDbEntity
  8
SUNPO
 62
   144
100
AcDbLine
 10
3904.156943177513
 20
2636.657765319065
 30
0.0
 11
3904.156943177513
 21
2957.61619864781
 31
0.0
  0
LINE
  5
1184
330
EB1
100
AcDbEntity
  8
SUNPO
 62
   144
100
AcDbLine
 10
3148.156943177513
 20
2947.616198647811
 30
0.0
 11
3860.156943177513
 21
2947.616198647811
 31
0.0
  0
SOLID
  5
1185
330
EB1
100
AcDbEntity
  8
SUNPO
 62
   144
100
AcDbTrace
 10
3148.156943177513
 20
2954.949531981144
 30
0.0
 11
3148.156943177513
 21
2940.282865314477
 31
0.0
 12
3104.156943177513
 22
2947.616198647811
 32
0.0
 13
3104.156943177513
 23
2947.616198647811
 33
0.0
  0
SOLID
  5
1186
330
EB1
100
AcDbEntity
  8
SUNPO
 62
   144
100
AcDbTrace
 10
3860.156943177513
 20
2954.949531981144
 30
0.0
 11
3860.156943177513
 21
2940.282865314477
 31
0.0
 12
3904.156943177513
 22
2947.616198647811
 32
0.0
 13
3904.156943177513
 23
2947.616198647811
 33
0.0
  0
MTEXT
  5
1187
330
EB1
100
AcDbEntity
  8
SUNPO
 62
     7
100
AcDbMText
 10
3504.156943177513
 20
2985.116198647811
 30
0.0
 40
50.0
 41
0.0
 71
     5
 72
     1
  1
\A2;800
  7
ADD
1001
ACAD
1000
MTEXTBEGIN
1070
    73
1070
     1
1070
    44
1040
1.0
1070
    74
1070
     0
1000
MTEXTEND
1000
MTEXTBEGIN
1070
    73
1070
     1
1070
    44
1040
1.0
1070
    74
1070
     0
1000
MTEXTEND
  0
POINT
  5
1188
330
EB1
100
AcDbEntity
  8
DEFPOINTS
 62
     0
100
AcDbPoint
 10
3104.156943177513
 20
2616.657765319065
 30
0.0
  0
POINT
  5
1189
330
EB1
100
AcDbEntity
  8
DEFPOINTS
 62
     0
100
AcDbPoint
 10
3904.156943177513
 20
2616.657765319065
 30
0.0
  0
POINT
  5
118A
330
EB1
100
AcDbEntity
  8
DEFPOINTS
 62
     0
100
AcDbPoint
 10
3904.156943177513
 20
2947.616198647811
 30
0.0
  0
ENDBLK
  5
EBC
330
EB1
100
AcDbEntity
  8
0
100
AcDbBlockEnd
  0
BLOCK
  5
ECA
330
EBE
100
AcDbEntity
  8
0
100
AcDbBlockBegin
  2
*D6
 70
     1
 10
0.0
 20
0.0
 30
0.0
  3
*D6
  1

  0
LINE
  5
1165
330
EBE
100
AcDbEntity
  8
SUNPO
 62
   144
100
AcDbLine
 10
3904.156943177513
 20
2636.657765319065
 30
0.0
 11
3904.156943177513
 21
2957.61619864781
 31
0.0
  0
LINE
  5
1166
330
EBE
100
AcDbEntity
  8
SUNPO
 62
   144
100
AcDbLine
 10
3979.156943177514
 20
2636.657765319065
 30
0.0
 11
3979.156943177514
 21
2957.61619864781
 31
0.0
  0
LINE
  5
1167
330
EBE
100
AcDbEntity
  8
SUNPO
 62
   144
100
AcDbLine
 10
3860.156943177513
 20
2947.616198647811
 30
0.0
 11
3816.156943177513
 21
2947.616198647811
 31
0.0
  0
LINE
  5
1168
330
EBE
100
AcDbEntity
  8
SUNPO
 62
   144
100
AcDbLine
 10
4023.156943177514
 20
2947.616198647811
 30
0.0
 11
4067.156943177513
 21
2947.616198647811
 31
0.0
  0
MTEXT
  5
1169
330
EBE
100
AcDbEntity
  8
SUNPO
 62
     7
100
AcDbMText
 10
4040.674418164606
 20
2986.561915583623
 30
0.0
 40
50.0
 41
0.0
 71
     5
 72
     1
  1
\A2;75
  7
ADD
1001
ACAD
1000
MTEXTBEGIN
1070
    73
1070
     1
1070
    44
1040
1.0
1070
    74
1070
     0
1000
MTEXTEND
1000
MTEXTBEGIN
1070
    73
1070
     1
1070
    44
1040
1.0
1070
    74
1070
     0
1000
MTEXTEND
  0
LINE
  5
116A
330
EBE
100
AcDbEntity
  8
SUNPO
 62
   144
100
AcDbLine
 10
3904.156943177513
 20
2947.616198647811
 30
0.0
 11
3979.156943177514
 21
2947.616198647811
 31
0.0
  0
SOLID
  5
116B
330
EBE
100
AcDbEntity
  8
SUNPO
 62
   144
100
AcDbTrace
 10
3860.156943177513
 20
2954.949531981144
 30
0.0
 11
3860.156943177513
 21
2940.282865314477
 31
0.0
 12
3904.156943177513
 22
2947.616198647811
 32
0.0
 13
3904.156943177513
 23
2947.616198647811
 33
0.0
  0
SOLID
  5
116C
330
EBE
100
AcDbEntity
  8
SUNPO
 62
   144
100
AcDbTrace
 10
4023.156943177514
 20
2954.949531981144
 30
0.0
 11
4023.156943177514
 21
2940.282865314477
 31
0.0
 12
3979.156943177514
 22
2947.616198647811
 32
0.0
 13
3979.156943177514
 23
2947.616198647811
 33
0.0
  0
POINT
  5
116D
330
EBE
100
AcDbEntity
  8
DEFPOINTS
 62
     0
100
AcDbPoint
 10
3904.156943177513
 20
2616.657765319065
 30
0.0
  0
POINT
  5
116E
330
EBE
100
AcDbEntity
  8
DEFPOINTS
 62
     0
100
AcDbPoint
 10
3979.156943177514
 20
2616.657765319065
 30
0.0
  0
POINT
  5
116F
330
EBE
100
AcDbEntity
  8
DEFPOINTS
 62
     0
100
AcDbPoint
 10
3979.156943177514
 20
2947.616198647811
 30
0.0
  0
ENDBLK
  5
ECB
330
EBE
100
AcDbEntity
  8
0
100
AcDbBlockEnd
  0
BLOCK
  5
EE8
330
EDC
100
AcDbEntity
  8
0
100
AcDbBlockBegin
  2
*D7
 70
     1
 10
0.0
 20
0.0
 30
0.0
  3
*D7
  1

  0
LINE
  5
EF9
330
EDC
100
AcDbEntity
  8
SUNPO
 62
   144
100
AcDbLine
 10
3104.156943177513
 20
2636.657765319065
 30
0.0
 11
3104.156943177513
 21
2792.264995605992
 31
0.0
  0
LINE
  5
EFA
330
EDC
100
AcDbEntity
  8
SUNPO
 62
   144
100
AcDbLine
 10
3044.208958791972
 20
2634.159932636334
 30
0.0
 11
3044.208958791972
 21
2792.264995605992
 31
0.0
  0
LINE
  5
EFB
330
EDC
100
AcDbEntity
  8
SUNPO
 62
   144
100
AcDbLine
 10
3148.156943177513
 20
2782.264995605992
 30
0.0
 11
3192.156943177513
 21
2782.264995605992
 31
0.0
  0
LINE
  5
EFC
330
EDC
100
AcDbEntity
  8
SUNPO
 62
   144
100
AcDbLine
 10
3000.208958791972
 20
2782.264995605992
 30
0.0
 11
2956.208958791972
 21
2782.264995605992
 31
0.0
  0
LINE
  5
EFD
330
EDC
100
AcDbEntity
  8
SUNPO
 62
   144
100
AcDbLine
 10
3104.156943177513
 20
2782.264995605992
 30
0.0
 11
3044.208958791972
 21
2782.264995605992
 31
0.0
  0
SOLID
  5
EFE
330
EDC
100
AcDbEntity
  8
SUNPO
 62
   144
100
AcDbTrace
 10
3148.156943177513
 20
2789.598328939325
 30
0.0
 11
3148.156943177513
 21
2774.931662272658
 31
0.0
 12
3104.156943177513
 22
2782.264995605992
 32
0.0
 13
3104.156943177513
 23
2782.264995605992
 33
0.0
  0
SOLID
  5
EFF
330
EDC
100
AcDbEntity
  8
SUNPO
 62
   144
100
AcDbTrace
 10
3000.208958791972
 20
2789.598328939325
 30
0.0
 11
3000.208958791972
 21
2774.931662272658
 31
0.0
 12
3044.208958791972
 22
2782.264995605992
 32
0.0
 13
3044.208958791972
 23
2782.264995605992
 33
0.0
  0
MTEXT
  5
F00
330
EDC
100
AcDbEntity
  8
SUNPO
 62
     7
100
AcDbMText
 10
3074.182950984743
 20
2819.764995605992
 30
0.0
 40
50.0
 41
0.0
 71
     5
 72
     1
  1
\A2;60
  7
ADD
1001
ACAD
1000
MTEXTBEGIN
1070
    73
1070
     1
1070
    44
1040
1.0
1070
    74
1070
     0
1000
MTEXTEND
1000
MTEXTBEGIN
1070
    73
1070
     1
1070
    44
1040
1.0
1070
    74
1070
     0
1000
MTEXTEND
  0
POINT
  5
F01
330
EDC
100
AcDbEntity
  8
DEFPOINTS
 62
     0
100
AcDbPoint
 10
3104.156943177513
 20
2616.657765319065
 30
0.0
  0
POINT
  5
F02
330
EDC
100
AcDbEntity
  8
DEFPOINTS
 62
     0
100
AcDbPoint
 10
3044.208958791972
 20
2614.159932636334
 30
0.0
  0
POINT
  5
F03
330
EDC
100
AcDbEntity
  8
DEFPOINTS
 62
     0
100
AcDbPoint
 10
3044.208958791972
 20
2782.264995605992
 30
0.0
  0
ENDBLK
  5
EE9
330
EDC
100
AcDbEntity
  8
0
100
AcDbBlockEnd
  0
BLOCK
  5
EF7
330
EEB
100
AcDbEntity
  8
0
100
AcDbBlockBegin
  2
*D8
 70
     1
 10
0.0
 20
0.0
 30
0.0
  3
*D8
  1

  0
LINE
  5
115A
330
EEB
100
AcDbEntity
  8
SUNPO
 62
   144
100
AcDbLine
 10
3904.156943177513
 20
2636.657765319065
 30
0.0
 11
3904.156943177513
 21
2792.264995605992
 31
0.0
  0
LINE
  5
115B
330
EEB
100
AcDbEntity
  8
SUNPO
 62
   144
100
AcDbLine
 10
3964.104927563054
 20
2634.159932636334
 30
0.0
 11
3964.104927563054
 21
2792.264995605992
 31
0.0
  0
LINE
  5
115C
330
EEB
100
AcDbEntity
  8
SUNPO
 62
   144
100
AcDbLine
 10
3860.156943177513
 20
2782.264995605992
 30
0.0
 11
3816.156943177513
 21
2782.264995605992
 31
0.0
  0
LINE
  5
115D
330
EEB
100
AcDbEntity
  8
SUNPO
 62
   144
100
AcDbLine
 10
4008.104927563055
 20
2782.264995605992
 30
0.0
 11
4052.104927563054
 21
2782.264995605992
 31
0.0
  0
LINE
  5
115E
330
EEB
100
AcDbEntity
  8
SUNPO
 62
   144
100
AcDbLine
 10
3904.156943177513
 20
2782.264995605992
 30
0.0
 11
3964.104927563054
 21
2782.264995605992
 31
0.0
  0
SOLID
  5
115F
330
EEB
100
AcDbEntity
  8
SUNPO
 62
   144
100
AcDbTrace
 10
3860.156943177513
 20
2789.598328939325
 30
0.0
 11
3860.156943177513
 21
2774.931662272658
 31
0.0
 12
3904.156943177513
 22
2782.264995605992
 32
0.0
 13
3904.156943177513
 23
2782.264995605992
 33
0.0
  0
SOLID
  5
1160
330
EEB
100
AcDbEntity
  8
SUNPO
 62
   144
100
AcDbTrace
 10
4008.104927563055
 20
2789.598328939325
 30
0.0
 11
4008.104927563055
 21
2774.931662272658
 31
0.0
 12
3964.104927563054
 22
2782.264995605992
 32
0.0
 13
3964.104927563054
 23
2782.264995605992
 33
0.0
  0
MTEXT
  5
1161
330
EEB
100
AcDbEntity
  8
SUNPO
 62
     7
100
AcDbMText
 10
3934.130935370284
 20
2819.764995605992
 30
0.0
 40
50.0
 41
0.0
 71
     5
 72
     1
  1
\A2;60
  7
ADD
1001
ACAD
1000
MTEXTBEGIN
1070
    73
1070
     1
1070
    44
1040
1.0
1070
    74
1070
     0
1000
MTEXTEND
1000
MTEXTBEGIN
1070
    73
1070
     1
1070
    44
1040
1.0
1070
    74
1070
     0
1000
MTEXTEND
  0
POINT
  5
1162
330
EEB
100
AcDbEntity
  8
DEFPOINTS
 62
     0
100
AcDbPoint
 10
3904.156943177513
 20
2616.657765319065
 30
0.0
  0
POINT
  5
1163
330
EEB
100
AcDbEntity
  8
DEFPOINTS
 62
     0
100
AcDbPoint
 10
3964.104927563054
 20
2614.159932636334
 30
0.0
  0
POINT
  5
1164
330
EEB
100
AcDbEntity
  8
DEFPOINTS
 62
     0
100
AcDbPoint
 10
3964.104927563054
 20
2782.264995605992
 30
0.0
  0
ENDBLK
  5
EF8
330
EEB
100
AcDbEntity
  8
0
100
AcDbBlockEnd
  0
BLOCK
  5
F7A
330
F70
100
AcDbEntity
  8
0
100
AcDbBlockBegin
  2
*D9
 70
     1
 10
0.0
 20
0.0
 30
0.0
  3
*D9
  1

  0
LINE
  5
F71
330
F70
100
AcDbEntity
  8
SUNPO
 62
   144
100
AcDbLine
 10
3009.156943177513
 20
1916.657765319065
 30
0.0
 11
2650.448513682098
 21
1916.657765319065
 31
0.0
  0
LINE
  5
F72
330
F70
100
AcDbEntity
  8
SUNPO
 62
   144
100
AcDbLine
 10
3009.156943177513
 20
2616.657765319065
 30
0.0
 11
2650.448513682098
 21
2616.657765319065
 31
0.0
  0
LINE
  5
F73
330
F70
100
AcDbEntity
  8
SUNPO
 62
   144
100
AcDbLine
 10
2660.448513682098
 20
1960.657765319065
 30
0.0
 11
2660.448513682098
 21
2572.657765319065
 31
0.0
  0
SOLID
  5
F74
330
F70
100
AcDbEntity
  8
SUNPO
 62
   144
100
AcDbTrace
 10
2653.115180348765
 20
1960.657765319065
 30
0.0
 11
2667.781847015432
 21
1960.657765319065
 31
0.0
 12
2660.448513682098
 22
1916.657765319065
 32
0.0
 13
2660.448513682098
 23
1916.657765319065
 33
0.0
  0
SOLID
  5
F75
330
F70
100
AcDbEntity
  8
SUNPO
 62
   144
100
AcDbTrace
 10
2653.115180348765
 20
2572.657765319065
 30
0.0
 11
2667.781847015432
 21
2572.657765319065
 31
0.0
 12
2660.448513682098
 22
2616.657765319065
 32
0.0
 13
2660.448513682098
 23
2616.657765319065
 33
0.0
  0
MTEXT
  5
F76
330
F70
100
AcDbEntity
  8
SUNPO
 62
     7
100
AcDbMText
 10
2622.948513682098
 20
2266.657765319065
 30
0.0
 40
50.0
 41
0.0
 71
     5
 72
     1
  1
\A2;700
  7
ADD
 11
0.0000000000000001
 21
1.0
 31
0.0
1001
ACAD
1000
MTEXTBEGIN
1070
    73
1070
     1
1070
    44
1040
1.0
1070
    74
1070
     0
1000
MTEXTEND
1000
MTEXTBEGIN
1070
    73
1070
     1
1070
    44
1040
1.0
1070
    74
1070
     0
1000
MTEXTEND
  0
POINT
  5
F77
330
F70
100
AcDbEntity
  8
DEFPOINTS
 62
     0
100
AcDbPoint
 10
3029.156943177513
 20
1916.657765319065
 30
0.0
  0
POINT
  5
F78
330
F70
100
AcDbEntity
  8
DEFPOINTS
 62
     0
100
AcDbPoint
 10
3029.156943177513
 20
2616.657765319065
 30
0.0
  0
POINT
  5
F79
330
F70
100
AcDbEntity
  8
DEFPOINTS
 62
     0
100
AcDbPoint
 10
2660.448513682098
 20
2616.657765319065
 30
0.0
  0
ENDBLK
  5
F7B
330
F70
100
AcDbEntity
  8
0
100
AcDbBlockEnd
  0
BLOCK
  5
F87
330
F7D
100
AcDbEntity
  8
0
100
AcDbBlockBegin
  2
*D10
 70
     1
 10
0.0
 20
0.0
 30
0.0
  3
*D10
  1

  0
LINE
  5
F7E
330
F7D
100
AcDbEntity
  8
SUNPO
 62
   144
100
AcDbLine
 10
3009.156943177513
 20
2616.657765319065
 30
0.0
 11
2842.990484527643
 21
2616.657765319065
 31
0.0
  0
LINE
  5
F7F
330
F7D
100
AcDbEntity
  8
SUNPO
 62
   144
100
AcDbLine
 10
3009.156943177513
 20
2016.657765319064
 30
0.0
 11
2842.990484527643
 21
2016.657765319064
 31
0.0
  0
LINE
  5
F80
330
F7D
100
AcDbEntity
  8
SUNPO
 62
   144
100
AcDbLine
 10
2852.990484527643
 20
2572.657765319065
 30
0.0
 11
2852.990484527643
 21
2060.657765319064
 31
0.0
  0
SOLID
  5
F81
330
F7D
100
AcDbEntity
  8
SUNPO
 62
   144
100
AcDbTrace
 10
2845.657151194309
 20
2572.657765319065
 30
0.0
 11
2860.323817860976
 21
2572.657765319065
 31
0.0
 12
2852.990484527643
 22
2616.657765319065
 32
0.0
 13
2852.990484527643
 23
2616.657765319065
 33
0.0
  0
SOLID
  5
F82
330
F7D
100
AcDbEntity
  8
SUNPO
 62
   144
100
AcDbTrace
 10
2845.657151194309
 20
2060.657765319064
 30
0.0
 11
2860.323817860976
 21
2060.657765319064
 31
0.0
 12
2852.990484527643
 22
2016.657765319064
 32
0.0
 13
2852.990484527643
 23
2016.657765319064
 33
0.0
  0
MTEXT
  5
F83
330
F7D
100
AcDbEntity
  8
SUNPO
 62
     7
100
AcDbMText
 10
2815.490484527643
 20
2316.657765319065
 30
0.0
 40
50.0
 41
0.0
 71
     5
 72
     1
  1
\A2;600
  7
ADD
 11
0.0000000000000001
 21
1.0
 31
0.0
1001
ACAD
1000
MTEXTBEGIN
1070
    73
1070
     1
1070
    44
1040
1.0
1070
    74
1070
     0
1000
MTEXTEND
1000
MTEXTBEGIN
1070
    73
1070
     1
1070
    44
1040
1.0
1070
    74
1070
     0
1000
MTEXTEND
  0
POINT
  5
F84
330
F7D
100
AcDbEntity
  8
DEFPOINTS
 62
     0
100
AcDbPoint
 10
3029.156943177513
 20
2616.657765319065
 30
0.0
  0
POINT
  5
F85
330
F7D
100
AcDbEntity
  8
DEFPOINTS
 62
     0
100
AcDbPoint
 10
3029.156943177513
 20
2016.657765319064
 30
0.0
  0
POINT
  5
F86
330
F7D
100
AcDbEntity
  8
DEFPOINTS
 62
     0
100
AcDbPoint
 10
2852.990484527643
 20
2016.657765319064
 30
0.0
  0
ENDBLK
  5
F88
330
F7D
100
AcDbEntity
  8
0
100
AcDbBlockEnd
  0
BLOCK
  5
F96
330
F8A
100
AcDbEntity
  8
0
100
AcDbBlockBegin
  2
*D11
 70
     1
 10
0.0
 20
0.0
 30
0.0
  3
*D11
  1

  0
LINE
  5
11CE
330
F8A
100
AcDbEntity
  8
SUNPO
 62
   144
100
AcDbLine
 10
3009.156943177513
 20
2016.657765319064
 30
0.0
 11
2842.990484527643
 21
2016.657765319064
 31
0.0
  0
LINE
  5
11CF
330
F8A
100
AcDbEntity
  8
SUNPO
 62
   144
100
AcDbLine
 10
3009.156943177513
 20
1916.657765319065
 30
0.0
 11
2842.990484527643
 21
1916.657765319065
 31
0.0
  0
LINE
  5
11D0
330
F8A
100
AcDbEntity
  8
SUNPO
 62
   144
100
AcDbLine
 10
2852.990484527643
 20
1986.657765319065
 30
0.0
 11
2852.990484527643
 21
1946.657765319065
 31
0.0
  0
MTEXT
  5
11D1
330
F8A
100
AcDbEntity
  8
SUNPO
 62
     7
100
AcDbMText
 10
2811.982120238932
 20
1960.925968443661
 30
0.0
 40
50.0
 41
0.0
 71
     5
 72
     1
  1
\A2;100
  7
ADD
 11
0.0000000000000001
 21
1.0
 31
0.0
1001
ACAD
1000
MTEXTBEGIN
1070
    73
1070
     1
1070
    44
1040
1.0
1070
    74
1070
     0
1000
MTEXTEND
1000
MTEXTBEGIN
1070
    73
1070
     1
1070
    44
1040
1.0
1070
    74
1070
     0
1000
MTEXTEND
  0
SOLID
  5
11D2
330
F8A
100
AcDbEntity
  8
SUNPO
 62
   144
100
AcDbTrace
 10
2847.990484527643
 20
1986.657765319065
 30
0.0
 11
2857.990484527643
 21
1986.657765319065
 31
0.0
 12
2852.990484527643
 22
2016.657765319064
 32
0.0
 13
2852.990484527643
 23
2016.657765319064
 33
0.0
  0
SOLID
  5
11D3
330
F8A
100
AcDbEntity
  8
SUNPO
 62
   144
100
AcDbTrace
 10
2847.990484527643
 20
1946.657765319065
 30
0.0
 11
2857.990484527643
 21
1946.657765319065
 31
0.0
 12
2852.990484527643
 22
1916.657765319065
 32
0.0
 13
2852.990484527643
 23
1916.657765319065
 33
0.0
  0
POINT
  5
11D4
330
F8A
100
AcDbEntity
  8
DEFPOINTS
 62
     0
100
AcDbPoint
 10
3029.156943177513
 20
2016.657765319064
 30
0.0
  0
POINT
  5
11D5
330
F8A
100
AcDbEntity
  8
DEFPOINTS
 62
     0
100
AcDbPoint
 10
3029.156943177513
 20
1916.657765319065
 30
0.0
  0
POINT
  5
11D6
330
F8A
100
AcDbEntity
  8
DEFPOINTS
 62
     0
100
AcDbPoint
 10
2852.990484527643
 20
1916.657765319065
 30
0.0
  0
ENDBLK
  5
F97
330
F8A
100
AcDbEntity
  8
0
100
AcDbBlockEnd
  0
BLOCK
  5
FBD
330
FB1
100
AcDbEntity
  8
0
100
AcDbBlockBegin
  2
*D12
 70
     1
 10
0.0
 20
0.0
 30
0.0
  3
*D12
  1

  0
LINE
  5
FCE
330
FB1
100
AcDbEntity
  8
SUNPO
 62
   144
100
AcDbLine
 10
2162.677694377529
 20
2636.657765319065
 30
0.0
 11
2162.677694377529
 21
2957.61619864781
 31
0.0
  0
LINE
  5
FCF
330
FB1
100
AcDbEntity
  8
SUNPO
 62
   144
100
AcDbLine
 10
2212.677694377529
 20
2636.657765319065
 30
0.0
 11
2212.677694377529
 21
2957.61619864781
 31
0.0
  0
LINE
  5
FD0
330
FB1
100
AcDbEntity
  8
SUNPO
 62
   144
100
AcDbLine
 10
2118.677694377529
 20
2947.616198647811
 30
0.0
 11
2074.677694377529
 21
2947.616198647811
 31
0.0
  0
LINE
  5
FD1
330
FB1
100
AcDbEntity
  8
SUNPO
 62
   144
100
AcDbLine
 10
2256.677694377529
 20
2947.616198647811
 30
0.0
 11
2300.677694377529
 21
2947.616198647811
 31
0.0
  0
MTEXT
  5
FD2
330
FB1
100
AcDbEntity
  8
SUNPO
 62
     7
100
AcDbMText
 10
2101.104725043584
 20
2987.086481232296
 30
0.0
 40
50.0
 41
0.0
 71
     5
 72
     1
  1
\A2;50
  7
ADD
1001
ACAD
1000
MTEXTBEGIN
1070
    73
1070
     1
1070
    44
1040
1.0
1070
    74
1070
     0
1000
MTEXTEND
1000
MTEXTBEGIN
1070
    73
1070
     1
1070
    44
1040
1.0
1070
    74
1070
     0
1000
MTEXTEND
  0
LINE
  5
FD3
330
FB1
100
AcDbEntity
  8
SUNPO
 62
   144
100
AcDbLine
 10
2162.677694377529
 20
2947.616198647811
 30
0.0
 11
2212.677694377529
 21
2947.616198647811
 31
0.0
  0
SOLID
  5
FD4
330
FB1
100
AcDbEntity
  8
SUNPO
 62
   144
100
AcDbTrace
 10
2118.677694377529
 20
2954.949531981144
 30
0.0
 11
2118.677694377529
 21
2940.282865314477
 31
0.0
 12
2162.677694377529
 22
2947.616198647811
 32
0.0
 13
2162.677694377529
 23
2947.616198647811
 33
0.0
  0
SOLID
  5
FD5
330
FB1
100
AcDbEntity
  8
SUNPO
 62
   144
100
AcDbTrace
 10
2256.677694377529
 20
2954.949531981144
 30
0.0
 11
2256.677694377529
 21
2940.282865314477
 31
0.0
 12
2212.677694377529
 22
2947.616198647811
 32
0.0
 13
2212.677694377529
 23
2947.616198647811
 33
0.0
  0
POINT
  5
FD6
330
FB1
100
AcDbEntity
  8
DEFPOINTS
 62
     0
100
AcDbPoint
 10
2162.677694377529
 20
2616.657765319065
 30
0.0
  0
POINT
  5
FD7
330
FB1
100
AcDbEntity
  8
DEFPOINTS
 62
     0
100
AcDbPoint
 10
2212.677694377529
 20
2616.657765319065
 30
0.0
  0
POINT
  5
FD8
330
FB1
100
AcDbEntity
  8
DEFPOINTS
 62
     0
100
AcDbPoint
 10
2212.677694377529
 20
2947.616198647811
 30
0.0
  0
ENDBLK
  5
FBE
330
FB1
100
AcDbEntity
  8
0
100
AcDbBlockEnd
  0
BLOCK
  5
FCC
330
FC0
100
AcDbEntity
  8
0
100
AcDbBlockBegin
  2
*D13
 70
     1
 10
0.0
 20
0.0
 30
0.0
  3
*D13
  1

  0
LINE
  5
FD9
330
FC0
100
AcDbEntity
  8
SUNPO
 62
   144
100
AcDbLine
 10
2342.677694377529
 20
2636.657765319065
 30
0.0
 11
2342.677694377529
 21
2957.61619864781
 31
0.0
  0
LINE
  5
FDA
330
FC0
100
AcDbEntity
  8
SUNPO
 62
   144
100
AcDbLine
 10
2292.677694377529
 20
2636.657765319065
 30
0.0
 11
2292.677694377529
 21
2957.61619864781
 31
0.0
  0
LINE
  5
FDB
330
FC0
100
AcDbEntity
  8
SUNPO
 62
   144
100
AcDbLine
 10
2386.677694377529
 20
2947.616198647811
 30
0.0
 11
2430.677694377529
 21
2947.616198647811
 31
0.0
  0
LINE
  5
FDC
330
FC0
100
AcDbEntity
  8
SUNPO
 62
   144
100
AcDbLine
 10
2248.677694377529
 20
2947.616198647811
 30
0.0
 11
2204.677694377529
 21
2947.616198647811
 31
0.0
  0
MTEXT
  5
FDD
330
FC0
100
AcDbEntity
  8
SUNPO
 62
     7
100
AcDbMText
 10
2400.582193617549
 20
2982.900651204676
 30
0.0
 40
50.0
 41
0.0
 71
     5
 72
     1
  1
\A2;50
  7
ADD
1001
ACAD
1000
MTEXTBEGIN
1070
    73
1070
     1
1070
    44
1040
1.0
1070
    74
1070
     0
1000
MTEXTEND
1000
MTEXTBEGIN
1070
    73
1070
     1
1070
    44
1040
1.0
1070
    74
1070
     0
1000
MTEXTEND
  0
LINE
  5
FDE
330
FC0
100
AcDbEntity
  8
SUNPO
 62
   144
100
AcDbLine
 10
2342.677694377529
 20
2947.616198647811
 30
0.0
 11
2292.677694377529
 21
2947.616198647811
 31
0.0
  0
SOLID
  5
FDF
330
FC0
100
AcDbEntity
  8
SUNPO
 62
   144
100
AcDbTrace
 10
2386.677694377529
 20
2954.949531981144
 30
0.0
 11
2386.677694377529
 21
2940.282865314477
 31
0.0
 12
2342.677694377529
 22
2947.616198647811
 32
0.0
 13
2342.677694377529
 23
2947.616198647811
 33
0.0
  0
SOLID
  5
FE0
330
FC0
100
AcDbEntity
  8
SUNPO
 62
   144
100
AcDbTrace
 10
2248.677694377529
 20
2954.949531981144
 30
0.0
 11
2248.677694377529
 21
2940.282865314477
 31
0.0
 12
2292.677694377529
 22
2947.616198647811
 32
0.0
 13
2292.677694377529
 23
2947.616198647811
 33
0.0
  0
POINT
  5
FE1
330
FC0
100
AcDbEntity
  8
DEFPOINTS
 62
     0
100
AcDbPoint
 10
2342.677694377529
 20
2616.657765319065
 30
0.0
  0
POINT
  5
FE2
330
FC0
100
AcDbEntity
  8
DEFPOINTS
 62
     0
100
AcDbPoint
 10
2292.677694377529
 20
2616.657765319065
 30
0.0
  0
POINT
  5
FE3
330
FC0
100
AcDbEntity
  8
DEFPOINTS
 62
     0
100
AcDbPoint
 10
2292.677694377529
 20
2947.616198647811
 30
0.0
  0
ENDBLK
  5
FCD
330
FC0
100
AcDbEntity
  8
0
100
AcDbBlockEnd
  0
BLOCK
  5
FF1
330
FE5
100
AcDbEntity
  8
0
100
AcDbBlockBegin
  2
*D14
 70
     1
 10
0.0
 20
0.0
 30
0.0
  3
*D14
  1

  0
LINE
  5
FE6
330
FE5
100
AcDbEntity
  8
SUNPO
 62
   144
100
AcDbLine
 10
2217.677694377529
 20
2636.657765319065
 30
0.0
 11
2217.677694377529
 21
2957.61619864781
 31
0.0
  0
LINE
  5
FE7
330
FE5
100
AcDbEntity
  8
SUNPO
 62
   144
100
AcDbLine
 10
2287.677694377529
 20
2636.657765319065
 30
0.0
 11
2287.677694377529
 21
2957.61619864781
 31
0.0
  0
LINE
  5
FE8
330
FE5
100
AcDbEntity
  8
SUNPO
 62
   144
100
AcDbLine
 10
2173.677694377529
 20
2947.616198647811
 30
0.0
 11
2129.677694377529
 21
2947.616198647811
 31
0.0
  0
LINE
  5
FE9
330
FE5
100
AcDbEntity
  8
SUNPO
 62
   144
100
AcDbLine
 10
2331.677694377529
 20
2947.616198647811
 30
0.0
 11
2375.677694377529
 21
2947.616198647811
 31
0.0
  0
LINE
  5
FEA
330
FE5
100
AcDbEntity
  8
SUNPO
 62
   144
100
AcDbLine
 10
2217.677694377529
 20
2947.616198647811
 30
0.0
 11
2287.677694377529
 21
2947.616198647811
 31
0.0
  0
SOLID
  5
FEB
330
FE5
100
AcDbEntity
  8
SUNPO
 62
   144
100
AcDbTrace
 10
2173.677694377529
 20
2954.949531981144
 30
0.0
 11
2173.677694377529
 21
2940.282865314477
 31
0.0
 12
2217.677694377529
 22
2947.616198647811
 32
0.0
 13
2217.677694377529
 23
2947.616198647811
 33
0.0
  0
SOLID
  5
FEC
330
FE5
100
AcDbEntity
  8
SUNPO
 62
   144
100
AcDbTrace
 10
2331.677694377529
 20
2954.949531981144
 30
0.0
 11
2331.677694377529
 21
2940.282865314477
 31
0.0
 12
2287.677694377529
 22
2947.616198647811
 32
0.0
 13
2287.677694377529
 23
2947.616198647811
 33
0.0
  0
MTEXT
  5
FED
330
FE5
100
AcDbEntity
  8
SUNPO
 62
     7
100
AcDbMText
 10
2252.677694377529
 20
2985.116198647811
 30
0.0
 40
50.0
 41
0.0
 71
     5
 72
     1
  1
\A2;70
  7
ADD
1001
ACAD
1000
MTEXTBEGIN
1070
    73
1070
     1
1070
    44
1040
1.0
1070
    74
1070
     0
1000
MTEXTEND
1000
MTEXTBEGIN
1070
    73
1070
     1
1070
    44
1040
1.0
1070
    74
1070
     0
1000
MTEXTEND
  0
POINT
  5
FEE
330
FE5
100
AcDbEntity
  8
DEFPOINTS
 62
     0
100
AcDbPoint
 10
2217.677694377529
 20
2616.657765319065
 30
0.0
  0
POINT
  5
FEF
330
FE5
100
AcDbEntity
  8
DEFPOINTS
 62
     0
100
AcDbPoint
 10
2287.677694377529
 20
2616.657765319065
 30
0.0
  0
POINT
  5
FF0
330
FE5
100
AcDbEntity
  8
DEFPOINTS
 62
     0
100
AcDbPoint
 10
2287.677694377529
 20
2947.616198647811
 30
0.0
  0
ENDBLK
  5
FF2
330
FE5
100
AcDbEntity
  8
0
100
AcDbBlockEnd
  0
BLOCK
  5
101E
330
1012
100
AcDbEntity
  8
0
100
AcDbBlockBegin
  2
*D15
 70
     1
 10
0.0
 20
0.0
 30
0.0
  3
*D15
  1

  0
LINE
  5
1013
330
1012
100
AcDbEntity
  8
SUNPO
 62
   144
100
AcDbLine
 10
2212.677694377529
 20
2636.657765319065
 30
0.0
 11
2212.677694377529
 21
2795.129573934556
 31
0.0
  0
LINE
  5
1014
330
1012
100
AcDbEntity
  8
SUNPO
 62
   144
100
AcDbLine
 10
2217.677694377529
 20
2636.657765319065
 30
0.0
 11
2217.677694377529
 21
2795.129573934556
 31
0.0
  0
LINE
  5
1015
330
1012
100
AcDbEntity
  8
SUNPO
 62
   144
100
AcDbLine
 10
2168.677694377529
 20
2785.129573934557
 30
0.0
 11
2124.677694377529
 21
2785.129573934557
 31
0.0
  0
LINE
  5
1016
330
1012
100
AcDbEntity
  8
SUNPO
 62
   144
100
AcDbLine
 10
2261.677694377529
 20
2785.129573934557
 30
0.0
 11
2305.677694377529
 21
2785.129573934557
 31
0.0
  0
LINE
  5
1017
330
1012
100
AcDbEntity
  8
SUNPO
 62
   144
100
AcDbLine
 10
2212.677694377529
 20
2785.129573934557
 30
0.0
 11
2217.677694377529
 21
2785.129573934557
 31
0.0
  0
SOLID
  5
1018
330
1012
100
AcDbEntity
  8
SUNPO
 62
   144
100
AcDbTrace
 10
2168.677694377529
 20
2792.46290726789
 30
0.0
 11
2168.677694377529
 21
2777.796240601223
 31
0.0
 12
2212.677694377529
 22
2785.129573934557
 32
0.0
 13
2212.677694377529
 23
2785.129573934557
 33
0.0
  0
SOLID
  5
1019
330
1012
100
AcDbEntity
  8
SUNPO
 62
   144
100
AcDbTrace
 10
2261.677694377529
 20
2792.46290726789
 30
0.0
 11
2261.677694377529
 21
2777.796240601223
 31
0.0
 12
2217.677694377529
 22
2785.129573934557
 32
0.0
 13
2217.677694377529
 23
2785.129573934557
 33
0.0
  0
MTEXT
  5
101A
330
1012
100
AcDbEntity
  8
SUNPO
 62
     7
100
AcDbMText
 10
2215.177694377529
 20
2822.629573934557
 30
0.0
 40
50.0
 41
0.0
 71
     5
 72
     1
  1
\A2;5
  7
ADD
1001
ACAD
1000
MTEXTBEGIN
1070
    73
1070
     1
1070
    44
1040
1.0
1070
    74
1070
     0
1000
MTEXTEND
1000
MTEXTBEGIN
1070
    73
1070
     1
1070
    44
1040
1.0
1070
    74
1070
     0
1000
MTEXTEND
  0
POINT
  5
101B
330
1012
100
AcDbEntity
  8
DEFPOINTS
 62
     0
100
AcDbPoint
 10
2212.677694377529
 20
2616.657765319065
 30
0.0
  0
POINT
  5
101C
330
1012
100
AcDbEntity
  8
DEFPOINTS
 62
     0
100
AcDbPoint
 10
2217.677694377529
 20
2616.657765319065
 30
0.0
  0
POINT
  5
101D
330
1012
100
AcDbEntity
  8
DEFPOINTS
 62
     0
100
AcDbPoint
 10
2217.677694377529
 20
2785.129573934557
 30
0.0
  0
ENDBLK
  5
101F
330
1012
100
AcDbEntity
  8
0
100
AcDbBlockEnd
  0
BLOCK
  5
102D
330
1021
100
AcDbEntity
  8
0
100
AcDbBlockBegin
  2
*D16
 70
     1
 10
0.0
 20
0.0
 30
0.0
  3
*D16
  1

  0
LINE
  5
1022
330
1021
100
AcDbEntity
  8
SUNPO
 62
   144
100
AcDbLine
 10
2287.677694377529
 20
2636.657765319065
 30
0.0
 11
2287.677694377529
 21
2795.129573934556
 31
0.0
  0
LINE
  5
1023
330
1021
100
AcDbEntity
  8
SUNPO
 62
   144
100
AcDbLine
 10
2292.677694377529
 20
2636.657765319065
 30
0.0
 11
2292.677694377529
 21
2795.129573934556
 31
0.0
  0
LINE
  5
1024
330
1021
100
AcDbEntity
  8
SUNPO
 62
   144
100
AcDbLine
 10
2243.677694377529
 20
2785.129573934557
 30
0.0
 11
2199.677694377529
 21
2785.129573934557
 31
0.0
  0
LINE
  5
1025
330
1021
100
AcDbEntity
  8
SUNPO
 62
   144
100
AcDbLine
 10
2336.677694377529
 20
2785.129573934557
 30
0.0
 11
2380.677694377529
 21
2785.129573934557
 31
0.0
  0
LINE
  5
1026
330
1021
100
AcDbEntity
  8
SUNPO
 62
   144
100
AcDbLine
 10
2287.677694377529
 20
2785.129573934557
 30
0.0
 11
2292.677694377529
 21
2785.129573934557
 31
0.0
  0
SOLID
  5
1027
330
1021
100
AcDbEntity
  8
SUNPO
 62
   144
100
AcDbTrace
 10
2243.677694377529
 20
2792.46290726789
 30
0.0
 11
2243.677694377529
 21
2777.796240601223
 31
0.0
 12
2287.677694377529
 22
2785.129573934557
 32
0.0
 13
2287.677694377529
 23
2785.129573934557
 33
0.0
  0
SOLID
  5
1028
330
1021
100
AcDbEntity
  8
SUNPO
 62
   144
100
AcDbTrace
 10
2336.677694377529
 20
2792.46290726789
 30
0.0
 11
2336.677694377529
 21
2777.796240601223
 31
0.0
 12
2292.677694377529
 22
2785.129573934557
 32
0.0
 13
2292.677694377529
 23
2785.129573934557
 33
0.0
  0
MTEXT
  5
1029
330
1021
100
AcDbEntity
  8
SUNPO
 62
     7
100
AcDbMText
 10
2290.177694377529
 20
2822.629573934557
 30
0.0
 40
50.0
 41
0.0
 71
     5
 72
     1
  1
\A2;5
  7
ADD
1001
ACAD
1000
MTEXTBEGIN
1070
    73
1070
     1
1070
    44
1040
1.0
1070
    74
1070
     0
1000
MTEXTEND
1000
MTEXTBEGIN
1070
    73
1070
     1
1070
    44
1040
1.0
1070
    74
1070
     0
1000
MTEXTEND
  0
POINT
  5
102A
330
1021
100
AcDbEntity
  8
DEFPOINTS
 62
     0
100
AcDbPoint
 10
2287.677694377529
 20
2616.657765319065
 30
0.0
  0
POINT
  5
102B
330
1021
100
AcDbEntity
  8
DEFPOINTS
 62
     0
100
AcDbPoint
 10
2292.677694377529
 20
2616.657765319065
 30
0.0
  0
POINT
  5
102C
330
1021
100
AcDbEntity
  8
DEFPOINTS
 62
     0
100
AcDbPoint
 10
2292.677694377529
 20
2785.129573934557
 30
0.0
  0
ENDBLK
  5
102E
330
1021
100
AcDbEntity
  8
0
100
AcDbBlockEnd
  0
BLOCK
  5
10CA
330
10C0
100
AcDbEntity
  8
0
100
AcDbBlockBegin
  2
*D17
 70
     1
 10
0.0
 20
0.0
 30
0.0
  3
*D17
  1

  0
LINE
  5
1170
330
10C0
100
AcDbEntity
  8
SUNPO
 62
   144
100
AcDbLine
 10
3029.156943177513
 20
1896.657765319065
 30
0.0
 11
3029.156943177513
 21
1400.807728292304
 31
0.0
  0
LINE
  5
1171
330
10C0
100
AcDbEntity
  8
SUNPO
 62
   144
100
AcDbLine
 10
3979.156943177514
 20
1896.657765319065
 30
0.0
 11
3979.156943177514
 21
1400.807728292304
 31
0.0
  0
LINE
  5
1172
330
10C0
100
AcDbEntity
  8
SUNPO
 62
   144
100
AcDbLine
 10
3073.156943177513
 20
1410.807728292304
 30
0.0
 11
3935.156943177513
 21
1410.807728292304
 31
0.0
  0
SOLID
  5
1173
330
10C0
100
AcDbEntity
  8
SUNPO
 62
   144
100
AcDbTrace
 10
3073.156943177513
 20
1418.141061625637
 30
0.0
 11
3073.156943177513
 21
1403.47439495897
 31
0.0
 12
3029.156943177513
 22
1410.807728292304
 32
0.0
 13
3029.156943177513
 23
1410.807728292304
 33
0.0
  0
SOLID
  5
1174
330
10C0
100
AcDbEntity
  8
SUNPO
 62
   144
100
AcDbTrace
 10
3935.156943177513
 20
1418.141061625637
 30
0.0
 11
3935.156943177513
 21
1403.47439495897
 31
0.0
 12
3979.156943177514
 22
1410.807728292304
 32
0.0
 13
3979.156943177514
 23
1410.807728292304
 33
0.0
  0
MTEXT
  5
1175
330
10C0
100
AcDbEntity
  8
SUNPO
 62
     7
100
AcDbMText
 10
3504.156943177513
 20
1443.307728292304
 30
0.0
 40
40.0
 41
0.0
 71
     5
 72
     1
  1
\A2;950
  7
ADD
1001
ACAD
1000
MTEXTBEGIN
1070
    73
1070
     1
1070
    44
1040
1.0
1070
    74
1070
     0
1000
MTEXTEND
1000
MTEXTBEGIN
1070
    73
1070
     1
1070
    44
1040
1.0
1070
    74
1070
     0
1000
MTEXTEND
  0
POINT
  5
1176
330
10C0
100
AcDbEntity
  8
DEFPOINTS
 62
     0
100
AcDbPoint
 10
3029.156943177513
 20
1916.657765319065
 30
0.0
  0
POINT
  5
1177
330
10C0
100
AcDbEntity
  8
DEFPOINTS
 62
     0
100
AcDbPoint
 10
3979.156943177514
 20
1916.657765319065
 30
0.0
  0
POINT
  5
1178
330
10C0
100
AcDbEntity
  8
DEFPOINTS
 62
     0
100
AcDbPoint
 10
3979.156943177514
 20
1410.807728292304
 30
0.0
  0
ENDBLK
  5
10CB
330
10C0
100
AcDbEntity
  8
0
100
AcDbBlockEnd
  0
BLOCK
  5
10EA
330
10DE
100
AcDbEntity
  8
0
100
AcDbBlockBegin
  2
*D18
 70
     1
 10
0.0
 20
0.0
 30
0.0
  3
*D18
  1

  0
LINE
  5
11A6
330
10DE
100
AcDbEntity
  8
SUNPO
 62
   144
100
AcDbLine
 10
3029.156943177513
 20
1896.657765319065
 30
0.0
 11
3029.156943177513
 21
1638.732746805684
 31
0.0
  0
LINE
  5
11A7
330
10DE
100
AcDbEntity
  8
SUNPO
 62
   144
100
AcDbLine
 10
3129.156943177513
 20
1896.657765319065
 30
0.0
 11
3129.156943177513
 21
1638.732746805684
 31
0.0
  0
LINE
  5
11A8
330
10DE
100
AcDbEntity
  8
SUNPO
 62
   144
100
AcDbLine
 10
3059.156943177513
 20
1648.732746805684
 30
0.0
 11
3099.156943177513
 21
1648.732746805684
 31
0.0
  0
MTEXT
  5
11A9
330
10DE
100
AcDbEntity
  8
SUNPO
 62
     7
100
AcDbMText
 10
3079.156943177513
 20
1701.232746805684
 30
0.0
 40
40.0
 41
0.0
 71
     5
 72
     1
  1
\A2;100
  7
ADD
1001
ACAD
1000
MTEXTBEGIN
1070
    73
1070
     1
1070
    44
1040
1.0
1070
    74
1070
     0
1000
MTEXTEND
1000
MTEXTBEGIN
1070
    73
1070
     1
1070
    44
1040
1.0
1070
    74
1070
     0
1000
MTEXTEND
  0
SOLID
  5
11AA
330
10DE
100
AcDbEntity
  8
SUNPO
 62
   144
100
AcDbTrace
 10
3059.156943177513
 20
1653.732746805684
 30
0.0
 11
3059.156943177513
 21
1643.732746805684
 31
0.0
 12
3029.156943177513
 22
1648.732746805684
 32
0.0
 13
3029.156943177513
 23
1648.732746805684
 33
0.0
  0
SOLID
  5
11AB
330
10DE
100
AcDbEntity
  8
SUNPO
 62
   144
100
AcDbTrace
 10
3099.156943177513
 20
1653.732746805684
 30
0.0
 11
3099.156943177513
 21
1643.732746805684
 31
0.0
 12
3129.156943177513
 22
1648.732746805684
 32
0.0
 13
3129.156943177513
 23
1648.732746805684
 33
0.0
  0
POINT
  5
11AC
330
10DE
100
AcDbEntity
  8
DEFPOINTS
 62
     0
100
AcDbPoint
 10
3029.156943177513
 20
1916.657765319065
 30
0.0
  0
POINT
  5
11AD
330
10DE
100
AcDbEntity
  8
DEFPOINTS
 62
     0
100
AcDbPoint
 10
3129.156943177513
 20
1916.657765319065
 30
0.0
  0
POINT
  5
11AE
330
10DE
100
AcDbEntity
  8
DEFPOINTS
 62
     0
100
AcDbPoint
 10
3129.156943177513
 20
1648.732746805684
 30
0.0
  0
ENDBLK
  5
10EB
330
10DE
100
AcDbEntity
  8
0
100
AcDbBlockEnd
  0
BLOCK
  5
10F7
330
10ED
100
AcDbEntity
  8
0
100
AcDbBlockBegin
  2
*D19
 70
     1
 10
0.0
 20
0.0
 30
0.0
  3
*D19
  1

  0
LINE
  5
1179
330
10ED
100
AcDbEntity
  8
SUNPO
 62
   144
100
AcDbLine
 10
3129.156943177513
 20
1896.657765319065
 30
0.0
 11
3129.156943177513
 21
1638.732746805684
 31
0.0
  0
LINE
  5
117A
330
10ED
100
AcDbEntity
  8
SUNPO
 62
   144
100
AcDbLine
 10
3879.156943177513
 20
1896.657765319065
 30
0.0
 11
3879.156943177513
 21
1638.732746805684
 31
0.0
  0
LINE
  5
117B
330
10ED
100
AcDbEntity
  8
SUNPO
 62
   144
100
AcDbLine
 10
3173.156943177513
 20
1648.732746805684
 30
0.0
 11
3835.156943177513
 21
1648.732746805684
 31
0.0
  0
SOLID
  5
117C
330
10ED
100
AcDbEntity
  8
SUNPO
 62
   144
100
AcDbTrace
 10
3173.156943177513
 20
1656.066080139017
 30
0.0
 11
3173.156943177513
 21
1641.399413472351
 31
0.0
 12
3129.156943177513
 22
1648.732746805684
 32
0.0
 13
3129.156943177513
 23
1648.732746805684
 33
0.0
  0
SOLID
  5
117D
330
10ED
100
AcDbEntity
  8
SUNPO
 62
   144
100
AcDbTrace
 10
3835.156943177513
 20
1656.066080139017
 30
0.0
 11
3835.156943177513
 21
1641.399413472351
 31
0.0
 12
3879.156943177513
 22
1648.732746805684
 32
0.0
 13
3879.156943177513
 23
1648.732746805684
 33
0.0
  0
MTEXT
  5
117E
330
10ED
100
AcDbEntity
  8
SUNPO
 62
     7
100
AcDbMText
 10
3504.156943177513
 20
1681.232746805684
 30
0.0
 40
40.0
 41
0.0
 71
     5
 72
     1
  1
\A2;750
  7
ADD
1001
ACAD
1000
MTEXTBEGIN
1070
    73
1070
     1
1070
    44
1040
1.0
1070
    74
1070
     0
1000
MTEXTEND
1000
MTEXTBEGIN
1070
    73
1070
     1
1070
    44
1040
1.0
1070
    74
1070
     0
1000
MTEXTEND
  0
POINT
  5
117F
330
10ED
100
AcDbEntity
  8
DEFPOINTS
 62
     0
100
AcDbPoint
 10
3129.156943177513
 20
1916.657765319065
 30
0.0
  0
POINT
  5
1180
330
10ED
100
AcDbEntity
  8
DEFPOINTS
 62
     0
100
AcDbPoint
 10
3879.156943177513
 20
1916.657765319065
 30
0.0
  0
POINT
  5
1181
330
10ED
100
AcDbEntity
  8
DEFPOINTS
 62
     0
100
AcDbPoint
 10
3879.156943177513
 20
1648.732746805684
 30
0.0
  0
ENDBLK
  5
10F8
330
10ED
100
AcDbEntity
  8
0
100
AcDbBlockEnd
  0
BLOCK
  5
1106
330
10FA
100
AcDbEntity
  8
0
100
AcDbBlockBegin
  2
*D20
 70
     1
 10
0.0
 20
0.0
 30
0.0
  3
*D20
  1

  0
LINE
  5
11BA
330
10FA
100
AcDbEntity
  8
SUNPO
 62
   144
100
AcDbLine
 10
3879.156943177513
 20
1896.657765319065
 30
0.0
 11
3879.156943177513
 21
1638.732746805684
 31
0.0
  0
LINE
  5
11BB
330
10FA
100
AcDbEntity
  8
SUNPO
 62
   144
100
AcDbLine
 10
3979.156943177514
 20
1896.657765319065
 30
0.0
 11
3979.156943177514
 21
1638.732746805684
 31
0.0
  0
LINE
  5
11BC
330
10FA
100
AcDbEntity
  8
SUNPO
 62
   144
100
AcDbLine
 10
3909.156943177513
 20
1648.732746805684
 30
0.0
 11
3949.156943177513
 21
1648.732746805684
 31
0.0
  0
MTEXT
  5
11BD
330
10FA
100
AcDbEntity
  8
SUNPO
 62
     7
100
AcDbMText
 10
3929.156943177513
 20
1701.232746805684
 30
0.0
 40
40.0
 41
0.0
 71
     5
 72
     1
  1
\A2;100
  7
ADD
1001
ACAD
1000
MTEXTBEGIN
1070
    73
1070
     1
1070
    44
1040
1.0
1070
    74
1070
     0
1000
MTEXTEND
1000
MTEXTBEGIN
1070
    73
1070
     1
1070
    44
1040
1.0
1070
    74
1070
     0
1000
MTEXTEND
  0
SOLID
  5
11BE
330
10FA
100
AcDbEntity
  8
SUNPO
 62
   144
100
AcDbTrace
 10
3909.156943177513
 20
1653.732746805684
 30
0.0
 11
3909.156943177513
 21
1643.732746805684
 31
0.0
 12
3879.156943177513
 22
1648.732746805684
 32
0.0
 13
3879.156943177513
 23
1648.732746805684
 33
0.0
  0
SOLID
  5
11BF
330
10FA
100
AcDbEntity
  8
SUNPO
 62
   144
100
AcDbTrace
 10
3949.156943177513
 20
1653.732746805684
 30
0.0
 11
3949.156943177513
 21
1643.732746805684
 31
0.0
 12
3979.156943177514
 22
1648.732746805684
 32
0.0
 13
3979.156943177514
 23
1648.732746805684
 33
0.0
  0
POINT
  5
11C0
330
10FA
100
AcDbEntity
  8
DEFPOINTS
 62
     0
100
AcDbPoint
 10
3879.156943177513
 20
1916.657765319065
 30
0.0
  0
POINT
  5
11C1
330
10FA
100
AcDbEntity
  8
DEFPOINTS
 62
     0
100
AcDbPoint
 10
3979.156943177514
 20
1916.657765319065
 30
0.0
  0
POINT
  5
11C2
330
10FA
100
AcDbEntity
  8
DEFPOINTS
 62
     0
100
AcDbPoint
 10
3979.156943177514
 20
1648.732746805684
 30
0.0
  0
ENDBLK
  5
1107
330
10FA
100
AcDbEntity
  8
0
100
AcDbBlockEnd
  0
BLOCK
  5
1117
330
110B
100
AcDbEntity
  8
0
100
AcDbBlockBegin
  2
*D21
 70
     1
 10
0.0
 20
0.0
 30
0.0
  3
*D21
  1

  0
LINE
  5
1133
330
110B
100
AcDbEntity
  8
SUNPO
 62
   144
100
AcDbLine
 10
3148.324332283269
 20
2036.640426780912
 30
0.0
 11
3350.949682508944
 21
2036.640426780912
 31
0.0
  0
LINE
  5
1134
330
110B
100
AcDbEntity
  8
SUNPO
 62
   144
100
AcDbLine
 10
3148.324332283269
 20
2016.657765319065
 30
0.0
 11
3350.949682508944
 21
2016.657765319065
 31
0.0
  0
LINE
  5
1135
330
110B
100
AcDbEntity
  8
SUNPO
 62
   144
100
AcDbLine
 10
3340.949682508945
 20
2080.640426780912
 30
0.0
 11
3340.949682508945
 21
2124.640426780912
 31
0.0
  0
LINE
  5
1136
330
110B
100
AcDbEntity
  8
SUNPO
 62
   144
100
AcDbLine
 10
3340.949682508945
 20
1972.657765319065
 30
0.0
 11
3340.949682508945
 21
1928.657765319066
 31
0.0
  0
MTEXT
  5
1137
330
110B
100
AcDbEntity
  8
SUNPO
 62
     7
100
AcDbMText
 10
3308.449682508944
 20
2090.165926386347
 30
0.0
 40
40.0
 41
0.0
 71
     5
 72
     1
  1
\A2;20
  7
ADD
 11
0.0000000000000001
 21
1.0
 31
0.0
1001
ACAD
1000
MTEXTBEGIN
1070
    73
1070
     1
1070
    44
1040
1.0
1070
    74
1070
     0
1000
MTEXTEND
1000
MTEXTBEGIN
1070
    73
1070
     1
1070
    44
1040
1.0
1070
    74
1070
     0
1000
MTEXTEND
  0
LINE
  5
1138
330
110B
100
AcDbEntity
  8
SUNPO
 62
   144
100
AcDbLine
 10
3340.949682508945
 20
2036.640426780912
 30
0.0
 11
3340.949682508945
 21
2016.657765319065
 31
0.0
  0
SOLID
  5
1139
330
110B
100
AcDbEntity
  8
SUNPO
 62
   144
100
AcDbTrace
 10
3333.616349175611
 20
2080.640426780912
 30
0.0
 11
3348.283015842278
 21
2080.640426780912
 31
0.0
 12
3340.949682508945
 22
2036.640426780912
 32
0.0
 13
3340.949682508945
 23
2036.640426780912
 33
0.0
  0
SOLID
  5
113A
330
110B
100
AcDbEntity
  8
SUNPO
 62
   144
100
AcDbTrace
 10
3333.616349175611
 20
1972.657765319065
 30
0.0
 11
3348.283015842278
 21
1972.657765319065
 31
0.0
 12
3340.949682508945
 22
2016.657765319065
 32
0.0
 13
3340.949682508945
 23
2016.657765319065
 33
0.0
  0
POINT
  5
113B
330
110B
100
AcDbEntity
  8
DEFPOINTS
 62
     0
100
AcDbPoint
 10
3128.324332283269
 20
2036.640426780912
 30
0.0
  0
POINT
  5
113C
330
110B
100
AcDbEntity
  8
DEFPOINTS
 62
     0
100
AcDbPoint
 10
3128.324332283269
 20
2016.657765319065
 30
0.0
  0
POINT
  5
113D
330
110B
100
AcDbEntity
  8
DEFPOINTS
 62
     0
100
AcDbPoint
 10
3340.949682508945
 20
2016.657765319065
 30
0.0
  0
ENDBLK
  5
1118
330
110B
100
AcDbEntity
  8
0
100
AcDbBlockEnd
  0
BLOCK
  5
1126
330
111A
100
AcDbEntity
  8
0
100
AcDbBlockBegin
  2
*D22
 70
     1
 10
0.0
 20
0.0
 30
0.0
  3
*D22
  1

  0
LINE
  5
1128
330
111A
100
AcDbEntity
  8
SUNPO
 62
   144
100
AcDbLine
 10
3128.324332283269
 20
2036.657765319065
 30
0.0
 11
3128.324332283269
 21
2162.334342684744
 31
0.0
  0
LINE
  5
1129
330
111A
100
AcDbEntity
  8
SUNPO
 62
   144
100
AcDbLine
 10
3148.324332283269
 20
2036.657765319065
 30
0.0
 11
3148.324332283269
 21
2162.334342684744
 31
0.0
  0
LINE
  5
112A
330
111A
100
AcDbEntity
  8
SUNPO
 62
   144
100
AcDbLine
 10
3084.324332283269
 20
2152.334342684744
 30
0.0
 11
3040.324332283269
 21
2152.334342684744
 31
0.0
  0
LINE
  5
112B
330
111A
100
AcDbEntity
  8
SUNPO
 62
   144
100
AcDbLine
 10
3192.324332283269
 20
2152.334342684744
 30
0.0
 11
3236.324332283269
 21
2152.334342684744
 31
0.0
  0
MTEXT
  5
112C
330
111A
100
AcDbEntity
  8
SUNPO
 62
     7
100
AcDbMText
 10
3203.230520725887
 20
2184.834342684744
 30
0.0
 40
40.0
 41
0.0
 71
     5
 72
     1
  1
\A2;20
  7
ADD
1001
ACAD
1000
MTEXTBEGIN
1070
    73
1070
     1
1070
    44
1040
1.0
1070
    74
1070
     0
1000
MTEXTEND
1000
MTEXTBEGIN
1070
    73
1070
     1
1070
    44
1040
1.0
1070
    74
1070
     0
1000
MTEXTEND
  0
LINE
  5
112D
330
111A
100
AcDbEntity
  8
SUNPO
 62
   144
100
AcDbLine
 10
3128.324332283269
 20
2152.334342684744
 30
0.0
 11
3148.324332283269
 21
2152.334342684744
 31
0.0
  0
SOLID
  5
112E
330
111A
100
AcDbEntity
  8
SUNPO
 62
   144
100
AcDbTrace
 10
3084.324332283269
 20
2159.667676018077
 30
0.0
 11
3084.324332283269
 21
2145.00100935141
 31
0.0
 12
3128.324332283269
 22
2152.334342684744
 32
0.0
 13
3128.324332283269
 23
2152.334342684744
 33
0.0
  0
SOLID
  5
112F
330
111A
100
AcDbEntity
  8
SUNPO
 62
   144
100
AcDbTrace
 10
3192.324332283269
 20
2159.667676018077
 30
0.0
 11
3192.324332283269
 21
2145.00100935141
 31
0.0
 12
3148.324332283269
 22
2152.334342684744
 32
0.0
 13
3148.324332283269
 23
2152.334342684744
 33
0.0
  0
POINT
  5
1130
330
111A
100
AcDbEntity
  8
DEFPOINTS
 62
     0
100
AcDbPoint
 10
3128.324332283269
 20
2016.657765319065
 30
0.0
  0
POINT
  5
1131
330
111A
100
AcDbEntity
  8
DEFPOINTS
 62
     0
100
AcDbPoint
 10
3148.324332283269
 20
2016.657765319065
 30
0.0
  0
POINT
  5
1132
330
111A
100
AcDbEntity
  8
DEFPOINTS
 62
     0
100
AcDbPoint
 10
3148.324332283269
 20
2152.334342684744
 30
0.0
  0
ENDBLK
  5
1127
330
111A
100
AcDbEntity
  8
0
100
AcDbBlockEnd
  0
BLOCK
  5
114C
330
1142
100
AcDbEntity
  8
0
100
AcDbBlockBegin
  2
*D23
 70
     1
 10
0.0
 20
0.0
 30
0.0
  3
*D23
  1

  0
LINE
  5
1143
330
1142
100
AcDbEntity
  8
SUNPO
 62
   144
100
AcDbLine
 10
2162.677694377529
 20
1896.657765319065
 30
0.0
 11
2162.677694377529
 21
1400.807728292304
 31
0.0
  0
LINE
  5
1144
330
1142
100
AcDbEntity
  8
SUNPO
 62
   144
100
AcDbLine
 10
2342.677694377529
 20
1896.657765319065
 30
0.0
 11
2342.677694377529
 21
1400.807728292304
 31
0.0
  0
LINE
  5
1145
330
1142
100
AcDbEntity
  8
SUNPO
 62
   144
100
AcDbLine
 10
2206.677694377529
 20
1410.807728292304
 30
0.0
 11
2298.677694377529
 21
1410.807728292304
 31
0.0
  0
SOLID
  5
1146
330
1142
100
AcDbEntity
  8
SUNPO
 62
   144
100
AcDbTrace
 10
2206.677694377529
 20
1418.141061625637
 30
0.0
 11
2206.677694377529
 21
1403.47439495897
 31
0.0
 12
2162.677694377529
 22
1410.807728292304
 32
0.0
 13
2162.677694377529
 23
1410.807728292304
 33
0.0
  0
SOLID
  5
1147
330
1142
100
AcDbEntity
  8
SUNPO
 62
   144
100
AcDbTrace
 10
2298.677694377529
 20
1418.141061625637
 30
0.0
 11
2298.677694377529
 21
1403.47439495897
 31
0.0
 12
2342.677694377529
 22
1410.807728292304
 32
0.0
 13
2342.677694377529
 23
1410.807728292304
 33
0.0
  0
MTEXT
  5
1148
330
1142
100
AcDbEntity
  8
SUNPO
 62
     7
100
AcDbMText
 10
2252.677694377529
 20
1443.307728292304
 30
0.0
 40
40.0
 41
0.0
 71
     5
 72
     1
  1
\A2;180
  7
ADD
1001
ACAD
1000
MTEXTBEGIN
1070
    73
1070
     1
1070
    44
1040
1.0
1070
    74
1070
     0
1000
MTEXTEND
1000
MTEXTBEGIN
1070
    73
1070
     1
1070
    44
1040
1.0
1070
    74
1070
     0
1000
MTEXTEND
  0
POINT
  5
1149
330
1142
100
AcDbEntity
  8
DEFPOINTS
 62
     0
100
AcDbPoint
 10
2162.677694377529
 20
1916.657765319065
 30
0.0
  0
POINT
  5
114A
330
1142
100
AcDbEntity
  8
DEFPOINTS
 62
     0
100
AcDbPoint
 10
2342.677694377529
 20
1916.657765319065
 30
0.0
  0
POINT
  5
114B
330
1142
100
AcDbEntity
  8
DEFPOINTS
 62
     0
100
AcDbPoint
 10
2342.677694377529
 20
1410.807728292304
 30
0.0
  0
ENDBLK
  5
114D
330
1142
100
AcDbEntity
  8
0
100
AcDbBlockEnd
  0
ENDSEC
  0
SECTION
  2
ENTITIES
  0
LINE
  5
60A
330
1F
100
AcDbEntity
  8
HOJO
100
AcDbLine
 10
360.0
 20
260.0
 30
0.0
 11
5580.0
 21
260.0
 31
0.0
  0
LINE
  5
60B
330
1F
100
AcDbEntity
  8
HOJO
100
AcDbLine
 10
360.0
 20
560.0
 30
0.0
 11
5580.0
 21
560.0
 31
0.0
  0
LINE
  5
60C
330
1F
100
AcDbEntity
  8
HOJO
100
AcDbLine
 10
360.0
 20
260.0
 30
0.0
 11
360.0
 21
560.0
 31
0.0
  0
LINE
  5
60D
330
1F
100
AcDbEntity
  8
HOJO
100
AcDbLine
 10
2360.0
 20
260.0
 30
0.0
 11
2360.0
 21
560.0
 31
0.0
  0
LINE
  5
60F
330
1F
100
AcDbEntity
  8
HOJO
100
AcDbLine
 10
3160.0
 20
260.0
 30
0.0
 11
3160.0
 21
560.0
 31
0.0
  0
LINE
  5
610
330
1F
100
AcDbEntity
  8
HOJO
100
AcDbLine
 10
3660.0
 20
260.0
 30
0.0
 11
3660.0
 21
560.0
 31
0.0
  0
LINE
  5
E71
330
1F
100
AcDbEntity
  8
3C1
100
AcDbLine
 10
3029.156943177513
 20
2616.657765319065
 30
0.0
 11
3029.156943177513
 21
1916.657765319065
 31
0.0
  0
LINE
  5
E72
330
1F
100
AcDbEntity
  8
3C1
100
AcDbLine
 10
3029.156943177513
 20
1916.657765319065
 30
0.0
 11
3979.156943177514
 21
1916.657765319065
 31
0.0
  0
LINE
  5
E73
330
1F
100
AcDbEntity
  8
3C1
100
AcDbLine
 10
3979.156943177514
 20
1916.657765319065
 30
0.0
 11
3979.156943177514
 21
2616.657765319065
 31
0.0
  0
LINE
  5
E74
330
1F
100
AcDbEntity
  8
3C1
100
AcDbLine
 10
3029.156943177513
 20
2616.657765319065
 30
0.0
 11
3104.156943177513
 21
2616.657765319065
 31
0.0
  0
LINE
  5
E75
330
1F
100
AcDbEntity
  8
3C1
100
AcDbLine
 10
3979.156943177514
 20
2616.657765319065
 30
0.0
 11
3904.156943177513
 21
2616.657765319065
 31
0.0
  0
LINE
  5
E77
330
1F
100
AcDbEntity
  8
3C1
100
AcDbLine
 10
3029.156943177513
 20
2016.657765319064
 30
0.0
 11
3069.104882430191
 21
2016.657765319064
 31
0.0
  0
LINE
  5
E79
330
1F
100
AcDbEntity
  8
3C1
100
AcDbLine
 10
3104.156943177513
 20
2616.657765319065
 30
0.0
 11
3128.324332283269
 21
2036.640426780912
 31
0.0
  0
LINE
  5
E7A
330
1F
100
AcDbEntity
  8
3C1
100
AcDbLine
 10
3904.156943177513
 20
2616.657765319065
 30
0.0
 11
3879.989554071756
 21
2036.640426780912
 31
0.0
  0
LINE
  5
E7D
330
1F
100
AcDbEntity
  8
3C1
100
AcDbLine
 10
3128.324332283269
 20
2036.640426780912
 30
0.0
 11
3149.156943177513
 21
2016.657765319065
 31
0.0
  0
LINE
  5
E7E
330
1F
100
AcDbEntity
  8
3C1
100
AcDbLine
 10
3859.156943177515
 20
2016.657765319066
 30
0.0
 11
3879.989554071756
 21
2036.640426780912
 31
0.0
  0
LINE
  5
E7F
330
1F
100
AcDbEntity
  8
3C1
100
AcDbLine
 10
3044.104882430191
 20
2616.657765319065
 30
0.0
 11
3069.104882430191
 21
2016.657765319064
 31
0.0
  0
LINE
  5
E80
330
1F
100
AcDbEntity
  8
3C1
100
AcDbLine
 10
3964.209003924834
 20
2616.657765319065
 30
0.0
 11
3939.209003924834
 21
2016.657765319065
 31
0.0
  0
LINE
  5
E81
330
1F
100
AcDbEntity
  8
3C1
100
AcDbLine
 10
3149.156943177513
 20
2016.657765319065
 30
0.0
 11
3859.156943177515
 21
2016.657765319066
 31
0.0
  0
LINE
  5
E82
330
1F
100
AcDbEntity
  8
3C1
100
AcDbLine
 10
3939.209003924834
 20
2016.657765319065
 30
0.0
 11
3979.156943177514
 21
2016.657765319065
 31
0.0
  0
LINE
  5
E86
330
1F
100
AcDbEntity
  8
SUNPO
100
AcDbLine
 10
887.7768094548683
 20
2559.344812225406
 30
0.0
 11
886.7768094548683
 21
2559.344812225406
 31
0.0
  0
LINE
  5
E87
330
1F
100
AcDbEntity
  8
SUNPO
100
AcDbLine
 10
887.7768094548681
 20
1859.302648786552
 30
0.0
 11
886.7768094548681
 21
1859.302648786552
 31
0.0
  0
LINE
  5
E89
330
1F
100
AcDbEntity
  8
3C1
100
AcDbLine
 10
2342.677694377529
 20
2616.657765319065
 30
0.0
 11
2342.677694377529
 21
1916.657765319065
 31
0.0
  0
LINE
  5
E8A
330
1F
100
AcDbEntity
  8
3C1
100
AcDbLine
 10
2162.677694377529
 20
2616.657765319065
 30
0.0
 11
2162.677694377529
 21
1916.657765319065
 31
0.0
  0
LINE
  5
E8B
330
1F
100
AcDbEntity
  8
3C1
100
AcDbLine
 10
2162.677694377529
 20
2616.657765319065
 30
0.0
 11
2342.677694377529
 21
2616.657765319065
 31
0.0
  0
LINE
  5
E8C
330
1F
100
AcDbEntity
  8
3C1
100
AcDbLine
 10
2162.677694377529
 20
1916.657765319065
 30
0.0
 11
2342.677694377529
 21
1916.657765319065
 31
0.0
  0
LINE
  5
E8D
330
1F
100
AcDbEntity
  8
3C1
100
AcDbLine
 10
2162.677694377529
 20
2016.657765319065
 30
0.0
 11
2212.677694377529
 21
2016.657765319064
 31
0.0
  0
LINE
  5
E8E
330
1F
100
AcDbEntity
  8
3C1
100
AcDbLine
 10
2212.677694377529
 20
2616.657765319065
 30
0.0
 11
2212.677694377529
 21
2016.657765319065
 31
0.0
  0
LINE
  5
E8F
330
1F
100
AcDbEntity
  8
3C1
100
AcDbLine
 10
2292.677694377529
 20
2616.657765319065
 30
0.0
 11
2292.677694377529
 21
2016.657765319065
 31
0.0
  0
LINE
  5
E90
330
1F
100
AcDbEntity
  8
3C1
100
AcDbLine
 10
2217.677694377529
 20
2616.657765319065
 30
0.0
 11
2217.677694377529
 21
2016.657765319065
 31
0.0
  0
LINE
  5
E91
330
1F
100
AcDbEntity
  8
3C1
100
AcDbLine
 10
2287.677694377529
 20
2616.657765319065
 30
0.0
 11
2287.677694377529
 21
2016.657765319065
 31
0.0
  0
LINE
  5
E93
330
1F
100
AcDbEntity
  8
3C1
100
AcDbLine
 10
2292.677694377529
 20
2016.657765319064
 30
0.0
 11
2342.677694377529
 21
2016.657765319065
 31
0.0
  0
LINE
  5
F12
330
1F
100
AcDbEntity
  8
3C1
100
AcDbLine
 10
3879.989554071756
 20
1990.909108274864
 30
0.0
 11
3879.989554071756
 21
1990.909108274864
 31
0.0
  0
LINE
  5
125D
330
1F
100
AcDbEntity
  8
SUNPO
 62
   144
100
AcDbLine
 10
2162.677694377529
 20
1896.657765319065
 30
0.0
 11
2162.677694377529
 21
1400.807728292304
 31
0.0
  0
LINE
  5
125E
330
1F
100
AcDbEntity
  8
SUNPO
 62
   144
100
AcDbLine
 10
2342.677694377529
 20
1896.657765319065
 30
0.0
 11
2342.677694377529
 21
1400.807728292304
 31
0.0
  0
LINE
  5
125F
330
1F
100
AcDbEntity
  8
SUNPO
 62
   144
100
AcDbLine
 10
2206.677694377529
 20
1410.807728292304
 30
0.0
 11
2298.677694377529
 21
1410.807728292304
 31
0.0
  0
SOLID
  5
1260
330
1F
100
AcDbEntity
  8
SUNPO
 62
   144
100
AcDbTrace
 10
2206.677694377529
 20
1418.141061625637
 30
0.0
 11
2206.677694377529
 21
1403.47439495897
 31
0.0
 12
2162.677694377529
 22
1410.807728292304
 32
0.0
 13
2162.677694377529
 23
1410.807728292304
 33
0.0
  0
SOLID
  5
1261
330
1F
100
AcDbEntity
  8
SUNPO
 62
   144
100
AcDbTrace
 10
2298.677694377529
 20
1418.141061625637
 30
0.0
 11
2298.677694377529
 21
1403.47439495897
 31
0.0
 12
2342.677694377529
 22
1410.807728292304
 32
0.0
 13
2342.677694377529
 23
1410.807728292304
 33
0.0
  0
LINE
  5
1263
330
1F
100
AcDbEntity
  8
SUNPO
 62
   144
100
AcDbLine
 10
3128.324332283269
 20
2036.657765319065
 30
0.0
 11
3128.324332283269
 21
2162.334342684744
 31
0.0
  0
LINE
  5
1264
330
1F
100
AcDbEntity
  8
SUNPO
 62
   144
100
AcDbLine
 10
3148.324332283269
 20
2036.657765319065
 30
0.0
 11
3148.324332283269
 21
2162.334342684744
 31
0.0
  0
LINE
  5
1265
330
1F
100
AcDbEntity
  8
SUNPO
 62
   144
100
AcDbLine
 10
3084.324332283269
 20
2152.334342684744
 30
0.0
 11
3040.324332283269
 21
2152.334342684744
 31
0.0
  0
LINE
  5
1266
330
1F
100
AcDbEntity
  8
SUNPO
 62
   144
100
AcDbLine
 10
3192.324332283269
 20
2152.334342684744
 30
0.0
 11
3236.324332283269
 21
2152.334342684744
 31
0.0
  0
LINE
  5
1268
330
1F
100
AcDbEntity
  8
SUNPO
 62
   144
100
AcDbLine
 10
3128.324332283269
 20
2152.334342684744
 30
0.0
 11
3148.324332283269
 21
2152.334342684744
 31
0.0
  0
SOLID
  5
1269
330
1F
100
AcDbEntity
  8
SUNPO
 62
   144
100
AcDbTrace
 10
3084.324332283269
 20
2159.667676018077
 30
0.0
 11
3084.324332283269
 21
2145.00100935141
 31
0.0
 12
3128.324332283269
 22
2152.334342684744
 32
0.0
 13
3128.324332283269
 23
2152.334342684744
 33
0.0
  0
SOLID
  5
126A
330
1F
100
AcDbEntity
  8
SUNPO
 62
   144
100
AcDbTrace
 10
3192.324332283269
 20
2159.667676018077
 30
0.0
 11
3192.324332283269
 21
2145.00100935141
 31
0.0
 12
3148.324332283269
 22
2152.334342684744
 32
0.0
 13
3148.324332283269
 23
2152.334342684744
 33
0.0
  0
LINE
  5
126B
330
1F
100
AcDbEntity
  8
SUNPO
 62
   144
100
AcDbLine
 10
3148.324332283269
 20
2036.640426780912
 30
0.0
 11
3350.949682508944
 21
2036.640426780912
 31
0.0
  0
LINE
  5
126C
330
1F
100
AcDbEntity
  8
SUNPO
 62
   144
100
AcDbLine
 10
3148.324332283269
 20
2016.657765319065
 30
0.0
 11
3350.949682508944
 21
2016.657765319065
 31
0.0
  0
LINE
  5
126D
330
1F
100
AcDbEntity
  8
SUNPO
 62
   144
100
AcDbLine
 10
3340.949682508945
 20
2080.640426780912
 30
0.0
 11
3340.949682508945
 21
2124.640426780912
 31
0.0
  0
LINE
  5
126E
330
1F
100
AcDbEntity
  8
SUNPO
 62
   144
100
AcDbLine
 10
3340.949682508945
 20
1972.657765319065
 30
0.0
 11
3340.949682508945
 21
1928.657765319066
 31
0.0
  0
LINE
  5
1270
330
1F
100
AcDbEntity
  8
SUNPO
 62
   144
100
AcDbLine
 10
3340.949682508945
 20
2036.640426780912
 30
0.0
 11
3340.949682508945
 21
2016.657765319065
 31
0.0
  0
SOLID
  5
1271
330
1F
100
AcDbEntity
  8
SUNPO
 62
   144
100
AcDbTrace
 10
3333.616349175611
 20
2080.640426780912
 30
0.0
 11
3348.283015842278
 21
2080.640426780912
 31
0.0
 12
3340.949682508945
 22
2036.640426780912
 32
0.0
 13
3340.949682508945
 23
2036.640426780912
 33
0.0
  0
SOLID
  5
1272
330
1F
100
AcDbEntity
  8
SUNPO
 62
   144
100
AcDbTrace
 10
3333.616349175611
 20
1972.657765319065
 30
0.0
 11
3348.283015842278
 21
1972.657765319065
 31
0.0
 12
3340.949682508945
 22
2016.657765319065
 32
0.0
 13
3340.949682508945
 23
2016.657765319065
 33
0.0
  0
LINE
  5
1273
330
1F
100
AcDbEntity
  8
SUNPO
 62
   144
100
AcDbLine
 10
3879.156943177513
 20
1896.657765319065
 30
0.0
 11
3879.156943177513
 21
1638.732746805684
 31
0.0
  0
LINE
  5
1274
330
1F
100
AcDbEntity
  8
SUNPO
 62
   144
100
AcDbLine
 10
3979.156943177514
 20
1896.657765319065
 30
0.0
 11
3979.156943177514
 21
1638.732746805684
 31
0.0
  0
LINE
  5
1275
330
1F
100
AcDbEntity
  8
SUNPO
 62
   144
100
AcDbLine
 10
3909.156943177513
 20
1648.732746805684
 30
0.0
 11
3949.156943177513
 21
1648.732746805684
 31
0.0
  0
SOLID
  5
1277
330
1F
100
AcDbEntity
  8
SUNPO
 62
   144
100
AcDbTrace
 10
3909.156943177513
 20
1653.732746805684
 30
0.0
 11
3909.156943177513
 21
1643.732746805684
 31
0.0
 12
3879.156943177513
 22
1648.732746805684
 32
0.0
 13
3879.156943177513
 23
1648.732746805684
 33
0.0
  0
SOLID
  5
1278
330
1F
100
AcDbEntity
  8
SUNPO
 62
   144
100
AcDbTrace
 10
3949.156943177513
 20
1653.732746805684
 30
0.0
 11
3949.156943177513
 21
1643.732746805684
 31
0.0
 12
3979.156943177514
 22
1648.732746805684
 32
0.0
 13
3979.156943177514
 23
1648.732746805684
 33
0.0
  0
LINE
  5
1279
330
1F
100
AcDbEntity
  8
SUNPO
 62
   144
100
AcDbLine
 10
3129.156943177513
 20
1896.657765319065
 30
0.0
 11
3129.156943177513
 21
1638.732746805684
 31
0.0
  0
LINE
  5
127A
330
1F
100
AcDbEntity
  8
SUNPO
 62
   144
100
AcDbLine
 10
3879.156943177513
 20
1896.657765319065
 30
0.0
 11
3879.156943177513
 21
1638.732746805684
 31
0.0
  0
LINE
  5
127B
330
1F
100
AcDbEntity
  8
SUNPO
 62
   144
100
AcDbLine
 10
3173.156943177513
 20
1648.732746805684
 30
0.0
 11
3835.156943177513
 21
1648.732746805684
 31
0.0
  0
SOLID
  5
127C
330
1F
100
AcDbEntity
  8
SUNPO
 62
   144
100
AcDbTrace
 10
3173.156943177513
 20
1656.066080139017
 30
0.0
 11
3173.156943177513
 21
1641.399413472351
 31
0.0
 12
3129.156943177513
 22
1648.732746805684
 32
0.0
 13
3129.156943177513
 23
1648.732746805684
 33
0.0
  0
SOLID
  5
127D
330
1F
100
AcDbEntity
  8
SUNPO
 62
   144
100
AcDbTrace
 10
3835.156943177513
 20
1656.066080139017
 30
0.0
 11
3835.156943177513
 21
1641.399413472351
 31
0.0
 12
3879.156943177513
 22
1648.732746805684
 32
0.0
 13
3879.156943177513
 23
1648.732746805684
 33
0.0
  0
LINE
  5
127F
330
1F
100
AcDbEntity
  8
SUNPO
 62
   144
100
AcDbLine
 10
3029.156943177513
 20
1896.657765319065
 30
0.0
 11
3029.156943177513
 21
1638.732746805684
 31
0.0
  0
LINE
  5
1280
330
1F
100
AcDbEntity
  8
SUNPO
 62
   144
100
AcDbLine
 10
3129.156943177513
 20
1896.657765319065
 30
0.0
 11
3129.156943177513
 21
1638.732746805684
 31
0.0
  0
LINE
  5
1281
330
1F
100
AcDbEntity
  8
SUNPO
 62
   144
100
AcDbLine
 10
3059.156943177513
 20
1648.732746805684
 30
0.0
 11
3099.156943177513
 21
1648.732746805684
 31
0.0
  0
SOLID
  5
1283
330
1F
100
AcDbEntity
  8
SUNPO
 62
   144
100
AcDbTrace
 10
3059.156943177513
 20
1653.732746805684
 30
0.0
 11
3059.156943177513
 21
1643.732746805684
 31
0.0
 12
3029.156943177513
 22
1648.732746805684
 32
0.0
 13
3029.156943177513
 23
1648.732746805684
 33
0.0
  0
SOLID
  5
1284
330
1F
100
AcDbEntity
  8
SUNPO
 62
   144
100
AcDbTrace
 10
3099.156943177513
 20
1653.732746805684
 30
0.0
 11
3099.156943177513
 21
1643.732746805684
 31
0.0
 12
3129.156943177513
 22
1648.732746805684
 32
0.0
 13
3129.156943177513
 23
1648.732746805684
 33
0.0
  0
LINE
  5
1285
330
1F
100
AcDbEntity
  8
SUNPO
 62
   144
100
AcDbLine
 10
3029.156943177513
 20
1896.657765319065
 30
0.0
 11
3029.156943177513
 21
1400.807728292304
 31
0.0
  0
LINE
  5
1286
330
1F
100
AcDbEntity
  8
SUNPO
 62
   144
100
AcDbLine
 10
3979.156943177514
 20
1896.657765319065
 30
0.0
 11
3979.156943177514
 21
1400.807728292304
 31
0.0
  0
LINE
  5
1287
330
1F
100
AcDbEntity
  8
SUNPO
 62
   144
100
AcDbLine
 10
3073.156943177513
 20
1410.807728292304
 30
0.0
 11
3935.156943177513
 21
1410.807728292304
 31
0.0
  0
SOLID
  5
1288
330
1F
100
AcDbEntity
  8
SUNPO
 62
   144
100
AcDbTrace
 10
3073.156943177513
 20
1418.141061625637
 30
0.0
 11
3073.156943177513
 21
1403.47439495897
 31
0.0
 12
3029.156943177513
 22
1410.807728292304
 32
0.0
 13
3029.156943177513
 23
1410.807728292304
 33
0.0
  0
SOLID
  5
1289
330
1F
100
AcDbEntity
  8
SUNPO
 62
   144
100
AcDbTrace
 10
3935.156943177513
 20
1418.141061625637
 30
0.0
 11
3935.156943177513
 21
1403.47439495897
 31
0.0
 12
3979.156943177514
 22
1410.807728292304
 32
0.0
 13
3979.156943177514
 23
1410.807728292304
 33
0.0
  0
TEXT
  5
128B
330
1F
100
AcDbEntity
  8
SUNPO
100
AcDbText
 10
2445.638814694684
 20
384.184634397292
 30
0.0
 40
50.0
  1
600×800
  7
ADD
100
AcDbText
1001
ACAD
1000
MTEXTBEGIN
1070
    73
1070
     1
1070
    44
1040
1.0
1070
    74
1070
     0
1000
MTEXTEND
  0
TEXT
  5
128C
330
1F
100
AcDbEntity
  8
SUNPO
100
AcDbText
 10
716.3449809950885
 20
365.4236157718478
 30
0.0
 40
50.0
  1
B型柵渠　杭
  7
ADD
100
AcDbText
1001
ACAD
1000
MTEXTBEGIN
1070
    73
1070
     1
1070
    44
1040
1.0
1070
    74
1070
     0
1000
MTEXTEND
  0
LINE
  5
128D
330
1F
100
AcDbEntity
  8
SUNPO
 62
   144
100
AcDbLine
 10
2287.677694377529
 20
2636.657765319065
 30
0.0
 11
2287.677694377529
 21
2795.129573934556
 31
0.0
  0
LINE
  5
128E
330
1F
100
AcDbEntity
  8
SUNPO
 62
   144
100
AcDbLine
 10
2292.677694377529
 20
2636.657765319065
 30
0.0
 11
2292.677694377529
 21
2795.129573934556
 31
0.0
  0
LINE
  5
128F
330
1F
100
AcDbEntity
  8
SUNPO
 62
   144
100
AcDbLine
 10
2243.677694377529
 20
2785.129573934557
 30
0.0
 11
2199.677694377529
 21
2785.129573934557
 31
0.0
  0
LINE
  5
1290
330
1F
100
AcDbEntity
  8
SUNPO
 62
   144
100
AcDbLine
 10
2336.677694377529
 20
2785.129573934557
 30
0.0
 11
2380.677694377529
 21
2785.129573934557
 31
0.0
  0
LINE
  5
1291
330
1F
100
AcDbEntity
  8
SUNPO
 62
   144
100
AcDbLine
 10
2287.677694377529
 20
2785.129573934557
 30
0.0
 11
2292.677694377529
 21
2785.129573934557
 31
0.0
  0
SOLID
  5
1292
330
1F
100
AcDbEntity
  8
SUNPO
 62
   144
100
AcDbTrace
 10
2243.677694377529
 20
2792.46290726789
 30
0.0
 11
2243.677694377529
 21
2777.796240601223
 31
0.0
 12
2287.677694377529
 22
2785.129573934557
 32
0.0
 13
2287.677694377529
 23
2785.129573934557
 33
0.0
  0
SOLID
  5
1293
330
1F
100
AcDbEntity
  8
SUNPO
 62
   144
100
AcDbTrace
 10
2336.677694377529
 20
2792.46290726789
 30
0.0
 11
2336.677694377529
 21
2777.796240601223
 31
0.0
 12
2292.677694377529
 22
2785.129573934557
 32
0.0
 13
2292.677694377529
 23
2785.129573934557
 33
0.0
  0
LINE
  5
1295
330
1F
100
AcDbEntity
  8
SUNPO
 62
   144
100
AcDbLine
 10
2212.677694377529
 20
2636.657765319065
 30
0.0
 11
2212.677694377529
 21
2795.129573934556
 31
0.0
  0
LINE
  5
1296
330
1F
100
AcDbEntity
  8
SUNPO
 62
   144
100
AcDbLine
 10
2217.677694377529
 20
2636.657765319065
 30
0.0
 11
2217.677694377529
 21
2795.129573934556
 31
0.0
  0
LINE
  5
1297
330
1F
100
AcDbEntity
  8
SUNPO
 62
   144
100
AcDbLine
 10
2168.677694377529
 20
2785.129573934557
 30
0.0
 11
2124.677694377529
 21
2785.129573934557
 31
0.0
  0
LINE
  5
1298
330
1F
100
AcDbEntity
  8
SUNPO
 62
   144
100
AcDbLine
 10
2261.677694377529
 20
2785.129573934557
 30
0.0
 11
2305.677694377529
 21
2785.129573934557
 31
0.0
  0
LINE
  5
1299
330
1F
100
AcDbEntity
  8
SUNPO
 62
   144
100
AcDbLine
 10
2212.677694377529
 20
2785.129573934557
 30
0.0
 11
2217.677694377529
 21
2785.129573934557
 31
0.0
  0
SOLID
  5
129A
330
1F
100
AcDbEntity
  8
SUNPO
 62
   144
100
AcDbTrace
 10
2168.677694377529
 20
2792.46290726789
 30
0.0
 11
2168.677694377529
 21
2777.796240601223
 31
0.0
 12
2212.677694377529
 22
2785.129573934557
 32
0.0
 13
2212.677694377529
 23
2785.129573934557
 33
0.0
  0
SOLID
  5
129B
330
1F
100
AcDbEntity
  8
SUNPO
 62
   144
100
AcDbTrace
 10
2261.677694377529
 20
2792.46290726789
 30
0.0
 11
2261.677694377529
 21
2777.796240601223
 31
0.0
 12
2217.677694377529
 22
2785.129573934557
 32
0.0
 13
2217.677694377529
 23
2785.129573934557
 33
0.0
  0
LINE
  5
129D
330
1F
100
AcDbEntity
  8
SUNPO
 62
   144
100
AcDbLine
 10
2217.677694377529
 20
2636.657765319065
 30
0.0
 11
2217.677694377529
 21
2957.61619864781
 31
0.0
  0
LINE
  5
129E
330
1F
100
AcDbEntity
  8
SUNPO
 62
   144
100
AcDbLine
 10
2287.677694377529
 20
2636.657765319065
 30
0.0
 11
2287.677694377529
 21
2957.61619864781
 31
0.0
  0
LINE
  5
129F
330
1F
100
AcDbEntity
  8
SUNPO
 62
   144
100
AcDbLine
 10
2173.677694377529
 20
2947.616198647811
 30
0.0
 11
2129.677694377529
 21
2947.616198647811
 31
0.0
  0
LINE
  5
12A0
330
1F
100
AcDbEntity
  8
SUNPO
 62
   144
100
AcDbLine
 10
2331.677694377529
 20
2947.616198647811
 30
0.0
 11
2375.677694377529
 21
2947.616198647811
 31
0.0
  0
LINE
  5
12A1
330
1F
100
AcDbEntity
  8
SUNPO
 62
   144
100
AcDbLine
 10
2217.677694377529
 20
2947.616198647811
 30
0.0
 11
2287.677694377529
 21
2947.616198647811
 31
0.0
  0
SOLID
  5
12A2
330
1F
100
AcDbEntity
  8
SUNPO
 62
   144
100
AcDbTrace
 10
2173.677694377529
 20
2954.949531981144
 30
0.0
 11
2173.677694377529
 21
2940.282865314477
 31
0.0
 12
2217.677694377529
 22
2947.616198647811
 32
0.0
 13
2217.677694377529
 23
2947.616198647811
 33
0.0
  0
SOLID
  5
12A3
330
1F
100
AcDbEntity
  8
SUNPO
 62
   144
100
AcDbTrace
 10
2331.677694377529
 20
2954.949531981144
 30
0.0
 11
2331.677694377529
 21
2940.282865314477
 31
0.0
 12
2287.677694377529
 22
2947.616198647811
 32
0.0
 13
2287.677694377529
 23
2947.616198647811
 33
0.0
  0
LINE
  5
12A5
330
1F
100
AcDbEntity
  8
SUNPO
 62
   144
100
AcDbLine
 10
2342.677694377529
 20
2636.657765319065
 30
0.0
 11
2342.677694377529
 21
2957.61619864781
 31
0.0
  0
LINE
  5
12A6
330
1F
100
AcDbEntity
  8
SUNPO
 62
   144
100
AcDbLine
 10
2292.677694377529
 20
2636.657765319065
 30
0.0
 11
2292.677694377529
 21
2957.61619864781
 31
0.0
  0
LINE
  5
12A7
330
1F
100
AcDbEntity
  8
SUNPO
 62
   144
100
AcDbLine
 10
2386.677694377529
 20
2947.616198647811
 30
0.0
 11
2430.677694377529
 21
2947.616198647811
 31
0.0
  0
LINE
  5
12A8
330
1F
100
AcDbEntity
  8
SUNPO
 62
   144
100
AcDbLine
 10
2248.677694377529
 20
2947.616198647811
 30
0.0
 11
2204.677694377529
 21
2947.616198647811
 31
0.0
  0
LINE
  5
12AA
330
1F
100
AcDbEntity
  8
SUNPO
 62
   144
100
AcDbLine
 10
2342.677694377529
 20
2947.616198647811
 30
0.0
 11
2292.677694377529
 21
2947.616198647811
 31
0.0
  0
SOLID
  5
12AB
330
1F
100
AcDbEntity
  8
SUNPO
 62
   144
100
AcDbTrace
 10
2386.677694377529
 20
2954.949531981144
 30
0.0
 11
2386.677694377529
 21
2940.282865314477
 31
0.0
 12
2342.677694377529
 22
2947.616198647811
 32
0.0
 13
2342.677694377529
 23
2947.616198647811
 33
0.0
  0
SOLID
  5
12AC
330
1F
100
AcDbEntity
  8
SUNPO
 62
   144
100
AcDbTrace
 10
2248.677694377529
 20
2954.949531981144
 30
0.0
 11
2248.677694377529
 21
2940.282865314477
 31
0.0
 12
2292.677694377529
 22
2947.616198647811
 32
0.0
 13
2292.677694377529
 23
2947.616198647811
 33
0.0
  0
LINE
  5
12AD
330
1F
100
AcDbEntity
  8
SUNPO
 62
   144
100
AcDbLine
 10
2162.677694377529
 20
2636.657765319065
 30
0.0
 11
2162.677694377529
 21
2957.61619864781
 31
0.0
  0
LINE
  5
12AE
330
1F
100
AcDbEntity
  8
SUNPO
 62
   144
100
AcDbLine
 10
2212.677694377529
 20
2636.657765319065
 30
0.0
 11
2212.677694377529
 21
2957.61619864781
 31
0.0
  0
LINE
  5
12AF
330
1F
100
AcDbEntity
  8
SUNPO
 62
   144
100
AcDbLine
 10
2118.677694377529
 20
2947.616198647811
 30
0.0
 11
2074.677694377529
 21
2947.616198647811
 31
0.0
  0
LINE
  5
12B0
330
1F
100
AcDbEntity
  8
SUNPO
 62
   144
100
AcDbLine
 10
2256.677694377529
 20
2947.616198647811
 30
0.0
 11
2300.677694377529
 21
2947.616198647811
 31
0.0
  0
LINE
  5
12B2
330
1F
100
AcDbEntity
  8
SUNPO
 62
   144
100
AcDbLine
 10
2162.677694377529
 20
2947.616198647811
 30
0.0
 11
2212.677694377529
 21
2947.616198647811
 31
0.0
  0
SOLID
  5
12B3
330
1F
100
AcDbEntity
  8
SUNPO
 62
   144
100
AcDbTrace
 10
2118.677694377529
 20
2954.949531981144
 30
0.0
 11
2118.677694377529
 21
2940.282865314477
 31
0.0
 12
2162.677694377529
 22
2947.616198647811
 32
0.0
 13
2162.677694377529
 23
2947.616198647811
 33
0.0
  0
SOLID
  5
12B4
330
1F
100
AcDbEntity
  8
SUNPO
 62
   144
100
AcDbTrace
 10
2256.677694377529
 20
2954.949531981144
 30
0.0
 11
2256.677694377529
 21
2940.282865314477
 31
0.0
 12
2212.677694377529
 22
2947.616198647811
 32
0.0
 13
2212.677694377529
 23
2947.616198647811
 33
0.0
  0
LINE
  5
12B5
330
1F
100
AcDbEntity
  8
SUNPO
 62
   144
100
AcDbLine
 10
3009.156943177513
 20
2016.657765319064
 30
0.0
 11
2842.990484527643
 21
2016.657765319064
 31
0.0
  0
LINE
  5
12B6
330
1F
100
AcDbEntity
  8
SUNPO
 62
   144
100
AcDbLine
 10
3009.156943177513
 20
1916.657765319065
 30
0.0
 11
2842.990484527643
 21
1916.657765319065
 31
0.0
  0
LINE
  5
12B7
330
1F
100
AcDbEntity
  8
SUNPO
 62
   144
100
AcDbLine
 10
2852.990484527643
 20
1986.657765319065
 30
0.0
 11
2852.990484527643
 21
1946.657765319065
 31
0.0
  0
SOLID
  5
12B9
330
1F
100
AcDbEntity
  8
SUNPO
 62
   144
100
AcDbTrace
 10
2847.990484527643
 20
1986.657765319065
 30
0.0
 11
2857.990484527643
 21
1986.657765319065
 31
0.0
 12
2852.990484527643
 22
2016.657765319064
 32
0.0
 13
2852.990484527643
 23
2016.657765319064
 33
0.0
  0
SOLID
  5
12BA
330
1F
100
AcDbEntity
  8
SUNPO
 62
   144
100
AcDbTrace
 10
2847.990484527643
 20
1946.657765319065
 30
0.0
 11
2857.990484527643
 21
1946.657765319065
 31
0.0
 12
2852.990484527643
 22
1916.657765319065
 32
0.0
 13
2852.990484527643
 23
1916.657765319065
 33
0.0
  0
LINE
  5
12BB
330
1F
100
AcDbEntity
  8
SUNPO
 62
   144
100
AcDbLine
 10
3009.156943177513
 20
2616.657765319065
 30
0.0
 11
2842.990484527643
 21
2616.657765319065
 31
0.0
  0
LINE
  5
12BC
330
1F
100
AcDbEntity
  8
SUNPO
 62
   144
100
AcDbLine
 10
3009.156943177513
 20
2016.657765319064
 30
0.0
 11
2842.990484527643
 21
2016.657765319064
 31
0.0
  0
LINE
  5
12BD
330
1F
100
AcDbEntity
  8
SUNPO
 62
   144
100
AcDbLine
 10
2852.990484527643
 20
2572.657765319065
 30
0.0
 11
2852.990484527643
 21
2060.657765319064
 31
0.0
  0
SOLID
  5
12BE
330
1F
100
AcDbEntity
  8
SUNPO
 62
   144
100
AcDbTrace
 10
2845.657151194309
 20
2572.657765319065
 30
0.0
 11
2860.323817860976
 21
2572.657765319065
 31
0.0
 12
2852.990484527643
 22
2616.657765319065
 32
0.0
 13
2852.990484527643
 23
2616.657765319065
 33
0.0
  0
SOLID
  5
12BF
330
1F
100
AcDbEntity
  8
SUNPO
 62
   144
100
AcDbTrace
 10
2845.657151194309
 20
2060.657765319064
 30
0.0
 11
2860.323817860976
 21
2060.657765319064
 31
0.0
 12
2852.990484527643
 22
2016.657765319064
 32
0.0
 13
2852.990484527643
 23
2016.657765319064
 33
0.0
  0
LINE
  5
12C1
330
1F
100
AcDbEntity
  8
SUNPO
 62
   144
100
AcDbLine
 10
3009.156943177513
 20
1916.657765319065
 30
0.0
 11
2650.448513682098
 21
1916.657765319065
 31
0.0
  0
LINE
  5
12C2
330
1F
100
AcDbEntity
  8
SUNPO
 62
   144
100
AcDbLine
 10
3009.156943177513
 20
2616.657765319065
 30
0.0
 11
2650.448513682098
 21
2616.657765319065
 31
0.0
  0
LINE
  5
12C3
330
1F
100
AcDbEntity
  8
SUNPO
 62
   144
100
AcDbLine
 10
2660.448513682098
 20
1960.657765319065
 30
0.0
 11
2660.448513682098
 21
2572.657765319065
 31
0.0
  0
SOLID
  5
12C4
330
1F
100
AcDbEntity
  8
SUNPO
 62
   144
100
AcDbTrace
 10
2653.115180348765
 20
1960.657765319065
 30
0.0
 11
2667.781847015432
 21
1960.657765319065
 31
0.0
 12
2660.448513682098
 22
1916.657765319065
 32
0.0
 13
2660.448513682098
 23
1916.657765319065
 33
0.0
  0
SOLID
  5
12C5
330
1F
100
AcDbEntity
  8
SUNPO
 62
   144
100
AcDbTrace
 10
2653.115180348765
 20
2572.657765319065
 30
0.0
 11
2667.781847015432
 21
2572.657765319065
 31
0.0
 12
2660.448513682098
 22
2616.657765319065
 32
0.0
 13
2660.448513682098
 23
2616.657765319065
 33
0.0
  0
LINE
  5
12C7
330
1F
100
AcDbEntity
  8
SUNPO
 62
   144
100
AcDbLine
 10
3904.156943177513
 20
2636.657765319065
 30
0.0
 11
3904.156943177513
 21
2792.264995605992
 31
0.0
  0
LINE
  5
12C8
330
1F
100
AcDbEntity
  8
SUNPO
 62
   144
100
AcDbLine
 10
3964.104927563054
 20
2634.159932636334
 30
0.0
 11
3964.104927563054
 21
2792.264995605992
 31
0.0
  0
LINE
  5
12C9
330
1F
100
AcDbEntity
  8
SUNPO
 62
   144
100
AcDbLine
 10
3860.156943177513
 20
2782.264995605992
 30
0.0
 11
3816.156943177513
 21
2782.264995605992
 31
0.0
  0
LINE
  5
12CA
330
1F
100
AcDbEntity
  8
SUNPO
 62
   144
100
AcDbLine
 10
4008.104927563055
 20
2782.264995605992
 30
0.0
 11
4052.104927563054
 21
2782.264995605992
 31
0.0
  0
LINE
  5
12CB
330
1F
100
AcDbEntity
  8
SUNPO
 62
   144
100
AcDbLine
 10
3904.156943177513
 20
2782.264995605992
 30
0.0
 11
3964.104927563054
 21
2782.264995605992
 31
0.0
  0
SOLID
  5
12CC
330
1F
100
AcDbEntity
  8
SUNPO
 62
   144
100
AcDbTrace
 10
3860.156943177513
 20
2789.598328939325
 30
0.0
 11
3860.156943177513
 21
2774.931662272658
 31
0.0
 12
3904.156943177513
 22
2782.264995605992
 32
0.0
 13
3904.156943177513
 23
2782.264995605992
 33
0.0
  0
SOLID
  5
12CD
330
1F
100
AcDbEntity
  8
SUNPO
 62
   144
100
AcDbTrace
 10
4008.104927563055
 20
2789.598328939325
 30
0.0
 11
4008.104927563055
 21
2774.931662272658
 31
0.0
 12
3964.104927563054
 22
2782.264995605992
 32
0.0
 13
3964.104927563054
 23
2782.264995605992
 33
0.0
  0
LINE
  5
12CF
330
1F
100
AcDbEntity
  8
SUNPO
 62
   144
100
AcDbLine
 10
3104.156943177513
 20
2636.657765319065
 30
0.0
 11
3104.156943177513
 21
2792.264995605992
 31
0.0
  0
LINE
  5
12D0
330
1F
100
AcDbEntity
  8
SUNPO
 62
   144
100
AcDbLine
 10
3044.208958791972
 20
2634.159932636334
 30
0.0
 11
3044.208958791972
 21
2792.264995605992
 31
0.0
  0
LINE
  5
12D1
330
1F
100
AcDbEntity
  8
SUNPO
 62
   144
100
AcDbLine
 10
3148.156943177513
 20
2782.264995605992
 30
0.0
 11
3192.156943177513
 21
2782.264995605992
 31
0.0
  0
LINE
  5
12D2
330
1F
100
AcDbEntity
  8
SUNPO
 62
   144
100
AcDbLine
 10
3000.208958791972
 20
2782.264995605992
 30
0.0
 11
2956.208958791972
 21
2782.264995605992
 31
0.0
  0
LINE
  5
12D3
330
1F
100
AcDbEntity
  8
SUNPO
 62
   144
100
AcDbLine
 10
3104.156943177513
 20
2782.264995605992
 30
0.0
 11
3044.208958791972
 21
2782.264995605992
 31
0.0
  0
SOLID
  5
12D4
330
1F
100
AcDbEntity
  8
SUNPO
 62
   144
100
AcDbTrace
 10
3148.156943177513
 20
2789.598328939325
 30
0.0
 11
3148.156943177513
 21
2774.931662272658
 31
0.0
 12
3104.156943177513
 22
2782.264995605992
 32
0.0
 13
3104.156943177513
 23
2782.264995605992
 33
0.0
  0
SOLID
  5
12D5
330
1F
100
AcDbEntity
  8
SUNPO
 62
   144
100
AcDbTrace
 10
3000.208958791972
 20
2789.598328939325
 30
0.0
 11
3000.208958791972
 21
2774.931662272658
 31
0.0
 12
3044.208958791972
 22
2782.264995605992
 32
0.0
 13
3044.208958791972
 23
2782.264995605992
 33
0.0
  0
LINE
  5
12D7
330
1F
100
AcDbEntity
  8
SUNPO
 62
   144
100
AcDbLine
 10
3904.156943177513
 20
2636.657765319065
 30
0.0
 11
3904.156943177513
 21
2957.61619864781
 31
0.0
  0
LINE
  5
12D8
330
1F
100
AcDbEntity
  8
SUNPO
 62
   144
100
AcDbLine
 10
3979.156943177514
 20
2636.657765319065
 30
0.0
 11
3979.156943177514
 21
2957.61619864781
 31
0.0
  0
LINE
  5
12D9
330
1F
100
AcDbEntity
  8
SUNPO
 62
   144
100
AcDbLine
 10
3860.156943177513
 20
2947.616198647811
 30
0.0
 11
3816.156943177513
 21
2947.616198647811
 31
0.0
  0
LINE
  5
12DA
330
1F
100
AcDbEntity
  8
SUNPO
 62
   144
100
AcDbLine
 10
4023.156943177514
 20
2947.616198647811
 30
0.0
 11
4067.156943177513
 21
2947.616198647811
 31
0.0
  0
LINE
  5
12DC
330
1F
100
AcDbEntity
  8
SUNPO
 62
   144
100
AcDbLine
 10
3904.156943177513
 20
2947.616198647811
 30
0.0
 11
3979.156943177514
 21
2947.616198647811
 31
0.0
  0
SOLID
  5
12DD
330
1F
100
AcDbEntity
  8
SUNPO
 62
   144
100
AcDbTrace
 10
3860.156943177513
 20
2954.949531981144
 30
0.0
 11
3860.156943177513
 21
2940.282865314477
 31
0.0
 12
3904.156943177513
 22
2947.616198647811
 32
0.0
 13
3904.156943177513
 23
2947.616198647811
 33
0.0
  0
SOLID
  5
12DE
330
1F
100
AcDbEntity
  8
SUNPO
 62
   144
100
AcDbTrace
 10
4023.156943177514
 20
2954.949531981144
 30
0.0
 11
4023.156943177514
 21
2940.282865314477
 31
0.0
 12
3979.156943177514
 22
2947.616198647811
 32
0.0
 13
3979.156943177514
 23
2947.616198647811
 33
0.0
  0
LINE
  5
12DF
330
1F
100
AcDbEntity
  8
SUNPO
 62
   144
100
AcDbLine
 10
3104.156943177513
 20
2636.657765319065
 30
0.0
 11
3104.156943177513
 21
2957.61619864781
 31
0.0
  0
LINE
  5
12E0
330
1F
100
AcDbEntity
  8
SUNPO
 62
   144
100
AcDbLine
 10
3904.156943177513
 20
2636.657765319065
 30
0.0
 11
3904.156943177513
 21
2957.61619864781
 31
0.0
  0
LINE
  5
12E1
330
1F
100
AcDbEntity
  8
SUNPO
 62
   144
100
AcDbLine
 10
3148.156943177513
 20
2947.616198647811
 30
0.0
 11
3860.156943177513
 21
2947.616198647811
 31
0.0
  0
SOLID
  5
12E2
330
1F
100
AcDbEntity
  8
SUNPO
 62
   144
100
AcDbTrace
 10
3148.156943177513
 20
2954.949531981144
 30
0.0
 11
3148.156943177513
 21
2940.282865314477
 31
0.0
 12
3104.156943177513
 22
2947.616198647811
 32
0.0
 13
3104.156943177513
 23
2947.616198647811
 33
0.0
  0
SOLID
  5
12E3
330
1F
100
AcDbEntity
  8
SUNPO
 62
   144
100
AcDbTrace
 10
3860.156943177513
 20
2954.949531981144
 30
0.0
 11
3860.156943177513
 21
2940.282865314477
 31
0.0
 12
3904.156943177513
 22
2947.616198647811
 32
0.0
 13
3904.156943177513
 23
2947.616198647811
 33
0.0
  0
LINE
  5
12E5
330
1F
100
AcDbEntity
  8
SUNPO
 62
   144
100
AcDbLine
 10
3029.156943177513
 20
2636.657765319065
 30
0.0
 11
3029.156943177513
 21
2957.61619864781
 31
0.0
  0
LINE
  5
12E6
330
1F
100
AcDbEntity
  8
SUNPO
 62
   144
100
AcDbLine
 10
3104.156943177513
 20
2636.657765319065
 30
0.0
 11
3104.156943177513
 21
2957.61619864781
 31
0.0
  0
LINE
  5
12E7
330
1F
100
AcDbEntity
  8
SUNPO
 62
   144
100
AcDbLine
 10
2985.156943177513
 20
2947.616198647811
 30
0.0
 11
2941.156943177513
 21
2947.616198647811
 31
0.0
  0
LINE
  5
12E8
330
1F
100
AcDbEntity
  8
SUNPO
 62
   144
100
AcDbLine
 10
3148.156943177513
 20
2947.616198647811
 30
0.0
 11
3192.156943177513
 21
2947.616198647811
 31
0.0
  0
LINE
  5
12EA
330
1F
100
AcDbEntity
  8
SUNPO
 62
   144
100
AcDbLine
 10
3029.156943177513
 20
2947.616198647811
 30
0.0
 11
3104.156943177513
 21
2947.616198647811
 31
0.0
  0
SOLID
  5
12EB
330
1F
100
AcDbEntity
  8
SUNPO
 62
   144
100
AcDbTrace
 10
2985.156943177513
 20
2954.949531981144
 30
0.0
 11
2985.156943177513
 21
2940.282865314477
 31
0.0
 12
3029.156943177513
 22
2947.616198647811
 32
0.0
 13
3029.156943177513
 23
2947.616198647811
 33
0.0
  0
SOLID
  5
12EC
330
1F
100
AcDbEntity
  8
SUNPO
 62
   144
100
AcDbTrace
 10
3148.156943177513
 20
2954.949531981144
 30
0.0
 11
3148.156943177513
 21
2940.282865314477
 31
0.0
 12
3104.156943177513
 22
2947.616198647811
 32
0.0
 13
3104.156943177513
 23
2947.616198647811
 33
0.0
  0
TEXT
  5
12ED
330
1F
100
AcDbEntity
  8
SUNPO
100
AcDbText
 10
3246.680311730542
 20
359.2274732162223
 30
0.0
 40
70.0
  1
１／２０
  7
ADD
100
AcDbText
1001
ACAD
1000
MTEXTBEGIN
1070
    73
1070
     1
1070
    44
1040
1.0
1070
    74
1070
     0
1000
MTEXTEND
  0
TEXT
  5
12EE
330
1F
100
AcDbEntity
  8
SUNPO
100
AcDbText
 10
381.8862574011546
 20
488.6918916770627
 30
0.0
 40
50.0
  1
製品名
  7
ADD
100
AcDbText
1001
ACAD
1000
MTEXTBEGIN
1070
    73
1070
     1
1070
    44
1040
1.0
1070
    74
1070
     0
1000
MTEXTEND
  0
TEXT
  5
12EF
330
1F
100
AcDbEntity
  8
SUNPO
100
AcDbText
 10
2376.290169028722
 20
494.4531736811823
 30
0.0
 40
50.0
  1
型式
  7
ADD
100
AcDbText
1001
ACAD
1000
MTEXTBEGIN
1070
    73
1070
     1
1070
    44
1040
1.0
1070
    74
1070
     0
1000
MTEXTEND
  0
TEXT
  5
12F0
330
1F
100
AcDbEntity
  8
SUNPO
100
AcDbText
 10
3177.510249231658
 20
488.6918916770627
 30
0.0
 40
50.0
  1
縮尺
  7
ADD
100
AcDbText
1001
ACAD
1000
MTEXTBEGIN
1070
    73
1070
     1
1070
    44
1040
1.0
1070
    74
1070
     0
1000
MTEXTEND
  0
TEXT
  5
12F1
330
1F
100
AcDbEntity
  8
SUNPO
100
AcDbText
 10
3730.870883051572
 20
352.2726133092145
 30
0.0
 40
100.0
  1
千葉県コンクリート製品協同組合
  7
ADD
100
AcDbText
1001
ACAD
1000
MTEXTBEGIN
1070
    73
1070
     1
1070
    44
1040
1.0
1070
    74
1070
     0
1000
MTEXTEND
  0
LINE
  5
12F2
330
1F
100
AcDbEntity
  8
HOJO
100
AcDbLine
 10
360.0
 20
260.0
 30
0.0
 11
5580.0
 21
260.0
 31
0.0
  0
LINE
  5
12F3
330
1F
100
AcDbEntity
  8
HOJO
100
AcDbLine
 10
5580.0
 20
260.0
 30
0.0
 11
5580.0
 21
3940.0
 31
0.0
  0
LINE
  5
12F4
330
1F
100
AcDbEntity
  8
HOJO
100
AcDbLine
 10
5580.0
 20
3940.0
 30
0.0
 11
360.0
 21
3940.0
 31
0.0
  0
LINE
  5
12F5
330
1F
100
AcDbEntity
  8
HOJO
100
AcDbLine
 10
360.0
 20
3940.0
 30
0.0
 11
360.0
 21
260.0
 31
0.0
  0
LINE
  5
12F6
330
1F
100
AcDbEntity
  8
HOJO
100
AcDbLine
 10
0.0
 20
0.0
 30
0.0
 11
5940.0
 21
0.0
 31
0.0
  0
LINE
  5
12F7
330
1F
100
AcDbEntity
  8
HOJO
100
AcDbLine
 10
5940.0
 20
0.0
 30
0.0
 11
5940.0
 21
4200.0
 31
0.0
  0
LINE
  5
12F8
330
1F
100
AcDbEntity
  8
HOJO
100
AcDbLine
 10
5940.0
 20
4200.0
 30
0.0
 11
0.0
 21
4200.0
 31
0.0
  0
LINE
  5
12F9
330
1F
100
AcDbEntity
  8
HOJO
100
AcDbLine
 10
0.0
 20
4200.0
 30
0.0
 11
0.0
 21
0.0
 31
0.0
  0
TEXT
  5
12FA
330
1F
100
AcDbEntity
  8
SUNPO
 62
     7
100
AcDbText
 10
2916.771367817384
 20
2964.520443761808
 30
0.0
 40
50.0
  1
75
  7
ADD
100
AcDbText
1001
ACAD
1000
MTEXTBEGIN
1070
    73
1070
     1
1070
    44
1040
1.0
1070
    74
1070
     0
1000
MTEXTEND
  0
TEXT
  5
12FB
330
1F
100
AcDbEntity
  8
SUNPO
 62
     7
100
AcDbText
 10
3432.728371748941
 20
2960.116198647811
 30
0.0
 40
50.0
  1
800
  7
ADD
100
AcDbText
1001
ACAD
1000
MTEXTBEGIN
1070
    73
1070
     1
1070
    44
1040
1.0
1070
    74
1070
     0
1000
MTEXTEND
  0
TEXT
  5
12FC
330
1F
100
AcDbEntity
  8
SUNPO
 62
     7
100
AcDbText
 10
3993.055370545558
 20
2961.561915583623
 30
0.0
 40
50.0
  1
75
  7
ADD
100
AcDbText
1001
ACAD
1000
MTEXTBEGIN
1070
    73
1070
     1
1070
    44
1040
1.0
1070
    74
1070
     0
1000
MTEXTEND
  0
TEXT
  5
12FD
330
1F
100
AcDbEntity
  8
SUNPO
 62
     7
100
AcDbText
 10
3025.373427175219
 20
2794.764995605992
 30
0.0
 40
50.0
  1
60
  7
ADD
100
AcDbText
1001
ACAD
1000
MTEXTBEGIN
1070
    73
1070
     1
1070
    44
1040
1.0
1070
    74
1070
     0
1000
MTEXTEND
  0
TEXT
  5
12FE
330
1F
100
AcDbEntity
  8
SUNPO
 62
     7
100
AcDbText
 10
3885.321411560759
 20
2794.764995605992
 30
0.0
 40
50.0
  1
60
  7
ADD
100
AcDbText
1001
ACAD
1000
MTEXTBEGIN
1070
    73
1070
     1
1070
    44
1040
1.0
1070
    74
1070
     0
1000
MTEXTEND
  0
TEXT
  5
12FF
330
1F
100
AcDbEntity
  8
SUNPO
 62
     7
100
AcDbText
 10
2647.948513682098
 20
2195.229193890494
 30
0.0
 40
50.0
  1
700
 50
90.0
  7
ADD
100
AcDbText
1001
ACAD
1000
MTEXTBEGIN
1070
    73
1070
     1
1070
    44
1040
1.0
1070
    74
1070
     0
1000
MTEXTEND
  0
TEXT
  5
1300
330
1F
100
AcDbEntity
  8
SUNPO
 62
     7
100
AcDbText
 10
2840.490484527643
 20
2244.038717700017
 30
0.0
 40
50.0
  1
600
 50
90.0
  7
ADD
100
AcDbText
1001
ACAD
1000
MTEXTBEGIN
1070
    73
1070
     1
1070
    44
1040
1.0
1070
    74
1070
     0
1000
MTEXTEND
  0
TEXT
  5
1301
330
1F
100
AcDbEntity
  8
SUNPO
 62
     7
100
AcDbText
 10
2836.982120238932
 20
1885.925968443661
 30
0.0
 40
50.0
  1
100
 50
90.0
  7
ADD
100
AcDbText
1001
ACAD
1000
MTEXTBEGIN
1070
    73
1070
     1
1070
    44
1040
1.0
1070
    74
1070
     0
1000
MTEXTEND
  0
TEXT
  5
1302
330
1F
100
AcDbEntity
  8
SUNPO
 62
     7
100
AcDbText
 10
2053.485677424536
 20
2962.086481232296
 30
0.0
 40
50.0
  1
50
  7
ADD
100
AcDbText
1001
ACAD
1000
MTEXTBEGIN
1070
    73
1070
     1
1070
    44
1040
1.0
1070
    74
1070
     0
1000
MTEXTEND
  0
TEXT
  5
1303
330
1F
100
AcDbEntity
  8
SUNPO
 62
     7
100
AcDbText
 10
2352.963145998501
 20
2957.900651204676
 30
0.0
 40
50.0
  1
50
  7
ADD
100
AcDbText
1001
ACAD
1000
MTEXTBEGIN
1070
    73
1070
     1
1070
    44
1040
1.0
1070
    74
1070
     0
1000
MTEXTEND
  0
TEXT
  5
1304
330
1F
100
AcDbEntity
  8
SUNPO
 62
     7
100
AcDbText
 10
2205.058646758482
 20
2960.116198647811
 30
0.0
 40
50.0
  1
70
  7
ADD
100
AcDbText
1001
ACAD
1000
MTEXTBEGIN
1070
    73
1070
     1
1070
    44
1040
1.0
1070
    74
1070
     0
1000
MTEXTEND
  0
TEXT
  5
1305
330
1F
100
AcDbEntity
  8
SUNPO
 62
     7
100
AcDbText
 10
2191.368170568005
 20
2797.629573934557
 30
0.0
 40
50.0
  1
5
  7
ADD
100
AcDbText
1001
ACAD
1000
MTEXTBEGIN
1070
    73
1070
     1
1070
    44
1040
1.0
1070
    74
1070
     0
1000
MTEXTEND
  0
TEXT
  5
1306
330
1F
100
AcDbEntity
  8
SUNPO
 62
     7
100
AcDbText
 10
2266.368170568005
 20
2797.629573934557
 30
0.0
 40
50.0
  1
5
  7
ADD
100
AcDbText
1001
ACAD
1000
MTEXTBEGIN
1070
    73
1070
     1
1070
    44
1040
1.0
1070
    74
1070
     0
1000
MTEXTEND
  0
TEXT
  5
1307
330
1F
100
AcDbEntity
  8
SUNPO
 62
     7
100
AcDbText
 10
3447.014086034656
 20
1423.307728292304
 30
0.0
 40
40.0
  1
950
  7
ADD
100
AcDbText
1001
ACAD
1000
MTEXTBEGIN
1070
    73
1070
     1
1070
    44
1040
1.0
1070
    74
1070
     0
1000
MTEXTEND
  0
TEXT
  5
1308
330
1F
100
AcDbEntity
  8
SUNPO
 62
     7
100
AcDbText
 10
3019.156943177513
 20
1681.232746805684
 30
0.0
 40
40.0
  1
100
  7
ADD
100
AcDbText
1001
ACAD
1000
MTEXTBEGIN
1070
    73
1070
     1
1070
    44
1040
1.0
1070
    74
1070
     0
1000
MTEXTEND
  0
TEXT
  5
1309
330
1F
100
AcDbEntity
  8
SUNPO
 62
     7
100
AcDbText
 10
3447.014086034656
 20
1661.232746805684
 30
0.0
 40
40.0
  1
750
  7
ADD
100
AcDbText
1001
ACAD
1000
MTEXTBEGIN
1070
    73
1070
     1
1070
    44
1040
1.0
1070
    74
1070
     0
1000
MTEXTEND
  0
TEXT
  5
130A
330
1F
100
AcDbEntity
  8
SUNPO
 62
     7
100
AcDbText
 10
3869.156943177513
 20
1681.232746805684
 30
0.0
 40
40.0
  1
100
  7
ADD
100
AcDbText
1001
ACAD
1000
MTEXTBEGIN
1070
    73
1070
     1
1070
    44
1040
1.0
1070
    74
1070
     0
1000
MTEXTEND
  0
TEXT
  5
130B
330
1F
100
AcDbEntity
  8
SUNPO
 62
     7
100
AcDbText
 10
3328.449682508944
 20
2052.070688291109
 30
0.0
 40
40.0
  1
20
 50
90.0
  7
ADD
100
AcDbText
1001
ACAD
1000
MTEXTBEGIN
1070
    73
1070
     1
1070
    44
1040
1.0
1070
    74
1070
     0
1000
MTEXTEND
  0
TEXT
  5
130C
330
1F
100
AcDbEntity
  8
SUNPO
 62
     7
100
AcDbText
 10
3165.135282630648
 20
2164.834342684744
 30
0.0
 40
40.0
  1
20
  7
ADD
100
AcDbText
1001
ACAD
1000
MTEXTBEGIN
1070
    73
1070
     1
1070
    44
1040
1.0
1070
    74
1070
     0
1000
MTEXTEND
  0
TEXT
  5
130D
330
1F
100
AcDbEntity
  8
SUNPO
 62
     7
100
AcDbText
 10
2192.677694377529
 20
1423.307728292304
 30
0.0
 40
40.0
  1
180
  7
ADD
100
AcDbText
1001
ACAD
1000
MTEXTBEGIN
1070
    73
1070
     1
1070
    44
1040
1.0
1070
    74
1070
     0
1000
MTEXTEND
  0
VIEWPORT
  5
72
330
1B
100
AcDbEntity
 67
     1
  8
0
100
AcDbViewport
 10
429.8380103383459
 20
277.0
 30
0.0
 40
948.9782706766918
 41
628.4520000000001
 68
     1
 69
     1
1001
ACAD
1000
MVIEW
1002
{
1070
    16
1010
0.0
1020
0.0
1030
0.0
1010
0.0
1020
0.0
1030
1.0
1040
0.0
1040
628.4520000000001
1040
429.8380103383459
1040
277.0
1040
50.0
1040
0.0
1040
0.0
1070
     0
1070
   100
1070
     1
1070
     1
1070
     0
1070
     0
1070
     0
1070
     0
1040
0.0
1040
0.0
1040
0.0
1040
10.0
1040
10.0
1040
10.0
1040
10.0
1070
     0
1002
{
1002
}
1002
}
  0
VIEWPORT
  5
74
330
1B
100
AcDbEntity
 67
     1
  8
VIEWPORT
100
AcDbViewport
 10
414.3779638919211
 20
277.3177265058034
 30
0.0
 40
840.0353682728887
 41
567.2285469943826
 68
     2
 69
     2
1001
ACAD
1000
MVIEW
1002
{
1070
    16
1010
0.0
1020
0.0
1030
0.0
1010
0.0
1020
0.0
1030
1.0
1040
0.0
1040
579.5583043546323
1040
424.4938908624541
1040
286.1973242720074
1040
50.0
1040
0.0
1040
0.0
1070
     0
1070
   100
1070
     1
1070
     1
1070
     0
1070
     0
1070
     0
1070
     0
1040
0.0
1040
0.0
1040
0.0
1040
10.0
1040
10.0
1040
10.0
1040
10.0
1070
     0
1002
{
1002
}
1002
}
  0
ENDSEC
  0
SECTION
  2
OBJECTS
  0
DICTIONARY
  5
C
330
0
100
AcDbDictionary
  3
ACAD_GROUP
350
D
  3
ACAD_LAYOUT
350
1A
  3
ACAD_MLINESTYLE
350
17
  3
ACAD_PLOTSETTINGS
350
19
  3
DWGPROPS
350
4C7
1001
ACAD
1000
TREAT_AS_HARD
1070
     0
  0
DICTIONARY
  5
11E0
330
1F
100
AcDbDictionary
  3
ACAD_LAYOUTSELFREF
350
1310
1001
ACAD
1000
TREAT_AS_HARD
1070
     1
  0
DICTIONARY
  5
11E2
330
1B
100
AcDbDictionary
  3
ACAD_LAYOUTSELFREF
350
130F
1001
ACAD
1000
TREAT_AS_HARD
1070
     1
  0
DICTIONARY
  5
D
102
{ACAD_REACTORS
330
C
102
}
330
C
100
AcDbDictionary
1001
ACAD
1000
TREAT_AS_HARD
1070
     0
  0
DICTIONARY
  5
1A
102
{ACAD_REACTORS
330
C
102
}
330
C
100
AcDbDictionary
1001
ACAD
1000
TREAT_AS_HARD
1070
     0
  0
DICTIONARY
  5
17
102
{ACAD_REACTORS
330
C
102
}
330
C
100
AcDbDictionary
  3
STANDARD
350
18
1001
ACAD
1000
TREAT_AS_HARD
1070
     0
  0
DICTIONARY
  5
19
102
{ACAD_REACTORS
330
C
102
}
330
C
100
AcDbDictionary
1001
ACAD
1000
TREAT_AS_HARD
1070
     0
  0
XRECORD
  5
4C7
102
{ACAD_REACTORS
330
C
102
}
330
C
100
AcDbXrecord
  1
DWGPROPS COOKIE
  2
印刷用テスト
  3
AutoCAD2000による建築設計
  4
鈴木 裕二
  6

  7

  8
U2
  9

300
=
301
=
302
=
303
=
304
=
305
=
306
=
307
=
308
=
309
=
 40
0.7653446875
 41
2451285.4846114
 42
2451333.689743032
  1

 90
        0
  0
XRECORD
  5
1310
102
{ACAD_REACTORS
330
11E0
102
}
330
11E0
100
AcDbXrecord
340
1F
  0
XRECORD
  5
130F
102
{ACAD_REACTORS
330
11E2
102
}
330
11E2
100
AcDbXrecord
340
1B
  0
MLINESTYLE
  5
18
102
{ACAD_REACTORS
330
17
102
}
330
17
100
AcDbMlineStyle
  2
STANDARD
 70
     0
  3

 62
   256
 51
90.0
 52
90.0
 71
     2
 49
0.5
 62
   256
  6
BYLAYER
 49
-0.5
 62
   256
  6
BYLAYER
  0
ENDSEC
  0
EOF
