  0
SECTION
  2
HEADER
  9
$ACADVER
  1
AC1012
  9
$DWGCODEPAGE
  3
dos932
  9
$INSBASE
 10
0.0
 20
0.0
 30
0.0
  9
$EXTMIN
 10
0.0
 20
0.0
 30
0.0
  9
$EXTMAX
 10
5940.0
 20
4200.0
 30
0.0
  9
$LIMMIN
 10
0.0
 20
0.0
  9
$LIMMAX
 10
5940.0
 20
4200.0
  9
$ORTHOMODE
 70
     0
  9
$REGENMODE
 70
     1
  9
$FILLMODE
 70
     1
  9
$QTEXTMODE
 70
     0
  9
$MIRRTEXT
 70
     0
  9
$DRAGMODE
 70
     2
  9
$LTSCALE
 40
10.0
  9
$OSMODE
 70
    37
  9
$ATTMODE
 70
     1
  9
$TEXTSIZE
 40
50.0
  9
$TRACEWID
 40
1.0
  9
$TEXTSTYLE
  7
ADD
  9
$CLAYER
  8
SUNPO
  9
$CELTYPE
  6
BYLAYER
  9
$CECOLOR
 62
   256
  9
$CELTSCALE
 40
1.0
  9
$DELOBJ
 70
     1
  9
$DISPSILH
 70
     0
  9
$DIMSCALE
 40
20.0
  9
$DIMASZ
 40
2.5
  9
$DIMEXO
 40
1.0
  9
$DIMDLI
 40
7.0
  9
$DIMRND
 40
0.0
  9
$DIMDLE
 40
0.0
  9
$DIMEXE
 40
0.5
  9
$DIMTP
 40
0.0
  9
$DIMTM
 40
0.0
  9
$DIMTXT
 40
2.5
  9
$DIMCEN
 40
2.5
  9
$DIMTSZ
 40
0.0
  9
$DIMTOL
 70
     0
  9
$DIMLIM
 70
     0
  9
$DIMTIH
 70
     0
  9
$DIMTOH
 70
     0
  9
$DIMSE1
 70
     0
  9
$DIMSE2
 70
     0
  9
$DIMTAD
 70
     1
  9
$DIMZIN
 70
     8
  9
$DIMBLK
  1

  9
$DIMASO
 70
     1
  9
$DIMSHO
 70
     1
  9
$DIMPOST
  1

  9
$DIMAPOST
  1

  9
$DIMALT
 70
     0
  9
$DIMALTD
 70
     3
  9
$DIMALTF
 40
0.03937007874016
  9
$DIMLFAC
 40
1.0
  9
$DIMTOFL
 70
     1
  9
$DIMTVP
 40
0.7
  9
$DIMTIX
 70
     1
  9
$DIMSOXD
 70
     0
  9
$DIMSAH
 70
     0
  9
$DIMBLK1
  1

  9
$DIMBLK2
  1

  9
$DIMSTYLE
  2
ADD
  9
$DIMCLRD
 70
   144
  9
$DIMCLRE
 70
   144
  9
$DIMCLRT
 70
     7
  9
$DIMTFAC
 40
1.0
  9
$DIMGAP
 40
0.625
  9
$DIMJUST
 70
     0
  9
$DIMSD1
 70
     0
  9
$DIMSD2
 70
     0
  9
$DIMTOLJ
 70
     2
  9
$DIMTZIN
 70
     8
  9
$DIMALTZ
 70
     0
  9
$DIMALTTZ
 70
     0
  9
$DIMFIT
 70
     5
  9
$DIMUPT
 70
     0
  9
$DIMUNIT
 70
     2
  9
$DIMDEC
 70
     1
  9
$DIMTDEC
 70
     1
  9
$DIMALTU
 70
     2
  9
$DIMALTTD
 70
     3
  9
$DIMTXSTY
  7
ADD
  9
$DIMAUNIT
 70
     0
  9
$LUNITS
 70
     2
  9
$LUPREC
 70
     4
  9
$SKETCHINC
 40
1.0
  9
$FILLETRAD
 40
0.0
  9
$AUNITS
 70
     0
  9
$AUPREC
 70
     1
  9
$MENU
  1
.
  9
$ELEVATION
 40
0.0
  9
$PELEVATION
 40
0.0
  9
$THICKNESS
 40
0.0
  9
$LIMCHECK
 70
     0
  9
$BLIPMODE
 70
     0
  9
$CHAMFERA
 40
20.0
  9
$CHAMFERB
 40
20.0
  9
$CHAMFERC
 40
20.0
  9
$CHAMFERD
 40
0.0
  9
$SKPOLY
 70
     0
  9
$TDCREATE
 40
2451801.142532870
  9
$TDUPDATE
 40
2451865.576383379
  9
$TDINDWG
 40
0.1117612269
  9
$TDUSRTIMER
 40
0.1117612269
  9
$USRTIMER
 70
     1
  9
$ANGBASE
 50
0.0
  9
$ANGDIR
 70
     0
  9
$PDMODE
 70
     0
  9
$PDSIZE
 40
0.0
  9
$PLINEWID
 40
0.0
  9
$COORDS
 70
     2
  9
$SPLFRAME
 70
     0
  9
$SPLINETYPE
 70
     6
  9
$SPLINESEGS
 70
     8
  9
$ATTDIA
 70
     0
  9
$ATTREQ
 70
     1
  9
$HANDLING
 70
 10241
  9
$HANDSEED
  5
150F
  9
$SURFTAB1
 70
     6
  9
$SURFTAB2
 70
     6
  9
$SURFTYPE
 70
     6
  9
$SURFU
 70
     6
  9
$SURFV
 70
     6
  9
$UCSNAME
  2

  9
$UCSORG
 10
0.0
 20
0.0
 30
0.0
  9
$UCSXDIR
 10
1.0
 20
0.0
 30
0.0
  9
$UCSYDIR
 10
0.0
 20
1.0
 30
0.0
  9
$PUCSNAME
  2

  9
$PUCSORG
 10
0.0
 20
0.0
 30
0.0
  9
$PUCSXDIR
 10
1.0
 20
0.0
 30
0.0
  9
$PUCSYDIR
 10
0.0
 20
1.0
 30
0.0
  9
$USERI1
 70
     0
  9
$USERI2
 70
     0
  9
$USERI3
 70
     0
  9
$USERI4
 70
     0
  9
$USERI5
 70
     0
  9
$USERR1
 40
841.0
  9
$USERR2
 40
594.0
  9
$USERR3
 40
1.0
  9
$USERR4
 40
0.0
  9
$USERR5
 40
0.0
  9
$WORLDVIEW
 70
     1
  9
$SHADEDGE
 70
     3
  9
$SHADEDIF
 70
    70
  9
$TILEMODE
 70
     1
  9
$MAXACTVP
 70
    48
  9
$PINSBASE
 10
0.0
 20
0.0
 30
0.0
  9
$PLIMCHECK
 70
     0
  9
$PEXTMIN
 10
-5.662975978526674
 20
-6.331907780761866
 30
-0.0015258207003583
  9
$PEXTMAX
 10
834.4213426047982
 20
560.9663709967471
 30
0.0000000349246037
  9
$PLIMMIN
 10
-7.500000000000001
 20
-20.0
  9
$PLIMMAX
 10
833.5000000000002
 20
574.0000000000001
  9
$UNITMODE
 70
     0
  9
$VISRETAIN
 70
     1
  9
$PLINEGEN
 70
     0
  9
$PSLTSCALE
 70
     1
  9
$TREEDEPTH
 70
  3020
  9
$PICKSTYLE
 70
     1
  9
$CMLSTYLE
  2
STANDARD
  9
$CMLJUST
 70
     0
  9
$CMLSCALE
 40
20.0
  9
$SAVEIMAGES
 70
     1
  0
ENDSEC
  0
SECTION
  2
CLASSES
  0
CLASS
  1
ACDBDICTIONARYWDFLT
  2
AcDbDictionaryWithDefault
  3
AutoCAD 2000
 90
    32768
280
     0
281
     0
  0
CLASS
  1
ACDBPLACEHOLDER
  2
AcDbPlaceHolder
  3
AutoCAD 2000
 90
    32768
280
     0
281
     0
  0
CLASS
  1
LAYOUT
  2
AcDbLayout
  3
AutoCAD 2000
 90
    32768
280
     0
281
     0
  0
CLASS
  1
RTEXT
  2
RText
  3
RText|AutoCAD Express Tool|expresstools@autodesk.com
 90
    32768
280
     0
281
     1
  0
CLASS
  1
DICTIONARYVAR
  2
AcDbDictionaryVar
  3
AutoCAD 2000
 90
    32768
280
     0
281
     0
  0
CLASS
  1
LONG_TRANSACTION
  2
AcDbLongTransaction
  3
AutoCAD 2000
 90
    32768
280
     0
281
     0
  0
CLASS
  1
LWPOLYLINE
  2
AcDbPolyline
  3
AutoCAD 2000
 90
    32768
280
     0
281
     1
  0
CLASS
  1
HATCH
  2
AcDbHatch
  3
AutoCAD 2000
 90
    32768
280
     0
281
     1
  0
CLASS
  1
XRECORD
  2
AcDbXrecord
  3
AutoCAD 2000
 90
    32768
280
     0
281
     0
  0
CLASS
  1
LONG_TRANSACTION
  2
AcDbLongTransaction
  3
AutoCAD 2000
 90
    32768
280
     0
281
     0
  0
CLASS
  1
LWPOLYLINE
  2
AcDbPolyline
  3
AutoCAD 2000
 90
    32768
280
     0
281
     1
  0
CLASS
  1
HATCH
  2
AcDbHatch
  3
AutoCAD 2000
 90
    32768
280
     0
281
     1
  0
CLASS
  1
XRECORD
  2
AcDbXrecord
  3
AutoCAD 2000
 90
    32768
280
     0
281
     0
  0
ENDSEC
  0
SECTION
  2
TABLES
  0
TABLE
  2
VPORT
  5
8
330
0
100
AcDbSymbolTable
 70
     2
  0
VPORT
  5
14FF
330
8
100
AcDbSymbolTableRecord
100
AcDbViewportTableRecord
  2
*ACTIVE
 70
     0
 10
0.0
 20
0.0
 11
1.0
 21
1.0
 12
3044.311204781534
 22
2100.000009778887
 13
0.0
 23
0.0
 14
10.0
 24
10.0
 15
10.0
 25
10.0
 16
0.0
 26
0.0
 36
1.0
 17
0.0
 27
0.0
 37
0.0
 40
4232.985617898028
 41
1.461638491547464
 42
50.0
 43
0.0
 44
0.0
 50
0.0
 51
0.0
 71
     0
 72
   100
 73
     1
 74
     1
 75
     0
 76
     0
 77
     0
 78
     0
  0
ENDTAB
  0
TABLE
  2
LTYPE
  5
5
330
0
100
AcDbSymbolTable
 70
     5
  0
LTYPE
  5
14
330
5
100
AcDbSymbolTableRecord
100
AcDbLinetypeTableRecord
  2
BYBLOCK
 70
     0
  3

 72
    65
 73
     0
 40
0.0
  0
LTYPE
  5
15
330
5
100
AcDbSymbolTableRecord
100
AcDbLinetypeTableRecord
  2
BYLAYER
 70
     0
  3

 72
    65
 73
     0
 40
0.0
  0
LTYPE
  5
16
330
5
100
AcDbSymbolTableRecord
100
AcDbLinetypeTableRecord
  2
CONTINUOUS
 70
     0
  3
Solid line
 72
    65
 73
     0
 40
0.0
  0
LTYPE
  5
555
330
5
100
AcDbSymbolTableRecord
100
AcDbLinetypeTableRecord
  2
CENTER
 70
     0
  3
Center ____ _ ____ _ ____ _ ____ _ ____ _ ____
 72
    65
 73
     4
 40
50.8
 49
31.75
 74
     0
 49
-6.349999999999999
 74
     0
 49
6.349999999999999
 74
     0
 49
-6.349999999999999
 74
     0
  0
LTYPE
  5
556
330
5
100
AcDbSymbolTableRecord
100
AcDbLinetypeTableRecord
  2
HIDDEN
 70
     0
  3
Hidden __ __ __ __ __ __ __ __ __ __ __ __ __ _
 72
    65
 73
     2
 40
9.524999999999998
 49
6.349999999999999
 74
     0
 49
-3.174999999999999
 74
     0
  0
LTYPE
  5
557
330
5
100
AcDbSymbolTableRecord
100
AcDbLinetypeTableRecord
  2
HIDDEN2
 70
     0
  3
Hidden (.5x) _ _ _ _ _ _ _ _ _ _ _ _ _ _ _ _ _
 72
    65
 73
     2
 40
4.762499999999999
 49
3.174999999999999
 74
     0
 49
-1.587499999999999
 74
     0
  0
LTYPE
  5
558
330
5
100
AcDbSymbolTableRecord
100
AcDbLinetypeTableRecord
  2
PHANTOM
 70
     0
  3
Phantom ______  __  __  ______  __  __  ______
 72
    65
 73
     6
 40
63.5
 49
31.75
 74
     0
 49
-6.349999999999999
 74
     0
 49
6.349999999999999
 74
     0
 49
-6.349999999999999
 74
     0
 49
6.349999999999999
 74
     0
 49
-6.349999999999999
 74
     0
  0
ENDTAB
  0
TABLE
  2
LAYER
  5
2
330
0
100
AcDbSymbolTable
 70
    22
  0
LAYER
  5
10
330
2
100
AcDbSymbolTableRecord
100
AcDbLayerTableRecord
  2
0
 70
     0
 62
     7
  6
CONTINUOUS
  0
LAYER
  5
75
330
2
100
AcDbSymbolTableRecord
100
AcDbLayerTableRecord
  2
VIEWPORT
 70
     0
 62
     1
  6
CONTINUOUS
  0
LAYER
  5
504
330
2
100
AcDbSymbolTableRecord
100
AcDbLayerTableRecord
  2
DEFPOINTS
 70
     0
 62
     7
  6
CONTINUOUS
  0
LAYER
  5
505
330
2
100
AcDbSymbolTableRecord
100
AcDbLayerTableRecord
  2
1C1
 70
     0
 62
   254
  6
CONTINUOUS
  0
LAYER
  5
506
330
2
100
AcDbSymbolTableRecord
100
AcDbLayerTableRecord
  2
1C2
 70
     0
 62
   254
  6
CONTINUOUS
  0
LAYER
  5
507
330
2
100
AcDbSymbolTableRecord
100
AcDbLayerTableRecord
  2
2C1
 70
     0
 62
   144
  6
CONTINUOUS
  0
LAYER
  5
508
330
2
100
AcDbSymbolTableRecord
100
AcDbLayerTableRecord
  2
2C2
 70
     0
 62
   144
  6
CONTINUOUS
  0
LAYER
  5
509
330
2
100
AcDbSymbolTableRecord
100
AcDbLayerTableRecord
  2
2H1
 70
     0
 62
   144
  6
HIDDEN
  0
LAYER
  5
50A
330
2
100
AcDbSymbolTableRecord
100
AcDbLayerTableRecord
  2
2H2
 70
     0
 62
   144
  6
HIDDEN2
  0
LAYER
  5
50B
330
2
100
AcDbSymbolTableRecord
100
AcDbLayerTableRecord
  2
2P1
 70
     0
 62
   144
  6
PHANTOM
  0
LAYER
  5
50C
330
2
100
AcDbSymbolTableRecord
100
AcDbLayerTableRecord
  2
3C1
 70
     0
 62
     7
  6
CONTINUOUS
  0
LAYER
  5
50D
330
2
100
AcDbSymbolTableRecord
100
AcDbLayerTableRecord
  2
3C2
 70
     0
 62
     7
  6
CONTINUOUS
  0
LAYER
  5
50E
330
2
100
AcDbSymbolTableRecord
100
AcDbLayerTableRecord
  2
3C3
 70
     0
 62
     7
  6
CONTINUOUS
  0
LAYER
  5
50F
330
2
100
AcDbSymbolTableRecord
100
AcDbLayerTableRecord
  2
4H1
 70
     0
 62
     6
  6
HIDDEN
  0
LAYER
  5
510
330
2
100
AcDbSymbolTableRecord
100
AcDbLayerTableRecord
  2
4H2
 70
     0
 62
     6
  6
HIDDEN2
  0
LAYER
  5
511
330
2
100
AcDbSymbolTableRecord
100
AcDbLayerTableRecord
  2
5C1
 70
     0
 62
    55
  6
CONTINUOUS
  0
LAYER
  5
512
330
2
100
AcDbSymbolTableRecord
100
AcDbLayerTableRecord
  2
5C2
 70
     0
 62
    55
  6
CONTINUOUS
  0
LAYER
  5
513
330
2
100
AcDbSymbolTableRecord
100
AcDbLayerTableRecord
  2
8C1
 70
     0
 62
    92
  6
CONTINUOUS
  0
LAYER
  5
514
330
2
100
AcDbSymbolTableRecord
100
AcDbLayerTableRecord
  2
HOJO
 70
     0
 62
     5
  6
CONTINUOUS
  0
LAYER
  5
515
330
2
100
AcDbSymbolTableRecord
100
AcDbLayerTableRecord
  2
KIJUN
 70
     0
 62
     1
  6
CENTER
  0
LAYER
  5
516
330
2
100
AcDbSymbolTableRecord
100
AcDbLayerTableRecord
  2
MOJI
 70
     0
 62
     7
  6
CONTINUOUS
  0
LAYER
  5
517
330
2
100
AcDbSymbolTableRecord
100
AcDbLayerTableRecord
  2
SUNPO
 70
     0
 62
   144
  6
CONTINUOUS
  0
ENDTAB
  0
TABLE
  2
STYLE
  5
3
330
0
100
AcDbSymbolTable
 70
     6
  0
STYLE
  5
11
330
3
100
AcDbSymbolTableRecord
100
AcDbTextStyleTableRecord
  2
STANDARD
 70
     0
 40
0.0
 41
1.0
 50
0.0
 71
     0
 42
2.5
  3
txt
  4

  0
STYLE
  5
2C
330
3
100
AcDbSymbolTableRecord
100
AcDbTextStyleTableRecord
  2

 70
     1
 40
0.0
 41
1.0
 50
0.0
 71
     0
 42
2.5
  3
ltypeshp.shx
  4

  0
STYLE
  5
18E
330
3
100
AcDbSymbolTableRecord
100
AcDbTextStyleTableRecord
  2
ADD
 70
     0
 40
0.0
 41
1.0
 50
0.0
 71
     0
 42
50.0
  3
romans.shx
  4
bigfont.shx
  0
STYLE
  5
191
330
3
100
AcDbSymbolTableRecord
100
AcDbTextStyleTableRecord
  2
MSG
 70
     0
 40
0.0
 41
1.0
 50
0.0
 71
     0
 42
2.5
  3
MS Gothic.ttf
  4

1001
ACAD
1000
MS Gothic
1071
    32817
  0
STYLE
  5
5C8
330
3
100
AcDbSymbolTableRecord
100
AcDbTextStyleTableRecord
  2
STANDARD15
 70
     0
 40
0.0
 41
1.0
 50
15.0
 71
     0
 42
2.5
  3
ROMANS
  4
bigfont
  0
STYLE
  5
5C9
330
3
100
AcDbSymbolTableRecord
100
AcDbTextStyleTableRecord
  2
ROMANS15
 70
     0
 40
0.0
 41
1.0
 50
15.0
 71
     0
 42
2.5
  3
romans
  4

  0
ENDTAB
  0
TABLE
  2
VIEW
  5
6
330
0
100
AcDbSymbolTable
 70
     1
  0
VIEW
  5
54D
330
6
100
AcDbSymbolTableRecord
100
AcDbViewTableRecord
  2
ALL
 70
     0
 40
594.0
 10
420.5
 20
297.0
 41
865.125
 11
0.0
 21
0.0
 31
1.0
 12
0.0
 22
0.0
 32
0.0
 42
50.0
 43
0.0
 44
0.0
 50
0.0
 71
     0
  0
ENDTAB
  0
TABLE
  2
UCS
  5
7
330
0
100
AcDbSymbolTable
 70
     0
  0
ENDTAB
  0
TABLE
  2
APPID
  5
9
330
0
100
AcDbSymbolTable
 70
     4
  0
APPID
  5
12
330
9
100
AcDbSymbolTableRecord
100
AcDbRegAppTableRecord
  2
ACAD
 70
     0
  0
APPID
  5
5CB
330
9
100
AcDbSymbolTableRecord
100
AcDbRegAppTableRecord
  2
ARAIGUMI_YOHEKI
 70
     0
  0
APPID
  5
5CC
330
9
100
AcDbSymbolTableRecord
100
AcDbRegAppTableRecord
  2
CONTENTTABDATA
 70
     0
  0
APPID
  5
5CD
330
9
100
AcDbSymbolTableRecord
100
AcDbRegAppTableRecord
  2
CONTENTCURRENTTAB
 70
     0
  0
ENDTAB
  0
TABLE
  2
DIMSTYLE
  5
A
330
0
100
AcDbSymbolTable
 70
    10
  0
DIMSTYLE
105
27
330
A
100
AcDbSymbolTableRecord
100
AcDbDimStyleTableRecord
  2
ISO-25
 70
     0
  3

  4

  5

  6

  7

 40
1.0
 41
2.5
 42
0.625
 43
3.75
 44
1.25
 45
0.0
 46
0.0
 47
0.0
 48
0.0
140
2.5
141
2.5
142
0.0
143
0.03937007874016
144
1.0
145
0.0
146
1.0
147
0.625
 71
     0
 72
     0
 73
     0
 74
     0
 75
     0
 76
     0
 77
     1
 78
     8
170
     0
171
     3
172
     1
173
     0
174
     0
175
     0
176
     0
177
     0
178
     0
270
     2
271
     2
272
     2
273
     2
274
     3
340
11
275
     0
280
     0
281
     0
282
     0
283
     0
284
     8
285
     0
286
     0
287
     3
288
     0
  0
DIMSTYLE
105
197
330
A
100
AcDbSymbolTableRecord
100
AcDbDimStyleTableRecord
  2
ADD
 70
     0
  3

  4

  5

  6

  7

 40
1.0
 41
2.5
 42
1.0
 43
7.0
 44
0.5
 45
0.0
 46
0.0
 47
0.0
 48
0.0
140
2.5
141
2.5
142
0.0
143
0.03937007874016
144
1.0
145
0.7
146
1.0
147
0.625
 71
     0
 72
     0
 73
     0
 74
     0
 75
     0
 76
     0
 77
     1
 78
     8
170
     0
171
     3
172
     1
173
     0
174
     1
175
     0
176
   144
177
   144
178
     7
270
     2
271
     1
272
     1
273
     2
274
     3
340
18E
275
     0
280
     0
281
     0
282
     0
283
     2
284
     8
285
     0
286
     0
287
     5
288
     0
  0
DIMSTYLE
105
3E6
330
A
100
AcDbSymbolTableRecord
100
AcDbDimStyleTableRecord
  2
ADD$2
 70
     0
  3

  4

  5

  6

  7

 40
1.0
 41
2.5
 42
1.0
 43
7.0
 44
0.5
 45
0.0
 46
0.0
 47
0.0
 48
0.0
140
2.5
141
2.5
142
0.0
143
0.03937007874016
144
1.0
145
0.7
146
1.0
147
0.625
 71
     0
 72
     0
 73
     0
 74
     0
 75
     0
 76
     0
 77
     1
 78
     8
170
     0
171
     3
172
     1
173
     0
174
     1
175
     0
176
   144
177
   144
178
     7
270
     2
271
     1
272
     1
273
     2
274
     3
340
18E
275
     0
280
     0
281
     0
282
     0
283
     2
284
     8
285
     0
286
     0
287
     5
288
     0
  0
DIMSTYLE
105
3E7
330
A
100
AcDbSymbolTableRecord
100
AcDbDimStyleTableRecord
  2
ADD$4
 70
     0
  3

  4

  5

  6

  7

 40
1.0
 41
2.5
 42
1.0
 43
7.0
 44
0.5
 45
0.0
 46
0.0
 47
0.0
 48
0.0
140
2.5
141
2.5
142
0.0
143
0.03937007874016
144
1.0
145
0.0
146
1.0
147
0.625
 71
     0
 72
     0
 73
     0
 74
     0
 75
     0
 76
     0
 77
     1
 78
     8
170
     0
171
     3
172
     1
173
     0
174
     1
175
     0
176
   144
177
   144
178
     7
270
     2
271
     1
272
     1
273
     2
274
     3
340
18E
275
     0
280
     0
281
     0
282
     0
283
     2
284
     8
285
     0
286
     0
287
     5
288
     0
  0
DIMSTYLE
105
3E8
330
A
100
AcDbSymbolTableRecord
100
AcDbDimStyleTableRecord
  2
ADD$3
 70
     0
  3

  4

  5

  6

  7

 40
1.0
 41
2.5
 42
1.0
 43
7.0
 44
0.5
 45
0.0
 46
0.0
 47
0.0
 48
0.0
140
2.5
141
2.5
142
0.0
143
0.03937007874016
144
1.0
145
0.0
146
1.0
147
0.625
 71
     0
 72
     0
 73
     0
 74
     0
 75
     0
 76
     0
 77
     1
 78
     8
170
     0
171
     3
172
     1
173
     0
174
     1
175
     0
176
   144
177
   144
178
     7
270
     2
271
     1
272
     1
273
     2
274
     3
340
18E
275
     0
280
     0
281
     0
282
     0
283
     2
284
     8
285
     0
286
     0
287
     5
288
     0
  0
DIMSTYLE
105
3E9
330
A
100
AcDbSymbolTableRecord
100
AcDbDimStyleTableRecord
  2
ADD$6
 70
     0
  3

  4

  5

  6

  7

 40
1.0
 41
2.5
 42
1.0
 43
7.0
 44
0.5
 45
0.0
 46
0.0
 47
0.0
 48
0.0
140
2.5
141
2.5
142
0.0
143
0.03937007874016
144
1.0
145
0.0
146
1.0
147
0.625
 71
     0
 72
     0
 73
     0
 74
     0
 75
     0
 76
     0
 77
     1
 78
     8
170
     0
171
     3
172
     1
173
     0
174
     1
175
     0
176
   144
177
   144
178
     7
270
     2
271
     1
272
     1
273
     2
274
     3
340
18E
275
     0
280
     0
281
     0
282
     0
283
     2
284
     8
285
     0
286
     0
287
     5
288
     0
  0
DIMSTYLE
105
3EA
330
A
100
AcDbSymbolTableRecord
100
AcDbDimStyleTableRecord
  2
ADD$7
 70
     0
  3

  4

  5

  6

  7

 40
1.0
 41
2.5
 42
1.0
 43
7.0
 44
0.5
 45
0.0
 46
0.0
 47
0.0
 48
0.0
140
2.5
141
2.5
142
0.0
143
0.03937007874016
144
1.0
145
0.0
146
1.0
147
0.625
 71
     0
 72
     0
 73
     0
 74
     0
 75
     0
 76
     0
 77
     0
 78
     8
170
     0
171
     3
172
     1
173
     0
174
     1
175
     0
176
   144
177
   144
178
     7
270
     2
271
     1
272
     1
273
     2
274
     3
340
18E
275
     0
280
     0
281
     0
282
     0
283
     2
284
     8
285
     0
286
     0
287
     5
288
     0
  0
DIMSTYLE
105
518
330
A
100
AcDbSymbolTableRecord
100
AcDbDimStyleTableRecord
  2
STANDARD
 70
     0
  3

  4

  5

  6

  7

 40
1.0
 41
0.18
 42
0.0625
 43
0.38
 44
0.18
 45
0.0
 46
0.0
 47
0.0
 48
0.0
140
0.18
141
0.09
142
0.0
143
25.4
144
1.0
145
0.0
146
1.0
147
0.09
 71
     0
 72
     0
 73
     1
 74
     1
 75
     0
 76
     0
 77
     0
 78
     0
170
     0
171
     2
172
     0
173
     0
174
     0
175
     0
176
     0
177
     0
178
     0
270
     2
271
     4
272
     4
273
     2
274
     2
340
11
275
     0
280
     0
281
     0
282
     0
283
     1
284
     0
285
     0
286
     0
287
     3
288
     0
  0
DIMSTYLE
105
550
102
{ACAD_REACTORS
330
10F6
330
10E9
330
10DC
330
10CD
330
10A0
330
108C
330
106D
330
100A
330
FFD
330
FF0
330
FB5
330
FA6
330
F97
330
F8A
330
F7B
330
F6C
330
F5D
330
F0C
330
EFD
330
EEE
330
E8F
102
}
330
A
100
AcDbSymbolTableRecord
100
AcDbDimStyleTableRecord
  2
ADD$0
 70
     0
  3

  4

  5

  6

  7

 40
1.0
 41
2.2
 42
1.0
 43
7.0
 44
0.5
 45
0.0
 46
0.0
 47
0.0
 48
0.0
140
2.5
141
2.5
142
0.0
143
0.03937007874016
144
1.0
145
0.7
146
1.0
147
0.625
 71
     0
 72
     0
 73
     0
 74
     0
 75
     0
 76
     0
 77
     1
 78
     8
170
     0
171
     3
172
     1
173
     0
174
     1
175
     0
176
   144
177
   144
178
     7
270
     2
271
     1
272
     1
273
     2
274
     3
340
18E
275
     0
280
     0
281
     0
282
     0
283
     2
284
     8
285
     0
286
     0
287
     5
288
     0
  0
DIMSTYLE
105
59B
330
A
100
AcDbSymbolTableRecord
100
AcDbDimStyleTableRecord
  2
ADD_M
 70
     0
  3

  4

  5

  6

  7

 40
1.0
 41
2.5
 42
1.0
 43
7.0
 44
0.5
 45
0.0
 46
0.0
 47
0.0
 48
0.0
140
2.5
141
2.5
142
0.0
143
0.03937007874016
144
1.0
145
0.7
146
1.0
147
0.625
 71
     0
 72
     0
 73
     0
 74
     0
 75
     0
 76
     0
 77
     1
 78
     8
170
     0
171
     3
172
     1
173
     0
174
     1
175
     0
176
   144
177
   144
178
     7
270
     2
271
     1
272
     1
273
     2
274
     3
340
18E
275
     0
280
     0
281
     0
282
     0
283
     2
284
     8
285
     0
286
     0
287
     5
288
     0
  0
ENDTAB
  0
TABLE
  2
BLOCK_RECORD
  5
1
330
0
100
AcDbSymbolTable
 70
    25
  0
BLOCK_RECORD
  5
1F
102
{ACAD_XDICTIONARY
360
13CE
102
}
330
1
100
AcDbSymbolTableRecord
100
AcDbBlockTableRecord
  2
*MODEL_SPACE
  0
BLOCK_RECORD
  5
1B
102
{ACAD_XDICTIONARY
360
13D0
102
}
330
1
100
AcDbSymbolTableRecord
100
AcDbBlockTableRecord
  2
*PAPER_SPACE
  0
BLOCK_RECORD
  5
192
330
1
100
AcDbSymbolTableRecord
100
AcDbBlockTableRecord
  2
_DOT
  0
BLOCK_RECORD
  5
5CE
330
1
100
AcDbSymbolTableRecord
100
AcDbBlockTableRecord
  2
A4
  0
BLOCK_RECORD
  5
636
330
1
100
AcDbSymbolTableRecord
100
AcDbBlockTableRecord
  2
_OPEN90
  0
BLOCK_RECORD
  5
63C
330
1
100
AcDbSymbolTableRecord
100
AcDbBlockTableRecord
  2
_OPEN30
  0
BLOCK_RECORD
  5
E90
330
1
100
AcDbSymbolTableRecord
100
AcDbBlockTableRecord
  2
*D4
  0
BLOCK_RECORD
  5
EEF
330
1
100
AcDbSymbolTableRecord
100
AcDbBlockTableRecord
  2
*D5
  0
BLOCK_RECORD
  5
EFE
330
1
100
AcDbSymbolTableRecord
100
AcDbBlockTableRecord
  2
*D6
  0
BLOCK_RECORD
  5
F0D
330
1
100
AcDbSymbolTableRecord
100
AcDbBlockTableRecord
  2
*D7
  0
BLOCK_RECORD
  5
F5E
330
1
100
AcDbSymbolTableRecord
100
AcDbBlockTableRecord
  2
*D8
  0
BLOCK_RECORD
  5
F6D
330
1
100
AcDbSymbolTableRecord
100
AcDbBlockTableRecord
  2
*D9
  0
BLOCK_RECORD
  5
F7C
330
1
100
AcDbSymbolTableRecord
100
AcDbBlockTableRecord
  2
*D10
  0
BLOCK_RECORD
  5
F8B
330
1
100
AcDbSymbolTableRecord
100
AcDbBlockTableRecord
  2
*D11
  0
BLOCK_RECORD
  5
F98
330
1
100
AcDbSymbolTableRecord
100
AcDbBlockTableRecord
  2
*D12
  0
BLOCK_RECORD
  5
FA7
330
1
100
AcDbSymbolTableRecord
100
AcDbBlockTableRecord
  2
*D13
  0
BLOCK_RECORD
  5
FB6
330
1
100
AcDbSymbolTableRecord
100
AcDbBlockTableRecord
  2
*D14
  0
BLOCK_RECORD
  5
FF1
330
1
100
AcDbSymbolTableRecord
100
AcDbBlockTableRecord
  2
*D15
  0
BLOCK_RECORD
  5
FFE
330
1
100
AcDbSymbolTableRecord
100
AcDbBlockTableRecord
  2
*D16
  0
BLOCK_RECORD
  5
100B
330
1
100
AcDbSymbolTableRecord
100
AcDbBlockTableRecord
  2
*D17
  0
BLOCK_RECORD
  5
106E
330
1
100
AcDbSymbolTableRecord
100
AcDbBlockTableRecord
  2
*D18
  0
BLOCK_RECORD
  5
108D
330
1
100
AcDbSymbolTableRecord
100
AcDbBlockTableRecord
  2
*D19
  0
BLOCK_RECORD
  5
10A1
330
1
100
AcDbSymbolTableRecord
100
AcDbBlockTableRecord
  2
*D20
  0
BLOCK_RECORD
  5
10CE
330
1
100
AcDbSymbolTableRecord
100
AcDbBlockTableRecord
  2
*D21
  0
BLOCK_RECORD
  5
10DD
330
1
100
AcDbSymbolTableRecord
100
AcDbBlockTableRecord
  2
*D22
  0
BLOCK_RECORD
  5
10EA
330
1
100
AcDbSymbolTableRecord
100
AcDbBlockTableRecord
  2
*D23
  0
BLOCK_RECORD
  5
10F7
330
1
100
AcDbSymbolTableRecord
100
AcDbBlockTableRecord
  2
*D24
  0
ENDTAB
  0
ENDSEC
  0
SECTION
  2
BLOCKS
  0
BLOCK
  5
20
330
1F
100
AcDbEntity
  8
0
100
AcDbBlockBegin
  2
*MODEL_SPACE
 70
     0
 10
0.0
 20
0.0
 30
0.0
  3
*MODEL_SPACE
  1

  0
ENDBLK
  5
21
330
1F
100
AcDbEntity
  8
0
100
AcDbBlockEnd
  0
BLOCK
  5
1C
330
1B
100
AcDbEntity
 67
     1
  8
0
100
AcDbBlockBegin
  2
*PAPER_SPACE
 70
     0
 10
0.0
 20
0.0
 30
0.0
  3
*PAPER_SPACE
  1

  0
ENDBLK
  5
1D
330
1B
100
AcDbEntity
 67
     1
  8
0
100
AcDbBlockEnd
  0
BLOCK
  5
195
330
192
100
AcDbEntity
  8
0
100
AcDbBlockBegin
  2
_DOT
 70
     0
 10
0.0
 20
0.0
 30
0.0
  3
_DOT
  1

  0
POLYLINE
  5
193
330
192
100
AcDbEntity
  8
0
 62
     0
100
AcDb2dPolyline
 66
     1
 10
0.0
 20
0.0
 30
0.0
 70
     1
 40
0.5
 41
0.5
  0
VERTEX
  5
1502
330
193
100
AcDbEntity
  8
0
 62
     0
100
AcDbVertex
100
AcDb2dVertex
 10
-0.25
 20
0.0
 30
0.0
 42
1.0
  0
VERTEX
  5
1503
330
193
100
AcDbEntity
  8
0
 62
     0
100
AcDbVertex
100
AcDb2dVertex
 10
0.25
 20
0.0
 30
0.0
 42
1.0
  0
SEQEND
  5
1504
330
193
100
AcDbEntity
  8
0
 62
     0
  0
LINE
  5
194
330
192
100
AcDbEntity
  8
0
 62
     0
100
AcDbLine
 10
-0.5
 20
0.0
 30
0.0
 11
-1.0
 21
0.0
 31
0.0
  0
ENDBLK
  5
196
330
192
100
AcDbEntity
  8
0
100
AcDbBlockEnd
  0
BLOCK
  5
5D1
330
5CE
100
AcDbEntity
  8
0
100
AcDbBlockBegin
  2
A4
 70
     0
 10
0.0
 20
0.0
 30
0.0
  3
A4
  1

  0
POLYLINE
  5
5CF
330
5CE
100
AcDbEntity
  8
HOJO
100
AcDb2dPolyline
 66
     1
 10
0.0
 20
0.0
 30
0.0
 70
     1
  0
VERTEX
  5
1505
330
5CF
100
AcDbEntity
  8
HOJO
100
AcDbVertex
100
AcDb2dVertex
 10
0.0
 20
0.0
 30
0.0
  0
VERTEX
  5
1506
330
5CF
100
AcDbEntity
  8
HOJO
100
AcDbVertex
100
AcDb2dVertex
 10
297.0
 20
0.0
 30
0.0
  0
VERTEX
  5
1507
330
5CF
100
AcDbEntity
  8
HOJO
100
AcDbVertex
100
AcDb2dVertex
 10
297.0
 20
210.0
 30
0.0
  0
VERTEX
  5
1508
330
5CF
100
AcDbEntity
  8
HOJO
100
AcDbVertex
100
AcDb2dVertex
 10
0.0
 20
210.0
 30
0.0
  0
SEQEND
  5
1509
330
5CF
100
AcDbEntity
  8
HOJO
  0
POLYLINE
  5
5D0
330
5CE
100
AcDbEntity
  8
HOJO
100
AcDb2dPolyline
 66
     1
 10
0.0
 20
0.0
 30
0.0
 70
     1
  0
VERTEX
  5
150A
330
5D0
100
AcDbEntity
  8
HOJO
100
AcDbVertex
100
AcDb2dVertex
 10
18.0
 20
13.0
 30
0.0
  0
VERTEX
  5
150B
330
5D0
100
AcDbEntity
  8
HOJO
100
AcDbVertex
100
AcDb2dVertex
 10
279.0
 20
13.0
 30
0.0
  0
VERTEX
  5
150C
330
5D0
100
AcDbEntity
  8
HOJO
100
AcDbVertex
100
AcDb2dVertex
 10
279.0
 20
197.0
 30
0.0
  0
VERTEX
  5
150D
330
5D0
100
AcDbEntity
  8
HOJO
100
AcDbVertex
100
AcDb2dVertex
 10
18.0
 20
197.0
 30
0.0
  0
SEQEND
  5
150E
330
5D0
100
AcDbEntity
  8
HOJO
  0
ENDBLK
  5
5D2
330
5CE
100
AcDbEntity
  8
0
100
AcDbBlockEnd
  0
BLOCK
  5
63A
330
636
100
AcDbEntity
  8
0
100
AcDbBlockBegin
  2
_OPEN90
 70
     0
 10
0.0
 20
0.0
 30
0.0
  3
_OPEN90
  1

  0
LINE
  5
637
330
636
100
AcDbEntity
  8
SUNPO
 62
     0
100
AcDbLine
 10
-0.5
 20
0.5
 30
0.0
 11
0.0
 21
0.0
 31
0.0
  0
LINE
  5
638
330
636
100
AcDbEntity
  8
SUNPO
 62
     0
100
AcDbLine
 10
0.0
 20
0.0
 30
0.0
 11
-0.5
 21
-0.5
 31
0.0
  0
LINE
  5
639
330
636
100
AcDbEntity
  8
SUNPO
 62
     0
100
AcDbLine
 10
0.0
 20
0.0
 30
0.0
 11
-1.0
 21
0.0
 31
0.0
  0
ENDBLK
  5
63B
330
636
100
AcDbEntity
  8
0
100
AcDbBlockEnd
  0
BLOCK
  5
640
330
63C
100
AcDbEntity
  8
0
100
AcDbBlockBegin
  2
_OPEN30
 70
     0
 10
0.0
 20
0.0
 30
0.0
  3
_OPEN30
  1

  0
LINE
  5
63D
330
63C
100
AcDbEntity
  8
SUNPO
 62
     0
100
AcDbLine
 10
-1.0
 20
0.26794919
 30
0.0
 11
0.0
 21
0.0
 31
0.0
  0
LINE
  5
63E
330
63C
100
AcDbEntity
  8
SUNPO
 62
     0
100
AcDbLine
 10
0.0
 20
0.0
 30
0.0
 11
-1.0
 21
-0.26794919
 31
0.0
  0
LINE
  5
63F
330
63C
100
AcDbEntity
  8
SUNPO
 62
     0
100
AcDbLine
 10
0.0
 20
0.0
 30
0.0
 11
-1.0
 21
0.0
 31
0.0
  0
ENDBLK
  5
641
330
63C
100
AcDbEntity
  8
0
100
AcDbBlockEnd
  0
BLOCK
  5
E9A
330
E90
100
AcDbEntity
  8
0
100
AcDbBlockBegin
  2
*D4
 70
     1
 10
0.0
 20
0.0
 30
0.0
  3
*D4
  1

  0
LINE
  5
138C
330
E90
100
AcDbEntity
  8
SUNPO
 62
   144
100
AcDbLine
 10
1933.851014127787
 20
2853.515747133855
 30
0.0
 11
1933.851014127787
 21
3359.8932986298
 31
0.0
  0
LINE
  5
138D
330
E90
100
AcDbEntity
  8
SUNPO
 62
   144
100
AcDbLine
 10
2113.851014127787
 20
2853.515747133855
 30
0.0
 11
2113.851014127787
 21
3359.8932986298
 31
0.0
  0
LINE
  5
138E
330
E90
100
AcDbEntity
  8
SUNPO
 62
   144
100
AcDbLine
 10
1977.851014127787
 20
3349.893298629801
 30
0.0
 11
2069.851014127787
 21
3349.893298629801
 31
0.0
  0
SOLID
  5
138F
330
E90
100
AcDbEntity
  8
SUNPO
 62
   144
100
AcDbTrace
 10
1977.851014127787
 20
3357.226631963134
 30
0.0
 11
1977.851014127787
 21
3342.559965296467
 31
0.0
 12
1933.851014127787
 22
3349.893298629801
 32
0.0
 13
1933.851014127787
 23
3349.893298629801
 33
0.0
  0
SOLID
  5
1390
330
E90
100
AcDbEntity
  8
SUNPO
 62
   144
100
AcDbTrace
 10
2069.851014127787
 20
3357.226631963134
 30
0.0
 11
2069.851014127787
 21
3342.559965296467
 31
0.0
 12
2113.851014127787
 22
3349.893298629801
 32
0.0
 13
2113.851014127787
 23
3349.893298629801
 33
0.0
  0
MTEXT
  5
1391
330
E90
100
AcDbEntity
  8
SUNPO
 62
     7
100
AcDbMText
 10
2023.851014127787
 20
3387.393298629801
 30
0.0
 40
50.0
 41
0.0
 71
     5
 72
     1
  1
\A2;180
  7
ADD
1001
ACAD
1000
MTEXTBEGIN
1070
    73
1070
     1
1070
    44
1040
1.0
1070
    74
1070
     0
1000
MTEXTEND
1000
MTEXTBEGIN
1070
    73
1070
     1
1070
    44
1040
1.0
1070
    74
1070
     0
1000
MTEXTEND
  0
POINT
  5
1392
330
E90
100
AcDbEntity
  8
DEFPOINTS
 62
     0
100
AcDbPoint
 10
1933.851014127787
 20
2833.515747133855
 30
0.0
  0
POINT
  5
1393
330
E90
100
AcDbEntity
  8
DEFPOINTS
 62
     0
100
AcDbPoint
 10
2113.851014127787
 20
2833.515747133855
 30
0.0
  0
POINT
  5
1394
330
E90
100
AcDbEntity
  8
DEFPOINTS
 62
     0
100
AcDbPoint
 10
2113.851014127787
 20
3349.893298629801
 30
0.0
  0
ENDBLK
  5
E9B
330
E90
100
AcDbEntity
  8
0
100
AcDbBlockEnd
  0
BLOCK
  5
EFB
330
EEF
100
AcDbEntity
  8
0
100
AcDbBlockBegin
  2
*D5
 70
     1
 10
0.0
 20
0.0
 30
0.0
  3
*D5
  1

  0
LINE
  5
1381
330
EEF
100
AcDbEntity
  8
SUNPO
 62
   144
100
AcDbLine
 10
1933.851014127787
 20
2853.515747133855
 30
0.0
 11
1933.851014127787
 21
3139.652534205696
 31
0.0
  0
LINE
  5
1382
330
EEF
100
AcDbEntity
  8
SUNPO
 62
   144
100
AcDbLine
 10
1983.851014127787
 20
2853.515747133855
 30
0.0
 11
1983.851014127787
 21
3139.652534205696
 31
0.0
  0
LINE
  5
1383
330
EEF
100
AcDbEntity
  8
SUNPO
 62
   144
100
AcDbLine
 10
2027.851014127787
 20
3129.652534205695
 30
0.0
 11
2071.851014127787
 21
3129.652534205695
 31
0.0
  0
LINE
  5
1384
330
EEF
100
AcDbEntity
  8
SUNPO
 62
   144
100
AcDbLine
 10
1889.851014127787
 20
3129.652534205695
 30
0.0
 11
1845.851014127787
 21
3129.652534205695
 31
0.0
  0
MTEXT
  5
1385
330
EEF
100
AcDbEntity
  8
SUNPO
 62
     7
100
AcDbMText
 10
1878.816808513471
 20
3166.06195020692
 30
0.0
 40
50.0
 41
0.0
 71
     5
 72
     1
  1
\A2;50
  7
ADD
1001
ACAD
1000
MTEXTBEGIN
1070
    73
1070
     1
1070
    44
1040
1.0
1070
    74
1070
     0
1000
MTEXTEND
1000
MTEXTBEGIN
1070
    73
1070
     1
1070
    44
1040
1.0
1070
    74
1070
     0
1000
MTEXTEND
  0
LINE
  5
1386
330
EEF
100
AcDbEntity
  8
SUNPO
 62
   144
100
AcDbLine
 10
1983.851014127787
 20
3129.652534205695
 30
0.0
 11
1933.851014127787
 21
3129.652534205695
 31
0.0
  0
SOLID
  5
1387
330
EEF
100
AcDbEntity
  8
SUNPO
 62
   144
100
AcDbTrace
 10
2027.851014127787
 20
3136.985867539029
 30
0.0
 11
2027.851014127787
 21
3122.319200872362
 31
0.0
 12
1983.851014127787
 22
3129.652534205695
 32
0.0
 13
1983.851014127787
 23
3129.652534205695
 33
0.0
  0
SOLID
  5
1388
330
EEF
100
AcDbEntity
  8
SUNPO
 62
   144
100
AcDbTrace
 10
1889.851014127787
 20
3136.985867539029
 30
0.0
 11
1889.851014127787
 21
3122.319200872362
 31
0.0
 12
1933.851014127787
 22
3129.652534205695
 32
0.0
 13
1933.851014127787
 23
3129.652534205695
 33
0.0
  0
POINT
  5
1389
330
EEF
100
AcDbEntity
  8
DEFPOINTS
 62
     0
100
AcDbPoint
 10
1933.851014127787
 20
2833.515747133855
 30
0.0
  0
POINT
  5
138A
330
EEF
100
AcDbEntity
  8
DEFPOINTS
 62
     0
100
AcDbPoint
 10
1983.851014127787
 20
2833.515747133855
 30
0.0
  0
POINT
  5
138B
330
EEF
100
AcDbEntity
  8
DEFPOINTS
 62
     0
100
AcDbPoint
 10
1983.851014127787
 20
3129.652534205695
 30
0.0
  0
ENDBLK
  5
EFC
330
EEF
100
AcDbEntity
  8
0
100
AcDbBlockEnd
  0
BLOCK
  5
F0A
330
EFE
100
AcDbEntity
  8
0
100
AcDbBlockBegin
  2
*D6
 70
     1
 10
0.0
 20
0.0
 30
0.0
  3
*D6
  1

  0
LINE
  5
1376
330
EFE
100
AcDbEntity
  8
SUNPO
 62
   144
100
AcDbLine
 10
2113.851014127787
 20
2853.515747133855
 30
0.0
 11
2113.851014127787
 21
3139.652534205696
 31
0.0
  0
LINE
  5
1377
330
EFE
100
AcDbEntity
  8
SUNPO
 62
   144
100
AcDbLine
 10
2063.851014127787
 20
2853.515747133855
 30
0.0
 11
2063.851014127787
 21
3139.652534205696
 31
0.0
  0
LINE
  5
1378
330
EFE
100
AcDbEntity
  8
SUNPO
 62
   144
100
AcDbLine
 10
2157.851014127787
 20
3129.652534205695
 30
0.0
 11
2201.851014127787
 21
3129.652534205695
 31
0.0
  0
LINE
  5
1379
330
EFE
100
AcDbEntity
  8
SUNPO
 62
   144
100
AcDbLine
 10
2019.851014127787
 20
3129.652534205695
 30
0.0
 11
1975.851014127787
 21
3129.652534205695
 31
0.0
  0
MTEXT
  5
137A
330
EFE
100
AcDbEntity
  8
SUNPO
 62
     7
100
AcDbMText
 10
2161.247550093179
 20
3165.111431258289
 30
0.0
 40
50.0
 41
0.0
 71
     5
 72
     1
  1
\A2;50
  7
ADD
1001
ACAD
1000
MTEXTBEGIN
1070
    73
1070
     1
1070
    44
1040
1.0
1070
    74
1070
     0
1000
MTEXTEND
1000
MTEXTBEGIN
1070
    73
1070
     1
1070
    44
1040
1.0
1070
    74
1070
     0
1000
MTEXTEND
  0
LINE
  5
137B
330
EFE
100
AcDbEntity
  8
SUNPO
 62
   144
100
AcDbLine
 10
2113.851014127787
 20
3129.652534205695
 30
0.0
 11
2063.851014127787
 21
3129.652534205695
 31
0.0
  0
SOLID
  5
137C
330
EFE
100
AcDbEntity
  8
SUNPO
 62
   144
100
AcDbTrace
 10
2157.851014127787
 20
3136.985867539029
 30
0.0
 11
2157.851014127787
 21
3122.319200872362
 31
0.0
 12
2113.851014127787
 22
3129.652534205695
 32
0.0
 13
2113.851014127787
 23
3129.652534205695
 33
0.0
  0
SOLID
  5
137D
330
EFE
100
AcDbEntity
  8
SUNPO
 62
   144
100
AcDbTrace
 10
2019.851014127787
 20
3136.985867539029
 30
0.0
 11
2019.851014127787
 21
3122.319200872362
 31
0.0
 12
2063.851014127787
 22
3129.652534205695
 32
0.0
 13
2063.851014127787
 23
3129.652534205695
 33
0.0
  0
POINT
  5
137E
330
EFE
100
AcDbEntity
  8
DEFPOINTS
 62
     0
100
AcDbPoint
 10
2113.851014127787
 20
2833.515747133855
 30
0.0
  0
POINT
  5
137F
330
EFE
100
AcDbEntity
  8
DEFPOINTS
 62
     0
100
AcDbPoint
 10
2063.851014127787
 20
2833.515747133855
 30
0.0
  0
POINT
  5
1380
330
EFE
100
AcDbEntity
  8
DEFPOINTS
 62
     0
100
AcDbPoint
 10
2063.851014127787
 20
3129.652534205695
 30
0.0
  0
ENDBLK
  5
F0B
330
EFE
100
AcDbEntity
  8
0
100
AcDbBlockEnd
  0
BLOCK
  5
F19
330
F0D
100
AcDbEntity
  8
0
100
AcDbBlockBegin
  2
*D7
 70
     1
 10
0.0
 20
0.0
 30
0.0
  3
*D7
  1

  0
LINE
  5
136B
330
F0D
100
AcDbEntity
  8
SUNPO
 62
   144
100
AcDbLine
 10
1988.851014127787
 20
2853.515747133855
 30
0.0
 11
1988.851014127787
 21
3139.652534205696
 31
0.0
  0
LINE
  5
136C
330
F0D
100
AcDbEntity
  8
SUNPO
 62
   144
100
AcDbLine
 10
2058.851014127787
 20
2853.515747133855
 30
0.0
 11
2058.851014127787
 21
3139.652534205696
 31
0.0
  0
LINE
  5
136D
330
F0D
100
AcDbEntity
  8
SUNPO
 62
   144
100
AcDbLine
 10
1944.851014127787
 20
3129.652534205695
 30
0.0
 11
1900.851014127787
 21
3129.652534205695
 31
0.0
  0
LINE
  5
136E
330
F0D
100
AcDbEntity
  8
SUNPO
 62
   144
100
AcDbLine
 10
2102.851014127787
 20
3129.652534205695
 30
0.0
 11
2146.851014127787
 21
3129.652534205695
 31
0.0
  0
MTEXT
  5
136F
330
F0D
100
AcDbEntity
  8
SUNPO
 62
     7
100
AcDbMText
 10
2023.851014127787
 20
3167.152534205695
 30
0.0
 40
50.0
 41
0.0
 71
     5
 72
     1
  1
\A2;70
  7
ADD
1001
ACAD
1000
MTEXTBEGIN
1070
    73
1070
     1
1070
    44
1040
1.0
1070
    74
1070
     0
1000
MTEXTEND
1000
MTEXTBEGIN
1070
    73
1070
     1
1070
    44
1040
1.0
1070
    74
1070
     0
1000
MTEXTEND
  0
LINE
  5
1370
330
F0D
100
AcDbEntity
  8
SUNPO
 62
   144
100
AcDbLine
 10
1988.851014127787
 20
3129.652534205695
 30
0.0
 11
2058.851014127787
 21
3129.652534205695
 31
0.0
  0
SOLID
  5
1371
330
F0D
100
AcDbEntity
  8
SUNPO
 62
   144
100
AcDbTrace
 10
1944.851014127787
 20
3136.985867539029
 30
0.0
 11
1944.851014127787
 21
3122.319200872362
 31
0.0
 12
1988.851014127787
 22
3129.652534205695
 32
0.0
 13
1988.851014127787
 23
3129.652534205695
 33
0.0
  0
SOLID
  5
1372
330
F0D
100
AcDbEntity
  8
SUNPO
 62
   144
100
AcDbTrace
 10
2102.851014127787
 20
3136.985867539029
 30
0.0
 11
2102.851014127787
 21
3122.319200872362
 31
0.0
 12
2058.851014127787
 22
3129.652534205695
 32
0.0
 13
2058.851014127787
 23
3129.652534205695
 33
0.0
  0
POINT
  5
1373
330
F0D
100
AcDbEntity
  8
DEFPOINTS
 62
     0
100
AcDbPoint
 10
1988.851014127787
 20
2833.515747133855
 30
0.0
  0
POINT
  5
1374
330
F0D
100
AcDbEntity
  8
DEFPOINTS
 62
     0
100
AcDbPoint
 10
2058.851014127787
 20
2833.515747133855
 30
0.0
  0
POINT
  5
1375
330
F0D
100
AcDbEntity
  8
DEFPOINTS
 62
     0
100
AcDbPoint
 10
2058.851014127787
 20
3129.652534205695
 30
0.0
  0
ENDBLK
  5
F1A
330
F0D
100
AcDbEntity
  8
0
100
AcDbBlockEnd
  0
BLOCK
  5
F6A
330
F5E
100
AcDbEntity
  8
0
100
AcDbBlockBegin
  2
*D8
 70
     1
 10
0.0
 20
0.0
 30
0.0
  3
*D8
  1

  0
LINE
  5
1360
330
F5E
100
AcDbEntity
  8
SUNPO
 62
   144
100
AcDbLine
 10
1983.851014127787
 20
2853.515747133855
 30
0.0
 11
1983.851014127787
 21
3006.584140669775
 31
0.0
  0
LINE
  5
1361
330
F5E
100
AcDbEntity
  8
SUNPO
 62
   144
100
AcDbLine
 10
1988.851014127787
 20
2853.515747133855
 30
0.0
 11
1988.851014127787
 21
3006.584140669775
 31
0.0
  0
LINE
  5
1362
330
F5E
100
AcDbEntity
  8
SUNPO
 62
   144
100
AcDbLine
 10
1939.851014127787
 20
2996.584140669775
 30
0.0
 11
1895.851014127787
 21
2996.584140669775
 31
0.0
  0
LINE
  5
1363
330
F5E
100
AcDbEntity
  8
SUNPO
 62
   144
100
AcDbLine
 10
2032.851014127787
 20
2996.584140669775
 30
0.0
 11
2076.851014127787
 21
2996.584140669775
 31
0.0
  0
LINE
  5
1364
330
F5E
100
AcDbEntity
  8
SUNPO
 62
   144
100
AcDbLine
 10
1983.851014127787
 20
2996.584140669775
 30
0.0
 11
1988.851014127787
 21
2996.584140669775
 31
0.0
  0
SOLID
  5
1365
330
F5E
100
AcDbEntity
  8
SUNPO
 62
   144
100
AcDbTrace
 10
1939.851014127787
 20
3003.917474003109
 30
0.0
 11
1939.851014127787
 21
2989.250807336442
 31
0.0
 12
1983.851014127787
 22
2996.584140669775
 32
0.0
 13
1983.851014127787
 23
2996.584140669775
 33
0.0
  0
SOLID
  5
1366
330
F5E
100
AcDbEntity
  8
SUNPO
 62
   144
100
AcDbTrace
 10
2032.851014127787
 20
3003.917474003109
 30
0.0
 11
2032.851014127787
 21
2989.250807336442
 31
0.0
 12
1988.851014127787
 22
2996.584140669775
 32
0.0
 13
1988.851014127787
 23
2996.584140669775
 33
0.0
  0
MTEXT
  5
1367
330
F5E
100
AcDbEntity
  8
SUNPO
 62
     7
100
AcDbMText
 10
1986.351014127787
 20
3034.084140669775
 30
0.0
 40
50.0
 41
0.0
 71
     5
 72
     1
  1
\A2;5
  7
ADD
1001
ACAD
1000
MTEXTBEGIN
1070
    73
1070
     1
1070
    44
1040
1.0
1070
    74
1070
     0
1000
MTEXTEND
1000
MTEXTBEGIN
1070
    73
1070
     1
1070
    44
1040
1.0
1070
    74
1070
     0
1000
MTEXTEND
  0
POINT
  5
1368
330
F5E
100
AcDbEntity
  8
DEFPOINTS
 62
     0
100
AcDbPoint
 10
1983.851014127787
 20
2833.515747133855
 30
0.0
  0
POINT
  5
1369
330
F5E
100
AcDbEntity
  8
DEFPOINTS
 62
     0
100
AcDbPoint
 10
1988.851014127787
 20
2833.515747133855
 30
0.0
  0
POINT
  5
136A
330
F5E
100
AcDbEntity
  8
DEFPOINTS
 62
     0
100
AcDbPoint
 10
1988.851014127787
 20
2996.584140669775
 30
0.0
  0
ENDBLK
  5
F6B
330
F5E
100
AcDbEntity
  8
0
100
AcDbBlockEnd
  0
BLOCK
  5
F79
330
F6D
100
AcDbEntity
  8
0
100
AcDbBlockBegin
  2
*D9
 70
     1
 10
0.0
 20
0.0
 30
0.0
  3
*D9
  1

  0
LINE
  5
1355
330
F6D
100
AcDbEntity
  8
SUNPO
 62
   144
100
AcDbLine
 10
2058.851014127787
 20
2853.515747133855
 30
0.0
 11
2058.851014127787
 21
3006.584140669775
 31
0.0
  0
LINE
  5
1356
330
F6D
100
AcDbEntity
  8
SUNPO
 62
   144
100
AcDbLine
 10
2063.851014127787
 20
2853.515747133855
 30
0.0
 11
2063.851014127787
 21
3006.584140669775
 31
0.0
  0
LINE
  5
1357
330
F6D
100
AcDbEntity
  8
SUNPO
 62
   144
100
AcDbLine
 10
2014.851014127787
 20
2996.584140669775
 30
0.0
 11
1970.851014127787
 21
2996.584140669775
 31
0.0
  0
LINE
  5
1358
330
F6D
100
AcDbEntity
  8
SUNPO
 62
   144
100
AcDbLine
 10
2107.851014127787
 20
2996.584140669775
 30
0.0
 11
2151.851014127787
 21
2996.584140669775
 31
0.0
  0
LINE
  5
1359
330
F6D
100
AcDbEntity
  8
SUNPO
 62
   144
100
AcDbLine
 10
2058.851014127787
 20
2996.584140669775
 30
0.0
 11
2063.851014127787
 21
2996.584140669775
 31
0.0
  0
SOLID
  5
135A
330
F6D
100
AcDbEntity
  8
SUNPO
 62
   144
100
AcDbTrace
 10
2014.851014127787
 20
3003.917474003109
 30
0.0
 11
2014.851014127787
 21
2989.250807336442
 31
0.0
 12
2058.851014127787
 22
2996.584140669775
 32
0.0
 13
2058.851014127787
 23
2996.584140669775
 33
0.0
  0
SOLID
  5
135B
330
F6D
100
AcDbEntity
  8
SUNPO
 62
   144
100
AcDbTrace
 10
2107.851014127787
 20
3003.917474003109
 30
0.0
 11
2107.851014127787
 21
2989.250807336442
 31
0.0
 12
2063.851014127787
 22
2996.584140669775
 32
0.0
 13
2063.851014127787
 23
2996.584140669775
 33
0.0
  0
MTEXT
  5
135C
330
F6D
100
AcDbEntity
  8
SUNPO
 62
     7
100
AcDbMText
 10
2061.351014127787
 20
3034.084140669775
 30
0.0
 40
50.0
 41
0.0
 71
     5
 72
     1
  1
\A2;5
  7
ADD
1001
ACAD
1000
MTEXTBEGIN
1070
    73
1070
     1
1070
    44
1040
1.0
1070
    74
1070
     0
1000
MTEXTEND
1000
MTEXTBEGIN
1070
    73
1070
     1
1070
    44
1040
1.0
1070
    74
1070
     0
1000
MTEXTEND
  0
POINT
  5
135D
330
F6D
100
AcDbEntity
  8
DEFPOINTS
 62
     0
100
AcDbPoint
 10
2058.851014127787
 20
2833.515747133855
 30
0.0
  0
POINT
  5
135E
330
F6D
100
AcDbEntity
  8
DEFPOINTS
 62
     0
100
AcDbPoint
 10
2063.851014127787
 20
2833.515747133855
 30
0.0
  0
POINT
  5
135F
330
F6D
100
AcDbEntity
  8
DEFPOINTS
 62
     0
100
AcDbPoint
 10
2063.851014127787
 20
2996.584140669775
 30
0.0
  0
ENDBLK
  5
F7A
330
F6D
100
AcDbEntity
  8
0
100
AcDbBlockEnd
  0
BLOCK
  5
F88
330
F7C
100
AcDbEntity
  8
0
100
AcDbBlockBegin
  2
*D10
 70
     1
 10
0.0
 20
0.0
 30
0.0
  3
*D10
  1

  0
LINE
  5
13B3
330
F7C
100
AcDbEntity
  8
SUNPO
 62
   144
100
AcDbLine
 10
2613.851014127787
 20
2853.515747133855
 30
0.0
 11
2613.851014127787
 21
3139.652534205696
 31
0.0
  0
LINE
  5
13B4
330
F7C
100
AcDbEntity
  8
SUNPO
 62
   144
100
AcDbLine
 10
2723.851014127787
 20
2853.515747133855
 30
0.0
 11
2723.851014127787
 21
3139.652534205696
 31
0.0
  0
LINE
  5
13B5
330
F7C
100
AcDbEntity
  8
SUNPO
 62
   144
100
AcDbLine
 10
2643.851014127787
 20
3129.652534205695
 30
0.0
 11
2693.851014127787
 21
3129.652534205695
 31
0.0
  0
MTEXT
  5
13B6
330
F7C
100
AcDbEntity
  8
SUNPO
 62
     7
100
AcDbMText
 10
2668.851014127787
 20
3167.152534205695
 30
0.0
 40
50.0
 41
0.0
 71
     5
 72
     1
  1
\A2;110
  7
ADD
1001
ACAD
1000
MTEXTBEGIN
1070
    73
1070
     1
1070
    44
1040
1.0
1070
    74
1070
     0
1000
MTEXTEND
1000
MTEXTBEGIN
1070
    73
1070
     1
1070
    44
1040
1.0
1070
    74
1070
     0
1000
MTEXTEND
  0
SOLID
  5
13B7
330
F7C
100
AcDbEntity
  8
SUNPO
 62
   144
100
AcDbTrace
 10
2643.851014127787
 20
3134.652534205695
 30
0.0
 11
2643.851014127787
 21
3124.652534205695
 31
0.0
 12
2613.851014127787
 22
3129.652534205695
 32
0.0
 13
2613.851014127787
 23
3129.652534205695
 33
0.0
  0
SOLID
  5
13B8
330
F7C
100
AcDbEntity
  8
SUNPO
 62
   144
100
AcDbTrace
 10
2693.851014127787
 20
3134.652534205695
 30
0.0
 11
2693.851014127787
 21
3124.652534205695
 31
0.0
 12
2723.851014127787
 22
3129.652534205695
 32
0.0
 13
2723.851014127787
 23
3129.652534205695
 33
0.0
  0
POINT
  5
13B9
330
F7C
100
AcDbEntity
  8
DEFPOINTS
 62
     0
100
AcDbPoint
 10
2613.851014127787
 20
2833.515747133855
 30
0.0
  0
POINT
  5
13BA
330
F7C
100
AcDbEntity
  8
DEFPOINTS
 62
     0
100
AcDbPoint
 10
2723.851014127787
 20
2833.515747133855
 30
0.0
  0
POINT
  5
13BB
330
F7C
100
AcDbEntity
  8
DEFPOINTS
 62
     0
100
AcDbPoint
 10
2723.851014127787
 20
3129.652534205695
 30
0.0
  0
ENDBLK
  5
F89
330
F7C
100
AcDbEntity
  8
0
100
AcDbBlockEnd
  0
BLOCK
  5
F95
330
F8B
100
AcDbEntity
  8
0
100
AcDbBlockBegin
  2
*D11
 70
     1
 10
0.0
 20
0.0
 30
0.0
  3
*D11
  1

  0
LINE
  5
1341
330
F8B
100
AcDbEntity
  8
SUNPO
 62
   144
100
AcDbLine
 10
2723.851014127787
 20
2853.515747133855
 30
0.0
 11
2723.851014127787
 21
3139.652534205696
 31
0.0
  0
LINE
  5
1342
330
F8B
100
AcDbEntity
  8
SUNPO
 62
   144
100
AcDbLine
 10
4323.851014127788
 20
2853.515747133855
 30
0.0
 11
4323.851014127788
 21
3139.652534205696
 31
0.0
  0
LINE
  5
1343
330
F8B
100
AcDbEntity
  8
SUNPO
 62
   144
100
AcDbLine
 10
2767.851014127787
 20
3129.652534205695
 30
0.0
 11
4279.851014127787
 21
3129.652534205695
 31
0.0
  0
SOLID
  5
1344
330
F8B
100
AcDbEntity
  8
SUNPO
 62
   144
100
AcDbTrace
 10
2767.851014127787
 20
3136.985867539029
 30
0.0
 11
2767.851014127787
 21
3122.319200872362
 31
0.0
 12
2723.851014127787
 22
3129.652534205695
 32
0.0
 13
2723.851014127787
 23
3129.652534205695
 33
0.0
  0
SOLID
  5
1345
330
F8B
100
AcDbEntity
  8
SUNPO
 62
   144
100
AcDbTrace
 10
4279.851014127787
 20
3136.985867539029
 30
0.0
 11
4279.851014127787
 21
3122.319200872362
 31
0.0
 12
4323.851014127788
 22
3129.652534205695
 32
0.0
 13
4323.851014127788
 23
3129.652534205695
 33
0.0
  0
MTEXT
  5
1346
330
F8B
100
AcDbEntity
  8
SUNPO
 62
     7
100
AcDbMText
 10
3523.851014127787
 20
3167.152534205695
 30
0.0
 40
50.0
 41
0.0
 71
     5
 72
     1
  1
\A2;1600
  7
ADD
1001
ACAD
1000
MTEXTBEGIN
1070
    73
1070
     1
1070
    44
1040
1.0
1070
    74
1070
     0
1000
MTEXTEND
1000
MTEXTBEGIN
1070
    73
1070
     1
1070
    44
1040
1.0
1070
    74
1070
     0
1000
MTEXTEND
  0
POINT
  5
1347
330
F8B
100
AcDbEntity
  8
DEFPOINTS
 62
     0
100
AcDbPoint
 10
2723.851014127787
 20
2833.515747133855
 30
0.0
  0
POINT
  5
1348
330
F8B
100
AcDbEntity
  8
DEFPOINTS
 62
     0
100
AcDbPoint
 10
4323.851014127788
 20
2833.515747133855
 30
0.0
  0
POINT
  5
1349
330
F8B
100
AcDbEntity
  8
DEFPOINTS
 62
     0
100
AcDbPoint
 10
4323.851014127788
 20
3129.652534205695
 30
0.0
  0
ENDBLK
  5
F96
330
F8B
100
AcDbEntity
  8
0
100
AcDbBlockEnd
  0
BLOCK
  5
FA4
330
F98
100
AcDbEntity
  8
0
100
AcDbBlockBegin
  2
*D12
 70
     1
 10
0.0
 20
0.0
 30
0.0
  3
*D12
  1

  0
LINE
  5
13BC
330
F98
100
AcDbEntity
  8
SUNPO
 62
   144
100
AcDbLine
 10
4323.851014127788
 20
2853.515747133855
 30
0.0
 11
4323.851014127788
 21
3139.652534205696
 31
0.0
  0
LINE
  5
13BD
330
F98
100
AcDbEntity
  8
SUNPO
 62
   144
100
AcDbLine
 10
4433.851014127787
 20
2853.515747133855
 30
0.0
 11
4433.851014127787
 21
3139.652534205696
 31
0.0
  0
LINE
  5
13BE
330
F98
100
AcDbEntity
  8
SUNPO
 62
   144
100
AcDbLine
 10
4353.851014127787
 20
3129.652534205695
 30
0.0
 11
4403.851014127787
 21
3129.652534205695
 31
0.0
  0
MTEXT
  5
13BF
330
F98
100
AcDbEntity
  8
SUNPO
 62
     7
100
AcDbMText
 10
4378.851014127787
 20
3167.152534205695
 30
0.0
 40
50.0
 41
0.0
 71
     5
 72
     1
  1
\A2;110
  7
ADD
1001
ACAD
1000
MTEXTBEGIN
1070
    73
1070
     1
1070
    44
1040
1.0
1070
    74
1070
     0
1000
MTEXTEND
1000
MTEXTBEGIN
1070
    73
1070
     1
1070
    44
1040
1.0
1070
    74
1070
     0
1000
MTEXTEND
  0
SOLID
  5
13C0
330
F98
100
AcDbEntity
  8
SUNPO
 62
   144
100
AcDbTrace
 10
4353.851014127787
 20
3134.652534205695
 30
0.0
 11
4353.851014127787
 21
3124.652534205695
 31
0.0
 12
4323.851014127788
 22
3129.652534205695
 32
0.0
 13
4323.851014127788
 23
3129.652534205695
 33
0.0
  0
SOLID
  5
13C1
330
F98
100
AcDbEntity
  8
SUNPO
 62
   144
100
AcDbTrace
 10
4403.851014127787
 20
3134.652534205695
 30
0.0
 11
4403.851014127787
 21
3124.652534205695
 31
0.0
 12
4433.851014127787
 22
3129.652534205695
 32
0.0
 13
4433.851014127787
 23
3129.652534205695
 33
0.0
  0
POINT
  5
13C2
330
F98
100
AcDbEntity
  8
DEFPOINTS
 62
     0
100
AcDbPoint
 10
4323.851014127788
 20
2833.515747133855
 30
0.0
  0
POINT
  5
13C3
330
F98
100
AcDbEntity
  8
DEFPOINTS
 62
     0
100
AcDbPoint
 10
4433.851014127787
 20
2833.515747133855
 30
0.0
  0
POINT
  5
13C4
330
F98
100
AcDbEntity
  8
DEFPOINTS
 62
     0
100
AcDbPoint
 10
4433.851014127787
 20
3129.652534205695
 30
0.0
  0
ENDBLK
  5
FA5
330
F98
100
AcDbEntity
  8
0
100
AcDbBlockEnd
  0
BLOCK
  5
FB3
330
FA7
100
AcDbEntity
  8
0
100
AcDbBlockBegin
  2
*D13
 70
     1
 10
0.0
 20
0.0
 30
0.0
  3
*D13
  1

  0
LINE
  5
132B
330
FA7
100
AcDbEntity
  8
SUNPO
 62
   144
100
AcDbLine
 10
2663.910185739815
 20
2850.851710316612
 30
0.0
 11
2663.910185739815
 21
3006.584140669775
 31
0.0
  0
LINE
  5
132C
330
FA7
100
AcDbEntity
  8
SUNPO
 62
   144
100
AcDbLine
 10
2723.851014127787
 20
2853.515747133855
 30
0.0
 11
2723.851014127787
 21
3006.584140669775
 31
0.0
  0
LINE
  5
132D
330
FA7
100
AcDbEntity
  8
SUNPO
 62
   144
100
AcDbLine
 10
2619.910185739815
 20
2996.584140669775
 30
0.0
 11
2575.910185739815
 21
2996.584140669775
 31
0.0
  0
LINE
  5
132E
330
FA7
100
AcDbEntity
  8
SUNPO
 62
   144
100
AcDbLine
 10
2767.851014127787
 20
2996.584140669775
 30
0.0
 11
2811.851014127787
 21
2996.584140669775
 31
0.0
  0
MTEXT
  5
132F
330
FA7
100
AcDbEntity
  8
SUNPO
 62
     7
100
AcDbMText
 10
2693.880599933801
 20
3034.084140669775
 30
0.0
 40
50.0
 41
0.0
 71
     5
 72
     1
  1
\A2;60
  7
ADD
1001
ACAD
1000
MTEXTBEGIN
1070
    73
1070
     1
1070
    44
1040
1.0
1070
    74
1070
     0
1000
MTEXTEND
1000
MTEXTBEGIN
1070
    73
1070
     1
1070
    44
1040
1.0
1070
    74
1070
     0
1000
MTEXTEND
  0
LINE
  5
1330
330
FA7
100
AcDbEntity
  8
SUNPO
 62
   144
100
AcDbLine
 10
2663.910185739815
 20
2996.584140669775
 30
0.0
 11
2723.851014127787
 21
2996.584140669775
 31
0.0
  0
SOLID
  5
1331
330
FA7
100
AcDbEntity
  8
SUNPO
 62
   144
100
AcDbTrace
 10
2619.910185739815
 20
3003.917474003109
 30
0.0
 11
2619.910185739815
 21
2989.250807336442
 31
0.0
 12
2663.910185739815
 22
2996.584140669775
 32
0.0
 13
2663.910185739815
 23
2996.584140669775
 33
0.0
  0
SOLID
  5
1332
330
FA7
100
AcDbEntity
  8
SUNPO
 62
   144
100
AcDbTrace
 10
2767.851014127787
 20
3003.917474003109
 30
0.0
 11
2767.851014127787
 21
2989.250807336442
 31
0.0
 12
2723.851014127787
 22
2996.584140669775
 32
0.0
 13
2723.851014127787
 23
2996.584140669775
 33
0.0
  0
POINT
  5
1333
330
FA7
100
AcDbEntity
  8
DEFPOINTS
 62
     0
100
AcDbPoint
 10
2663.910185739815
 20
2830.851710316611
 30
0.0
  0
POINT
  5
1334
330
FA7
100
AcDbEntity
  8
DEFPOINTS
 62
     0
100
AcDbPoint
 10
2723.851014127787
 20
2833.515747133855
 30
0.0
  0
POINT
  5
1335
330
FA7
100
AcDbEntity
  8
DEFPOINTS
 62
     0
100
AcDbPoint
 10
2723.851014127787
 20
2996.584140669775
 30
0.0
  0
ENDBLK
  5
FB4
330
FA7
100
AcDbEntity
  8
0
100
AcDbBlockEnd
  0
BLOCK
  5
FC2
330
FB6
100
AcDbEntity
  8
0
100
AcDbBlockBegin
  2
*D14
 70
     1
 10
0.0
 20
0.0
 30
0.0
  3
*D14
  1

  0
LINE
  5
1320
330
FB6
100
AcDbEntity
  8
SUNPO
 62
   144
100
AcDbLine
 10
4323.851014127788
 20
2853.515747133855
 30
0.0
 11
4323.851014127788
 21
3006.584140669775
 31
0.0
  0
LINE
  5
1321
330
FB6
100
AcDbEntity
  8
SUNPO
 62
   144
100
AcDbLine
 10
4383.79184251576
 20
2850.851710316612
 30
0.0
 11
4383.79184251576
 21
3006.584140669775
 31
0.0
  0
LINE
  5
1322
330
FB6
100
AcDbEntity
  8
SUNPO
 62
   144
100
AcDbLine
 10
4279.851014127787
 20
2996.584140669775
 30
0.0
 11
4235.851014127788
 21
2996.584140669775
 31
0.0
  0
LINE
  5
1323
330
FB6
100
AcDbEntity
  8
SUNPO
 62
   144
100
AcDbLine
 10
4427.791842515761
 20
2996.584140669775
 30
0.0
 11
4471.79184251576
 21
2996.584140669775
 31
0.0
  0
LINE
  5
1324
330
FB6
100
AcDbEntity
  8
SUNPO
 62
   144
100
AcDbLine
 10
4323.851014127788
 20
2996.584140669775
 30
0.0
 11
4383.79184251576
 21
2996.584140669775
 31
0.0
  0
SOLID
  5
1325
330
FB6
100
AcDbEntity
  8
SUNPO
 62
   144
100
AcDbTrace
 10
4279.851014127787
 20
3003.917474003109
 30
0.0
 11
4279.851014127787
 21
2989.250807336442
 31
0.0
 12
4323.851014127788
 22
2996.584140669775
 32
0.0
 13
4323.851014127788
 23
2996.584140669775
 33
0.0
  0
SOLID
  5
1326
330
FB6
100
AcDbEntity
  8
SUNPO
 62
   144
100
AcDbTrace
 10
4427.791842515761
 20
3003.917474003109
 30
0.0
 11
4427.791842515761
 21
2989.250807336442
 31
0.0
 12
4383.79184251576
 22
2996.584140669775
 32
0.0
 13
4383.79184251576
 23
2996.584140669775
 33
0.0
  0
MTEXT
  5
1327
330
FB6
100
AcDbEntity
  8
SUNPO
 62
     7
100
AcDbMText
 10
4353.821428321774
 20
3034.084140669775
 30
0.0
 40
50.0
 41
0.0
 71
     5
 72
     1
  1
\A2;60
  7
ADD
1001
ACAD
1000
MTEXTBEGIN
1070
    73
1070
     1
1070
    44
1040
1.0
1070
    74
1070
     0
1000
MTEXTEND
1000
MTEXTBEGIN
1070
    73
1070
     1
1070
    44
1040
1.0
1070
    74
1070
     0
1000
MTEXTEND
  0
POINT
  5
1328
330
FB6
100
AcDbEntity
  8
DEFPOINTS
 62
     0
100
AcDbPoint
 10
4323.851014127788
 20
2833.515747133855
 30
0.0
  0
POINT
  5
1329
330
FB6
100
AcDbEntity
  8
DEFPOINTS
 62
     0
100
AcDbPoint
 10
4383.79184251576
 20
2830.851710316611
 30
0.0
  0
POINT
  5
132A
330
FB6
100
AcDbEntity
  8
DEFPOINTS
 62
     0
100
AcDbPoint
 10
4383.79184251576
 20
2996.584140669775
 30
0.0
  0
ENDBLK
  5
FC3
330
FB6
100
AcDbEntity
  8
0
100
AcDbBlockEnd
  0
BLOCK
  5
FFB
330
FF1
100
AcDbEntity
  8
0
100
AcDbBlockBegin
  2
*D15
 70
     1
 10
0.0
 20
0.0
 30
0.0
  3
*D15
  1

  0
LINE
  5
1317
330
FF1
100
AcDbEntity
  8
SUNPO
 62
   144
100
AcDbLine
 10
2593.851014127787
 20
2833.515747133855
 30
0.0
 11
2280.395839392869
 21
2833.515747133855
 31
0.0
  0
LINE
  5
1318
330
FF1
100
AcDbEntity
  8
SUNPO
 62
   144
100
AcDbLine
 10
2593.851014127787
 20
1783.515747133855
 30
0.0
 11
2280.395839392869
 21
1783.515747133855
 31
0.0
  0
LINE
  5
1319
330
FF1
100
AcDbEntity
  8
SUNPO
 62
   144
100
AcDbLine
 10
2290.395839392869
 20
2789.515747133855
 30
0.0
 11
2290.395839392869
 21
1827.515747133855
 31
0.0
  0
SOLID
  5
131A
330
FF1
100
AcDbEntity
  8
SUNPO
 62
   144
100
AcDbTrace
 10
2283.062506059536
 20
2789.515747133855
 30
0.0
 11
2297.729172726203
 21
2789.515747133855
 31
0.0
 12
2290.395839392869
 22
2833.515747133855
 32
0.0
 13
2290.395839392869
 23
2833.515747133855
 33
0.0
  0
SOLID
  5
131B
330
FF1
100
AcDbEntity
  8
SUNPO
 62
   144
100
AcDbTrace
 10
2283.062506059536
 20
1827.515747133855
 30
0.0
 11
2297.729172726203
 21
1827.515747133855
 31
0.0
 12
2290.395839392869
 22
1783.515747133855
 32
0.0
 13
2290.395839392869
 23
1783.515747133855
 33
0.0
  0
MTEXT
  5
131C
330
FF1
100
AcDbEntity
  8
SUNPO
 62
     7
100
AcDbMText
 10
2252.895839392869
 20
2308.515747133855
 30
0.0
 40
50.0
 41
0.0
 71
     5
 72
     1
  1
\A2;1050
  7
ADD
 11
0.0000000000000001
 21
1.0
 31
0.0
1001
ACAD
1000
MTEXTBEGIN
1070
    73
1070
     1
1070
    44
1040
1.0
1070
    74
1070
     0
1000
MTEXTEND
1000
MTEXTBEGIN
1070
    73
1070
     1
1070
    44
1040
1.0
1070
    74
1070
     0
1000
MTEXTEND
  0
POINT
  5
131D
330
FF1
100
AcDbEntity
  8
DEFPOINTS
 62
     0
100
AcDbPoint
 10
2613.851014127787
 20
2833.515747133855
 30
0.0
  0
POINT
  5
131E
330
FF1
100
AcDbEntity
  8
DEFPOINTS
 62
     0
100
AcDbPoint
 10
2613.851014127787
 20
1783.515747133855
 30
0.0
  0
POINT
  5
131F
330
FF1
100
AcDbEntity
  8
DEFPOINTS
 62
     0
100
AcDbPoint
 10
2290.395839392869
 20
1783.515747133855
 30
0.0
  0
ENDBLK
  5
FFC
330
FF1
100
AcDbEntity
  8
0
100
AcDbBlockEnd
  0
BLOCK
  5
1008
330
FFE
100
AcDbEntity
  8
0
100
AcDbBlockBegin
  2
*D16
 70
     1
 10
0.0
 20
0.0
 30
0.0
  3
*D16
  1

  0
LINE
  5
130E
330
FFE
100
AcDbEntity
  8
SUNPO
 62
   144
100
AcDbLine
 10
2593.851014127787
 20
1783.515747133855
 30
0.0
 11
2446.661215995016
 21
1783.515747133855
 31
0.0
  0
LINE
  5
130F
330
FFE
100
AcDbEntity
  8
SUNPO
 62
   144
100
AcDbLine
 10
2593.851014127788
 20
1933.515747133855
 30
0.0
 11
2446.661215995016
 21
1933.515747133855
 31
0.0
  0
LINE
  5
1310
330
FFE
100
AcDbEntity
  8
SUNPO
 62
   144
100
AcDbLine
 10
2456.661215995016
 20
1827.515747133855
 30
0.0
 11
2456.661215995016
 21
1889.515747133855
 31
0.0
  0
SOLID
  5
1311
330
FFE
100
AcDbEntity
  8
SUNPO
 62
   144
100
AcDbTrace
 10
2449.327882661683
 20
1827.515747133855
 30
0.0
 11
2463.994549328349
 21
1827.515747133855
 31
0.0
 12
2456.661215995016
 22
1783.515747133855
 32
0.0
 13
2456.661215995016
 23
1783.515747133855
 33
0.0
  0
SOLID
  5
1312
330
FFE
100
AcDbEntity
  8
SUNPO
 62
   144
100
AcDbTrace
 10
2449.327882661683
 20
1889.515747133855
 30
0.0
 11
2463.994549328349
 21
1889.515747133855
 31
0.0
 12
2456.661215995016
 22
1933.515747133855
 32
0.0
 13
2456.661215995016
 23
1933.515747133855
 33
0.0
  0
MTEXT
  5
1313
330
FFE
100
AcDbEntity
  8
SUNPO
 62
     7
100
AcDbMText
 10
2419.161215995016
 20
1858.515747133855
 30
0.0
 40
50.0
 41
0.0
 71
     5
 72
     1
  1
\A2;150
  7
ADD
 11
0.0000000000000001
 21
1.0
 31
0.0
1001
ACAD
1000
MTEXTBEGIN
1070
    73
1070
     1
1070
    44
1040
1.0
1070
    74
1070
     0
1000
MTEXTEND
1000
MTEXTBEGIN
1070
    73
1070
     1
1070
    44
1040
1.0
1070
    74
1070
     0
1000
MTEXTEND
  0
POINT
  5
1314
330
FFE
100
AcDbEntity
  8
DEFPOINTS
 62
     0
100
AcDbPoint
 10
2613.851014127787
 20
1783.515747133855
 30
0.0
  0
POINT
  5
1315
330
FFE
100
AcDbEntity
  8
DEFPOINTS
 62
     0
100
AcDbPoint
 10
2613.851014127788
 20
1933.515747133855
 30
0.0
  0
POINT
  5
1316
330
FFE
100
AcDbEntity
  8
DEFPOINTS
 62
     0
100
AcDbPoint
 10
2456.661215995016
 20
1933.515747133855
 30
0.0
  0
ENDBLK
  5
1009
330
FFE
100
AcDbEntity
  8
0
100
AcDbBlockEnd
  0
BLOCK
  5
1015
330
100B
100
AcDbEntity
  8
0
100
AcDbBlockBegin
  2
*D17
 70
     1
 10
0.0
 20
0.0
 30
0.0
  3
*D17
  1

  0
LINE
  5
1305
330
100B
100
AcDbEntity
  8
SUNPO
 62
   144
100
AcDbLine
 10
2593.851014127787
 20
1933.515747133855
 30
0.0
 11
2446.661215995016
 21
1933.515747133855
 31
0.0
  0
LINE
  5
1306
330
100B
100
AcDbEntity
  8
SUNPO
 62
   144
100
AcDbLine
 10
2593.851014127787
 20
2833.515747133855
 30
0.0
 11
2446.661215995016
 21
2833.515747133855
 31
0.0
  0
LINE
  5
1307
330
100B
100
AcDbEntity
  8
SUNPO
 62
   144
100
AcDbLine
 10
2456.661215995016
 20
1977.515747133855
 30
0.0
 11
2456.661215995016
 21
2789.515747133855
 31
0.0
  0
SOLID
  5
1308
330
100B
100
AcDbEntity
  8
SUNPO
 62
   144
100
AcDbTrace
 10
2449.327882661683
 20
1977.515747133855
 30
0.0
 11
2463.994549328349
 21
1977.515747133855
 31
0.0
 12
2456.661215995016
 22
1933.515747133855
 32
0.0
 13
2456.661215995016
 23
1933.515747133855
 33
0.0
  0
SOLID
  5
1309
330
100B
100
AcDbEntity
  8
SUNPO
 62
   144
100
AcDbTrace
 10
2449.327882661683
 20
2789.515747133855
 30
0.0
 11
2463.994549328349
 21
2789.515747133855
 31
0.0
 12
2456.661215995016
 22
2833.515747133855
 32
0.0
 13
2456.661215995016
 23
2833.515747133855
 33
0.0
  0
MTEXT
  5
130A
330
100B
100
AcDbEntity
  8
SUNPO
 62
     7
100
AcDbMText
 10
2419.161215995016
 20
2383.515747133856
 30
0.0
 40
50.0
 41
0.0
 71
     5
 72
     1
  1
\A2;900
  7
ADD
 11
0.0000000000000001
 21
1.0
 31
0.0
1001
ACAD
1000
MTEXTBEGIN
1070
    73
1070
     1
1070
    44
1040
1.0
1070
    74
1070
     0
1000
MTEXTEND
1000
MTEXTBEGIN
1070
    73
1070
     1
1070
    44
1040
1.0
1070
    74
1070
     0
1000
MTEXTEND
  0
POINT
  5
130B
330
100B
100
AcDbEntity
  8
DEFPOINTS
 62
     0
100
AcDbPoint
 10
2613.851014127787
 20
1933.515747133855
 30
0.0
  0
POINT
  5
130C
330
100B
100
AcDbEntity
  8
DEFPOINTS
 62
     0
100
AcDbPoint
 10
2613.851014127787
 20
2833.515747133855
 30
0.0
  0
POINT
  5
130D
330
100B
100
AcDbEntity
  8
DEFPOINTS
 62
     0
100
AcDbPoint
 10
2456.661215995016
 20
2833.515747133855
 30
0.0
  0
ENDBLK
  5
1016
330
100B
100
AcDbEntity
  8
0
100
AcDbBlockEnd
  0
BLOCK
  5
1078
330
106E
100
AcDbEntity
  8
0
100
AcDbBlockBegin
  2
*D18
 70
     1
 10
0.0
 20
0.0
 30
0.0
  3
*D18
  1

  0
LINE
  5
12FC
330
106E
100
AcDbEntity
  8
SUNPO
 62
   144
100
AcDbLine
 10
1933.851014127787
 20
1763.515747133855
 30
0.0
 11
1933.851014127787
 21
1228.774390045935
 31
0.0
  0
LINE
  5
12FD
330
106E
100
AcDbEntity
  8
SUNPO
 62
   144
100
AcDbLine
 10
2113.851014127787
 20
1763.515747133855
 30
0.0
 11
2113.851014127787
 21
1228.774390045935
 31
0.0
  0
LINE
  5
12FE
330
106E
100
AcDbEntity
  8
SUNPO
 62
   144
100
AcDbLine
 10
1977.851014127787
 20
1238.774390045935
 30
0.0
 11
2069.851014127787
 21
1238.774390045935
 31
0.0
  0
SOLID
  5
12FF
330
106E
100
AcDbEntity
  8
SUNPO
 62
   144
100
AcDbTrace
 10
1977.851014127787
 20
1246.107723379268
 30
0.0
 11
1977.851014127787
 21
1231.441056712602
 31
0.0
 12
1933.851014127787
 22
1238.774390045935
 32
0.0
 13
1933.851014127787
 23
1238.774390045935
 33
0.0
  0
SOLID
  5
1300
330
106E
100
AcDbEntity
  8
SUNPO
 62
   144
100
AcDbTrace
 10
2069.851014127787
 20
1246.107723379268
 30
0.0
 11
2069.851014127787
 21
1231.441056712602
 31
0.0
 12
2113.851014127787
 22
1238.774390045935
 32
0.0
 13
2113.851014127787
 23
1238.774390045935
 33
0.0
  0
MTEXT
  5
1301
330
106E
100
AcDbEntity
  8
SUNPO
 62
     7
100
AcDbMText
 10
2023.851014127787
 20
1276.274390045935
 30
0.0
 40
50.0
 41
0.0
 71
     5
 72
     1
  1
\A2;180
  7
ADD
1001
ACAD
1000
MTEXTBEGIN
1070
    73
1070
     1
1070
    44
1040
1.0
1070
    74
1070
     0
1000
MTEXTEND
1000
MTEXTBEGIN
1070
    73
1070
     1
1070
    44
1040
1.0
1070
    74
1070
     0
1000
MTEXTEND
  0
POINT
  5
1302
330
106E
100
AcDbEntity
  8
DEFPOINTS
 62
     0
100
AcDbPoint
 10
1933.851014127787
 20
1783.515747133855
 30
0.0
  0
POINT
  5
1303
330
106E
100
AcDbEntity
  8
DEFPOINTS
 62
     0
100
AcDbPoint
 10
2113.851014127787
 20
1783.515747133855
 30
0.0
  0
POINT
  5
1304
330
106E
100
AcDbEntity
  8
DEFPOINTS
 62
     0
100
AcDbPoint
 10
2113.851014127787
 20
1238.774390045935
 30
0.0
  0
ENDBLK
  5
1079
330
106E
100
AcDbEntity
  8
0
100
AcDbBlockEnd
  0
BLOCK
  5
1099
330
108D
100
AcDbEntity
  8
0
100
AcDbBlockBegin
  2
*D19
 70
     1
 10
0.0
 20
0.0
 30
0.0
  3
*D19
  1

  0
LINE
  5
12F1
330
108D
100
AcDbEntity
  8
SUNPO
 62
   144
100
AcDbLine
 10
2763.851014127787
 20
1953.515747133855
 30
0.0
 11
2763.851014127787
 21
2146.749979603862
 31
0.0
  0
LINE
  5
12F2
330
108D
100
AcDbEntity
  8
SUNPO
 62
   144
100
AcDbLine
 10
2783.851014127787
 20
1953.515747133855
 30
0.0
 11
2783.851014127787
 21
2146.749979603862
 31
0.0
  0
LINE
  5
12F3
330
108D
100
AcDbEntity
  8
SUNPO
 62
   144
100
AcDbLine
 10
2719.851014127787
 20
2136.749979603862
 30
0.0
 11
2675.851014127787
 21
2136.749979603862
 31
0.0
  0
LINE
  5
12F4
330
108D
100
AcDbEntity
  8
SUNPO
 62
   144
100
AcDbLine
 10
2827.851014127787
 20
2136.749979603862
 30
0.0
 11
2871.851014127787
 21
2136.749979603862
 31
0.0
  0
MTEXT
  5
12F5
330
108D
100
AcDbEntity
  8
SUNPO
 62
     7
100
AcDbMText
 10
2843.145856512759
 20
2174.249979603863
 30
0.0
 40
50.0
 41
0.0
 71
     5
 72
     1
  1
\A2;20
  7
ADD
1001
ACAD
1000
MTEXTBEGIN
1070
    73
1070
     1
1070
    44
1040
1.0
1070
    74
1070
     0
1000
MTEXTEND
1000
MTEXTBEGIN
1070
    73
1070
     1
1070
    44
1040
1.0
1070
    74
1070
     0
1000
MTEXTEND
  0
LINE
  5
12F6
330
108D
100
AcDbEntity
  8
SUNPO
 62
   144
100
AcDbLine
 10
2763.851014127787
 20
2136.749979603862
 30
0.0
 11
2783.851014127787
 21
2136.749979603862
 31
0.0
  0
SOLID
  5
12F7
330
108D
100
AcDbEntity
  8
SUNPO
 62
   144
100
AcDbTrace
 10
2719.851014127787
 20
2144.083312937196
 30
0.0
 11
2719.851014127787
 21
2129.416646270529
 31
0.0
 12
2763.851014127787
 22
2136.749979603862
 32
0.0
 13
2763.851014127787
 23
2136.749979603862
 33
0.0
  0
SOLID
  5
12F8
330
108D
100
AcDbEntity
  8
SUNPO
 62
   144
100
AcDbTrace
 10
2827.851014127787
 20
2144.083312937196
 30
0.0
 11
2827.851014127787
 21
2129.416646270529
 31
0.0
 12
2783.851014127787
 22
2136.749979603862
 32
0.0
 13
2783.851014127787
 23
2136.749979603862
 33
0.0
  0
POINT
  5
12F9
330
108D
100
AcDbEntity
  8
DEFPOINTS
 62
     0
100
AcDbPoint
 10
2763.851014127787
 20
1933.515747133855
 30
0.0
  0
POINT
  5
12FA
330
108D
100
AcDbEntity
  8
DEFPOINTS
 62
     0
100
AcDbPoint
 10
2783.851014127787
 20
1933.515747133855
 30
0.0
  0
POINT
  5
12FB
330
108D
100
AcDbEntity
  8
DEFPOINTS
 62
     0
100
AcDbPoint
 10
2783.851014127787
 20
2136.749979603862
 30
0.0
  0
ENDBLK
  5
109A
330
108D
100
AcDbEntity
  8
0
100
AcDbBlockEnd
  0
BLOCK
  5
10AD
330
10A1
100
AcDbEntity
  8
0
100
AcDbBlockBegin
  2
*D20
 70
     1
 10
0.0
 20
0.0
 30
0.0
  3
*D20
  1

  0
LINE
  5
12E6
330
10A1
100
AcDbEntity
  8
SUNPO
 62
   144
100
AcDbLine
 10
2782.963001855372
 20
1933.515747133855
 30
0.0
 11
3029.167042655039
 21
1933.515747133855
 31
0.0
  0
LINE
  5
12E7
330
10A1
100
AcDbEntity
  8
SUNPO
 62
   144
100
AcDbLine
 10
2782.963001855372
 20
1953.49602326318
 30
0.0
 11
3029.167042655039
 21
1953.49602326318
 31
0.0
  0
LINE
  5
12E8
330
10A1
100
AcDbEntity
  8
SUNPO
 62
   144
100
AcDbLine
 10
3019.167042655039
 20
1889.515747133856
 30
0.0
 11
3019.167042655039
 21
1845.515747133855
 31
0.0
  0
LINE
  5
12E9
330
10A1
100
AcDbEntity
  8
SUNPO
 62
   144
100
AcDbLine
 10
3019.167042655039
 20
1997.49602326318
 30
0.0
 11
3019.167042655039
 21
2041.496023263179
 31
0.0
  0
MTEXT
  5
12EA
330
10A1
100
AcDbEntity
  8
SUNPO
 62
     7
100
AcDbMText
 10
2981.667042655038
 20
2023.721102145467
 30
0.0
 40
50.0
 41
0.0
 71
     5
 72
     1
  1
\A2;20
  7
ADD
 11
0.0000000000000001
 21
1.0
 31
0.0
1001
ACAD
1000
MTEXTBEGIN
1070
    73
1070
     1
1070
    44
1040
1.0
1070
    74
1070
     0
1000
MTEXTEND
1000
MTEXTBEGIN
1070
    73
1070
     1
1070
    44
1040
1.0
1070
    74
1070
     0
1000
MTEXTEND
  0
LINE
  5
12EB
330
10A1
100
AcDbEntity
  8
SUNPO
 62
   144
100
AcDbLine
 10
3019.167042655039
 20
1933.515747133855
 30
0.0
 11
3019.167042655039
 21
1953.49602326318
 31
0.0
  0
SOLID
  5
12EC
330
10A1
100
AcDbEntity
  8
SUNPO
 62
   144
100
AcDbTrace
 10
3011.833709321706
 20
1889.515747133856
 30
0.0
 11
3026.500375988372
 21
1889.515747133856
 31
0.0
 12
3019.167042655039
 22
1933.515747133855
 32
0.0
 13
3019.167042655039
 23
1933.515747133855
 33
0.0
  0
SOLID
  5
12ED
330
10A1
100
AcDbEntity
  8
SUNPO
 62
   144
100
AcDbTrace
 10
3011.833709321706
 20
1997.49602326318
 30
0.0
 11
3026.500375988372
 21
1997.49602326318
 31
0.0
 12
3019.167042655039
 22
1953.49602326318
 32
0.0
 13
3019.167042655039
 23
1953.49602326318
 33
0.0
  0
POINT
  5
12EE
330
10A1
100
AcDbEntity
  8
DEFPOINTS
 62
     0
100
AcDbPoint
 10
2762.963001855372
 20
1933.515747133855
 30
0.0
  0
POINT
  5
12EF
330
10A1
100
AcDbEntity
  8
DEFPOINTS
 62
     0
100
AcDbPoint
 10
2762.963001855372
 20
1953.49602326318
 30
0.0
  0
POINT
  5
12F0
330
10A1
100
AcDbEntity
  8
DEFPOINTS
 62
     0
100
AcDbPoint
 10
3019.167042655039
 20
1953.49602326318
 30
0.0
  0
ENDBLK
  5
10AE
330
10A1
100
AcDbEntity
  8
0
100
AcDbBlockEnd
  0
BLOCK
  5
10D8
330
10CE
100
AcDbEntity
  8
0
100
AcDbBlockBegin
  2
*D21
 70
     1
 10
0.0
 20
0.0
 30
0.0
  3
*D21
  1

  0
LINE
  5
12DD
330
10CE
100
AcDbEntity
  8
SUNPO
 62
   144
100
AcDbLine
 10
2613.851014127787
 20
1763.515747133855
 30
0.0
 11
2613.851014127787
 21
1218.774390045935
 31
0.0
  0
LINE
  5
12DE
330
10CE
100
AcDbEntity
  8
SUNPO
 62
   144
100
AcDbLine
 10
4433.851014127787
 20
1763.515747133855
 30
0.0
 11
4433.851014127787
 21
1218.774390045935
 31
0.0
  0
LINE
  5
12DF
330
10CE
100
AcDbEntity
  8
SUNPO
 62
   144
100
AcDbLine
 10
2657.851014127787
 20
1228.774390045935
 30
0.0
 11
4389.851014127787
 21
1228.774390045935
 31
0.0
  0
SOLID
  5
12E0
330
10CE
100
AcDbEntity
  8
SUNPO
 62
   144
100
AcDbTrace
 10
2657.851014127787
 20
1236.107723379268
 30
0.0
 11
2657.851014127787
 21
1221.441056712602
 31
0.0
 12
2613.851014127787
 22
1228.774390045935
 32
0.0
 13
2613.851014127787
 23
1228.774390045935
 33
0.0
  0
SOLID
  5
12E1
330
10CE
100
AcDbEntity
  8
SUNPO
 62
   144
100
AcDbTrace
 10
4389.851014127787
 20
1236.107723379268
 30
0.0
 11
4389.851014127787
 21
1221.441056712602
 31
0.0
 12
4433.851014127787
 22
1228.774390045935
 32
0.0
 13
4433.851014127787
 23
1228.774390045935
 33
0.0
  0
MTEXT
  5
12E2
330
10CE
100
AcDbEntity
  8
SUNPO
 62
     7
100
AcDbMText
 10
3523.851014127787
 20
1266.274390045935
 30
0.0
 40
50.0
 41
0.0
 71
     5
 72
     1
  1
\A2;1820
  7
ADD
1001
ACAD
1000
MTEXTBEGIN
1070
    73
1070
     1
1070
    44
1040
1.0
1070
    74
1070
     0
1000
MTEXTEND
1000
MTEXTBEGIN
1070
    73
1070
     1
1070
    44
1040
1.0
1070
    74
1070
     0
1000
MTEXTEND
  0
POINT
  5
12E3
330
10CE
100
AcDbEntity
  8
DEFPOINTS
 62
     0
100
AcDbPoint
 10
2613.851014127787
 20
1783.515747133855
 30
0.0
  0
POINT
  5
12E4
330
10CE
100
AcDbEntity
  8
DEFPOINTS
 62
     0
100
AcDbPoint
 10
4433.851014127787
 20
1783.515747133855
 30
0.0
  0
POINT
  5
12E5
330
10CE
100
AcDbEntity
  8
DEFPOINTS
 62
     0
100
AcDbPoint
 10
4433.851014127787
 20
1228.774390045935
 30
0.0
  0
ENDBLK
  5
10D9
330
10CE
100
AcDbEntity
  8
0
100
AcDbBlockEnd
  0
BLOCK
  5
10E7
330
10DD
100
AcDbEntity
  8
0
100
AcDbBlockBegin
  2
*D22
 70
     1
 10
0.0
 20
0.0
 30
0.0
  3
*D22
  1

  0
LINE
  5
12D4
330
10DD
100
AcDbEntity
  8
SUNPO
 62
   144
100
AcDbLine
 10
2613.851014127787
 20
1763.515747133855
 30
0.0
 11
2613.851014127787
 21
1481.145068589895
 31
0.0
  0
LINE
  5
12D5
330
10DD
100
AcDbEntity
  8
SUNPO
 62
   144
100
AcDbLine
 10
2763.851014127787
 20
1763.515747133855
 30
0.0
 11
2763.851014127787
 21
1481.145068589895
 31
0.0
  0
LINE
  5
12D6
330
10DD
100
AcDbEntity
  8
SUNPO
 62
   144
100
AcDbLine
 10
2657.851014127787
 20
1491.145068589895
 30
0.0
 11
2719.851014127787
 21
1491.145068589895
 31
0.0
  0
SOLID
  5
12D7
330
10DD
100
AcDbEntity
  8
SUNPO
 62
   144
100
AcDbTrace
 10
2657.851014127787
 20
1498.478401923228
 30
0.0
 11
2657.851014127787
 21
1483.811735256562
 31
0.0
 12
2613.851014127787
 22
1491.145068589895
 32
0.0
 13
2613.851014127787
 23
1491.145068589895
 33
0.0
  0
SOLID
  5
12D8
330
10DD
100
AcDbEntity
  8
SUNPO
 62
   144
100
AcDbTrace
 10
2719.851014127787
 20
1498.478401923228
 30
0.0
 11
2719.851014127787
 21
1483.811735256562
 31
0.0
 12
2763.851014127787
 22
1491.145068589895
 32
0.0
 13
2763.851014127787
 23
1491.145068589895
 33
0.0
  0
MTEXT
  5
12D9
330
10DD
100
AcDbEntity
  8
SUNPO
 62
     7
100
AcDbMText
 10
2688.851014127787
 20
1528.645068589895
 30
0.0
 40
50.0
 41
0.0
 71
     5
 72
     1
  1
\A2;150
  7
ADD
1001
ACAD
1000
MTEXTBEGIN
1070
    73
1070
     1
1070
    44
1040
1.0
1070
    74
1070
     0
1000
MTEXTEND
1000
MTEXTBEGIN
1070
    73
1070
     1
1070
    44
1040
1.0
1070
    74
1070
     0
1000
MTEXTEND
  0
POINT
  5
12DA
330
10DD
100
AcDbEntity
  8
DEFPOINTS
 62
     0
100
AcDbPoint
 10
2613.851014127787
 20
1783.515747133855
 30
0.0
  0
POINT
  5
12DB
330
10DD
100
AcDbEntity
  8
DEFPOINTS
 62
     0
100
AcDbPoint
 10
2763.851014127787
 20
1783.515747133855
 30
0.0
  0
POINT
  5
12DC
330
10DD
100
AcDbEntity
  8
DEFPOINTS
 62
     0
100
AcDbPoint
 10
2763.851014127787
 20
1491.145068589895
 30
0.0
  0
ENDBLK
  5
10E8
330
10DD
100
AcDbEntity
  8
0
100
AcDbBlockEnd
  0
BLOCK
  5
10F4
330
10EA
100
AcDbEntity
  8
0
100
AcDbBlockBegin
  2
*D23
 70
     1
 10
0.0
 20
0.0
 30
0.0
  3
*D23
  1

  0
LINE
  5
12CB
330
10EA
100
AcDbEntity
  8
SUNPO
 62
   144
100
AcDbLine
 10
2763.851014127787
 20
1763.515747133855
 30
0.0
 11
2763.851014127787
 21
1481.145068589895
 31
0.0
  0
LINE
  5
12CC
330
10EA
100
AcDbEntity
  8
SUNPO
 62
   144
100
AcDbLine
 10
4283.851014127787
 20
1763.515747133855
 30
0.0
 11
4283.851014127787
 21
1481.145068589895
 31
0.0
  0
LINE
  5
12CD
330
10EA
100
AcDbEntity
  8
SUNPO
 62
   144
100
AcDbLine
 10
2807.851014127787
 20
1491.145068589895
 30
0.0
 11
4239.851014127787
 21
1491.145068589895
 31
0.0
  0
SOLID
  5
12CE
330
10EA
100
AcDbEntity
  8
SUNPO
 62
   144
100
AcDbTrace
 10
2807.851014127787
 20
1498.478401923228
 30
0.0
 11
2807.851014127787
 21
1483.811735256562
 31
0.0
 12
2763.851014127787
 22
1491.145068589895
 32
0.0
 13
2763.851014127787
 23
1491.145068589895
 33
0.0
  0
SOLID
  5
12CF
330
10EA
100
AcDbEntity
  8
SUNPO
 62
   144
100
AcDbTrace
 10
4239.851014127787
 20
1498.478401923228
 30
0.0
 11
4239.851014127787
 21
1483.811735256562
 31
0.0
 12
4283.851014127787
 22
1491.145068589895
 32
0.0
 13
4283.851014127787
 23
1491.145068589895
 33
0.0
  0
MTEXT
  5
12D0
330
10EA
100
AcDbEntity
  8
SUNPO
 62
     7
100
AcDbMText
 10
3523.851014127787
 20
1528.645068589895
 30
0.0
 40
50.0
 41
0.0
 71
     5
 72
     1
  1
\A2;1520
  7
ADD
1001
ACAD
1000
MTEXTBEGIN
1070
    73
1070
     1
1070
    44
1040
1.0
1070
    74
1070
     0
1000
MTEXTEND
1000
MTEXTBEGIN
1070
    73
1070
     1
1070
    44
1040
1.0
1070
    74
1070
     0
1000
MTEXTEND
  0
POINT
  5
12D1
330
10EA
100
AcDbEntity
  8
DEFPOINTS
 62
     0
100
AcDbPoint
 10
2763.851014127787
 20
1783.515747133855
 30
0.0
  0
POINT
  5
12D2
330
10EA
100
AcDbEntity
  8
DEFPOINTS
 62
     0
100
AcDbPoint
 10
4283.851014127787
 20
1783.515747133855
 30
0.0
  0
POINT
  5
12D3
330
10EA
100
AcDbEntity
  8
DEFPOINTS
 62
     0
100
AcDbPoint
 10
4283.851014127787
 20
1491.145068589895
 30
0.0
  0
ENDBLK
  5
10F5
330
10EA
100
AcDbEntity
  8
0
100
AcDbBlockEnd
  0
BLOCK
  5
1101
330
10F7
100
AcDbEntity
  8
0
100
AcDbBlockBegin
  2
*D24
 70
     1
 10
0.0
 20
0.0
 30
0.0
  3
*D24
  1

  0
LINE
  5
12C2
330
10F7
100
AcDbEntity
  8
SUNPO
 62
   144
100
AcDbLine
 10
4283.851014127787
 20
1763.515747133855
 30
0.0
 11
4283.851014127787
 21
1481.145068589895
 31
0.0
  0
LINE
  5
12C3
330
10F7
100
AcDbEntity
  8
SUNPO
 62
   144
100
AcDbLine
 10
4433.851014127787
 20
1763.515747133855
 30
0.0
 11
4433.851014127787
 21
1481.145068589895
 31
0.0
  0
LINE
  5
12C4
330
10F7
100
AcDbEntity
  8
SUNPO
 62
   144
100
AcDbLine
 10
4327.851014127787
 20
1491.145068589895
 30
0.0
 11
4389.851014127787
 21
1491.145068589895
 31
0.0
  0
SOLID
  5
12C5
330
10F7
100
AcDbEntity
  8
SUNPO
 62
   144
100
AcDbTrace
 10
4327.851014127787
 20
1498.478401923228
 30
0.0
 11
4327.851014127787
 21
1483.811735256562
 31
0.0
 12
4283.851014127787
 22
1491.145068589895
 32
0.0
 13
4283.851014127787
 23
1491.145068589895
 33
0.0
  0
SOLID
  5
12C6
330
10F7
100
AcDbEntity
  8
SUNPO
 62
   144
100
AcDbTrace
 10
4389.851014127787
 20
1498.478401923228
 30
0.0
 11
4389.851014127787
 21
1483.811735256562
 31
0.0
 12
4433.851014127787
 22
1491.145068589895
 32
0.0
 13
4433.851014127787
 23
1491.145068589895
 33
0.0
  0
MTEXT
  5
12C7
330
10F7
100
AcDbEntity
  8
SUNPO
 62
     7
100
AcDbMText
 10
4358.851014127787
 20
1528.645068589895
 30
0.0
 40
50.0
 41
0.0
 71
     5
 72
     1
  1
\A2;150
  7
ADD
1001
ACAD
1000
MTEXTBEGIN
1070
    73
1070
     1
1070
    44
1040
1.0
1070
    74
1070
     0
1000
MTEXTEND
1000
MTEXTBEGIN
1070
    73
1070
     1
1070
    44
1040
1.0
1070
    74
1070
     0
1000
MTEXTEND
  0
POINT
  5
12C8
330
10F7
100
AcDbEntity
  8
DEFPOINTS
 62
     0
100
AcDbPoint
 10
4283.851014127787
 20
1783.515747133855
 30
0.0
  0
POINT
  5
12C9
330
10F7
100
AcDbEntity
  8
DEFPOINTS
 62
     0
100
AcDbPoint
 10
4433.851014127787
 20
1783.515747133855
 30
0.0
  0
POINT
  5
12CA
330
10F7
100
AcDbEntity
  8
DEFPOINTS
 62
     0
100
AcDbPoint
 10
4433.851014127787
 20
1491.145068589895
 30
0.0
  0
ENDBLK
  5
1102
330
10F7
100
AcDbEntity
  8
0
100
AcDbBlockEnd
  0
ENDSEC
  0
SECTION
  2
ENTITIES
  0
LINE
  5
60A
330
1F
100
AcDbEntity
  8
HOJO
100
AcDbLine
 10
360.0
 20
260.0
 30
0.0
 11
5580.0
 21
260.0
 31
0.0
  0
LINE
  5
60B
330
1F
100
AcDbEntity
  8
HOJO
100
AcDbLine
 10
360.0
 20
560.0
 30
0.0
 11
5580.0
 21
560.0
 31
0.0
  0
LINE
  5
60C
330
1F
100
AcDbEntity
  8
HOJO
100
AcDbLine
 10
360.0
 20
260.0
 30
0.0
 11
360.0
 21
560.0
 31
0.0
  0
LINE
  5
60D
330
1F
100
AcDbEntity
  8
HOJO
100
AcDbLine
 10
2360.0
 20
260.0
 30
0.0
 11
2360.0
 21
560.0
 31
0.0
  0
LINE
  5
60F
330
1F
100
AcDbEntity
  8
HOJO
100
AcDbLine
 10
3160.0
 20
260.0
 30
0.0
 11
3160.0
 21
560.0
 31
0.0
  0
LINE
  5
610
330
1F
100
AcDbEntity
  8
HOJO
100
AcDbLine
 10
3660.0
 20
260.0
 30
0.0
 11
3660.0
 21
560.0
 31
0.0
  0
LINE
  5
E73
330
1F
100
AcDbEntity
  8
3C1
100
AcDbLine
 10
2613.851014127787
 20
1783.515747133855
 30
0.0
 11
2613.851014127787
 21
2833.515747133855
 31
0.0
  0
LINE
  5
E75
330
1F
100
AcDbEntity
  8
3C1
100
AcDbLine
 10
2613.851014127787
 20
1783.515747133855
 30
0.0
 11
4433.851014127787
 21
1783.515747133855
 31
0.0
  0
LINE
  5
E76
330
1F
100
AcDbEntity
  8
3C1
100
AcDbLine
 10
4433.851014127787
 20
1783.515747133855
 30
0.0
 11
4433.851014127787
 21
2833.515747133855
 31
0.0
  0
LINE
  5
E77
330
1F
100
AcDbEntity
  8
3C1
100
AcDbLine
 10
2613.851014127787
 20
2833.515747133855
 30
0.0
 11
2723.851014127787
 21
2833.515747133855
 31
0.0
  0
LINE
  5
E79
330
1F
100
AcDbEntity
  8
3C1
100
AcDbLine
 10
4433.851014127787
 20
2833.515747133855
 30
0.0
 11
4323.851014127788
 21
2833.515747133855
 31
0.0
  0
LINE
  5
E7C
330
1F
100
AcDbEntity
  8
3C1
100
AcDbLine
 10
2613.851014127788
 20
1933.515747133855
 30
0.0
 11
2703.791784103493
 21
1933.515747133855
 31
0.0
  0
LINE
  5
E83
330
1F
100
AcDbEntity
  8
3C1
100
AcDbLine
 10
2663.910185739815
 20
2830.851710316611
 30
0.0
 11
2703.791784103493
 21
1933.515747133855
 31
0.0
  0
LINE
  5
E84
330
1F
100
AcDbEntity
  8
3C1
100
AcDbLine
 10
4383.79184251576
 20
2830.851710316611
 30
0.0
 11
4343.910244152081
 21
1933.515747133855
 31
0.0
  0
LINE
  5
E85
330
1F
100
AcDbEntity
  8
3C1
100
AcDbLine
 10
2113.851014127787
 20
1783.515747133855
 30
0.0
 11
2113.851014127787
 21
2833.515747133855
 31
0.0
  0
LINE
  5
E86
330
1F
100
AcDbEntity
  8
3C1
100
AcDbLine
 10
2113.851014127787
 20
1783.515747133855
 30
0.0
 11
1933.851014127787
 21
1783.515747133855
 31
0.0
  0
LINE
  5
E87
330
1F
100
AcDbEntity
  8
3C1
100
AcDbLine
 10
1933.851014127787
 20
1783.515747133855
 30
0.0
 11
1933.851014127787
 21
2833.515747133855
 31
0.0
  0
LINE
  5
E88
330
1F
100
AcDbEntity
  8
3C1
100
AcDbLine
 10
1933.851014127787
 20
2833.515747133855
 30
0.0
 11
2113.851014127787
 21
2833.515747133855
 31
0.0
  0
LINE
  5
E89
330
1F
100
AcDbEntity
  8
3C1
100
AcDbLine
 10
2113.851014127787
 20
1933.515747133855
 30
0.0
 11
2063.851014127787
 21
1933.515747133855
 31
0.0
  0
LINE
  5
E8A
330
1F
100
AcDbEntity
  8
3C1
100
AcDbLine
 10
1983.851014127788
 20
1933.515747133855
 30
0.0
 11
1983.851014127787
 21
2833.515747133855
 31
0.0
  0
LINE
  5
E8B
330
1F
100
AcDbEntity
  8
3C1
100
AcDbLine
 10
2063.851014127787
 20
1933.515747133855
 30
0.0
 11
2063.851014127787
 21
2833.515747133855
 31
0.0
  0
LINE
  5
E8C
330
1F
100
AcDbEntity
  8
3C1
100
AcDbLine
 10
1988.851014127788
 20
1933.515747133855
 30
0.0
 11
1988.851014127787
 21
2833.515747133855
 31
0.0
  0
LINE
  5
E8D
330
1F
100
AcDbEntity
  8
3C1
100
AcDbLine
 10
2058.851014127788
 20
1933.515747133855
 30
0.0
 11
2058.851014127787
 21
2833.515747133855
 31
0.0
  0
LINE
  5
E8E
330
1F
100
AcDbEntity
  8
3C1
100
AcDbLine
 10
1983.851014127788
 20
1933.515747133855
 30
0.0
 11
1933.851014127787
 21
1933.515747133855
 31
0.0
  0
LINE
  5
104B
330
1F
100
AcDbEntity
  8
3C1
100
AcDbLine
 10
4343.91024415208
 20
1933.515747133855
 30
0.0
 11
4433.851014127787
 21
1933.515747133855
 31
0.0
  0
LINE
  5
104C
330
1F
100
AcDbEntity
  8
3C1
100
AcDbLine
 10
2783.851014127786
 20
1933.515747133855
 30
0.0
 11
4263.851014127787
 21
1933.515747133855
 31
0.0
  0
LINE
  5
109B
330
1F
100
AcDbEntity
  8
3C1
100
AcDbLine
 10
2723.851014127787
 20
2833.515747133855
 30
0.0
 11
2762.963001855372
 21
1953.49602326318
 31
0.0
  0
LINE
  5
109C
330
1F
100
AcDbEntity
  8
3C1
100
AcDbLine
 10
4323.851014127788
 20
2833.515747133855
 30
0.0
 11
4284.739026400202
 21
1953.496023263179
 31
0.0
  0
LINE
  5
109D
330
1F
100
AcDbEntity
  8
3C1
100
AcDbLine
 10
2762.963001855372
 20
1953.49602326318
 30
0.0
 11
2783.851014127786
 21
1933.515747133855
 31
0.0
  0
LINE
  5
109E
330
1F
100
AcDbEntity
  8
3C1
100
AcDbLine
 10
4284.739026400202
 20
1953.496023263179
 30
0.0
 11
4263.851014127787
 21
1933.515747133855
 31
0.0
  0
LINE
  5
144B
330
1F
100
AcDbEntity
  8
SUNPO
 62
   144
100
AcDbLine
 10
4283.851014127787
 20
1763.515747133855
 30
0.0
 11
4283.851014127787
 21
1481.145068589895
 31
0.0
  0
LINE
  5
144C
330
1F
100
AcDbEntity
  8
SUNPO
 62
   144
100
AcDbLine
 10
4433.851014127787
 20
1763.515747133855
 30
0.0
 11
4433.851014127787
 21
1481.145068589895
 31
0.0
  0
LINE
  5
144D
330
1F
100
AcDbEntity
  8
SUNPO
 62
   144
100
AcDbLine
 10
4327.851014127787
 20
1491.145068589895
 30
0.0
 11
4389.851014127787
 21
1491.145068589895
 31
0.0
  0
SOLID
  5
144E
330
1F
100
AcDbEntity
  8
SUNPO
 62
   144
100
AcDbTrace
 10
4327.851014127787
 20
1498.478401923228
 30
0.0
 11
4327.851014127787
 21
1483.811735256562
 31
0.0
 12
4283.851014127787
 22
1491.145068589895
 32
0.0
 13
4283.851014127787
 23
1491.145068589895
 33
0.0
  0
SOLID
  5
144F
330
1F
100
AcDbEntity
  8
SUNPO
 62
   144
100
AcDbTrace
 10
4389.851014127787
 20
1498.478401923228
 30
0.0
 11
4389.851014127787
 21
1483.811735256562
 31
0.0
 12
4433.851014127787
 22
1491.145068589895
 32
0.0
 13
4433.851014127787
 23
1491.145068589895
 33
0.0
  0
LINE
  5
1451
330
1F
100
AcDbEntity
  8
SUNPO
 62
   144
100
AcDbLine
 10
2763.851014127787
 20
1763.515747133855
 30
0.0
 11
2763.851014127787
 21
1481.145068589895
 31
0.0
  0
LINE
  5
1452
330
1F
100
AcDbEntity
  8
SUNPO
 62
   144
100
AcDbLine
 10
4283.851014127787
 20
1763.515747133855
 30
0.0
 11
4283.851014127787
 21
1481.145068589895
 31
0.0
  0
LINE
  5
1453
330
1F
100
AcDbEntity
  8
SUNPO
 62
   144
100
AcDbLine
 10
2807.851014127787
 20
1491.145068589895
 30
0.0
 11
4239.851014127787
 21
1491.145068589895
 31
0.0
  0
SOLID
  5
1454
330
1F
100
AcDbEntity
  8
SUNPO
 62
   144
100
AcDbTrace
 10
2807.851014127787
 20
1498.478401923228
 30
0.0
 11
2807.851014127787
 21
1483.811735256562
 31
0.0
 12
2763.851014127787
 22
1491.145068589895
 32
0.0
 13
2763.851014127787
 23
1491.145068589895
 33
0.0
  0
SOLID
  5
1455
330
1F
100
AcDbEntity
  8
SUNPO
 62
   144
100
AcDbTrace
 10
4239.851014127787
 20
1498.478401923228
 30
0.0
 11
4239.851014127787
 21
1483.811735256562
 31
0.0
 12
4283.851014127787
 22
1491.145068589895
 32
0.0
 13
4283.851014127787
 23
1491.145068589895
 33
0.0
  0
LINE
  5
1457
330
1F
100
AcDbEntity
  8
SUNPO
 62
   144
100
AcDbLine
 10
2613.851014127787
 20
1763.515747133855
 30
0.0
 11
2613.851014127787
 21
1481.145068589895
 31
0.0
  0
LINE
  5
1458
330
1F
100
AcDbEntity
  8
SUNPO
 62
   144
100
AcDbLine
 10
2763.851014127787
 20
1763.515747133855
 30
0.0
 11
2763.851014127787
 21
1481.145068589895
 31
0.0
  0
LINE
  5
1459
330
1F
100
AcDbEntity
  8
SUNPO
 62
   144
100
AcDbLine
 10
2657.851014127787
 20
1491.145068589895
 30
0.0
 11
2719.851014127787
 21
1491.145068589895
 31
0.0
  0
SOLID
  5
145A
330
1F
100
AcDbEntity
  8
SUNPO
 62
   144
100
AcDbTrace
 10
2657.851014127787
 20
1498.478401923228
 30
0.0
 11
2657.851014127787
 21
1483.811735256562
 31
0.0
 12
2613.851014127787
 22
1491.145068589895
 32
0.0
 13
2613.851014127787
 23
1491.145068589895
 33
0.0
  0
SOLID
  5
145B
330
1F
100
AcDbEntity
  8
SUNPO
 62
   144
100
AcDbTrace
 10
2719.851014127787
 20
1498.478401923228
 30
0.0
 11
2719.851014127787
 21
1483.811735256562
 31
0.0
 12
2763.851014127787
 22
1491.145068589895
 32
0.0
 13
2763.851014127787
 23
1491.145068589895
 33
0.0
  0
LINE
  5
145D
330
1F
100
AcDbEntity
  8
SUNPO
 62
   144
100
AcDbLine
 10
2613.851014127787
 20
1763.515747133855
 30
0.0
 11
2613.851014127787
 21
1218.774390045935
 31
0.0
  0
LINE
  5
145E
330
1F
100
AcDbEntity
  8
SUNPO
 62
   144
100
AcDbLine
 10
4433.851014127787
 20
1763.515747133855
 30
0.0
 11
4433.851014127787
 21
1218.774390045935
 31
0.0
  0
LINE
  5
145F
330
1F
100
AcDbEntity
  8
SUNPO
 62
   144
100
AcDbLine
 10
2657.851014127787
 20
1228.774390045935
 30
0.0
 11
4389.851014127787
 21
1228.774390045935
 31
0.0
  0
SOLID
  5
1460
330
1F
100
AcDbEntity
  8
SUNPO
 62
   144
100
AcDbTrace
 10
2657.851014127787
 20
1236.107723379268
 30
0.0
 11
2657.851014127787
 21
1221.441056712602
 31
0.0
 12
2613.851014127787
 22
1228.774390045935
 32
0.0
 13
2613.851014127787
 23
1228.774390045935
 33
0.0
  0
SOLID
  5
1461
330
1F
100
AcDbEntity
  8
SUNPO
 62
   144
100
AcDbTrace
 10
4389.851014127787
 20
1236.107723379268
 30
0.0
 11
4389.851014127787
 21
1221.441056712602
 31
0.0
 12
4433.851014127787
 22
1228.774390045935
 32
0.0
 13
4433.851014127787
 23
1228.774390045935
 33
0.0
  0
LINE
  5
1463
330
1F
100
AcDbEntity
  8
SUNPO
 62
   144
100
AcDbLine
 10
2782.963001855372
 20
1933.515747133855
 30
0.0
 11
3029.167042655039
 21
1933.515747133855
 31
0.0
  0
LINE
  5
1464
330
1F
100
AcDbEntity
  8
SUNPO
 62
   144
100
AcDbLine
 10
2782.963001855372
 20
1953.49602326318
 30
0.0
 11
3029.167042655039
 21
1953.49602326318
 31
0.0
  0
LINE
  5
1465
330
1F
100
AcDbEntity
  8
SUNPO
 62
   144
100
AcDbLine
 10
3019.167042655039
 20
1889.515747133856
 30
0.0
 11
3019.167042655039
 21
1845.515747133855
 31
0.0
  0
LINE
  5
1466
330
1F
100
AcDbEntity
  8
SUNPO
 62
   144
100
AcDbLine
 10
3019.167042655039
 20
1997.49602326318
 30
0.0
 11
3019.167042655039
 21
2041.496023263179
 31
0.0
  0
LINE
  5
1468
330
1F
100
AcDbEntity
  8
SUNPO
 62
   144
100
AcDbLine
 10
3019.167042655039
 20
1933.515747133855
 30
0.0
 11
3019.167042655039
 21
1953.49602326318
 31
0.0
  0
SOLID
  5
1469
330
1F
100
AcDbEntity
  8
SUNPO
 62
   144
100
AcDbTrace
 10
3011.833709321706
 20
1889.515747133856
 30
0.0
 11
3026.500375988372
 21
1889.515747133856
 31
0.0
 12
3019.167042655039
 22
1933.515747133855
 32
0.0
 13
3019.167042655039
 23
1933.515747133855
 33
0.0
  0
SOLID
  5
146A
330
1F
100
AcDbEntity
  8
SUNPO
 62
   144
100
AcDbTrace
 10
3011.833709321706
 20
1997.49602326318
 30
0.0
 11
3026.500375988372
 21
1997.49602326318
 31
0.0
 12
3019.167042655039
 22
1953.49602326318
 32
0.0
 13
3019.167042655039
 23
1953.49602326318
 33
0.0
  0
LINE
  5
146B
330
1F
100
AcDbEntity
  8
SUNPO
 62
   144
100
AcDbLine
 10
2763.851014127787
 20
1953.515747133855
 30
0.0
 11
2763.851014127787
 21
2146.749979603862
 31
0.0
  0
LINE
  5
146C
330
1F
100
AcDbEntity
  8
SUNPO
 62
   144
100
AcDbLine
 10
2783.851014127787
 20
1953.515747133855
 30
0.0
 11
2783.851014127787
 21
2146.749979603862
 31
0.0
  0
LINE
  5
146D
330
1F
100
AcDbEntity
  8
SUNPO
 62
   144
100
AcDbLine
 10
2719.851014127787
 20
2136.749979603862
 30
0.0
 11
2675.851014127787
 21
2136.749979603862
 31
0.0
  0
LINE
  5
146E
330
1F
100
AcDbEntity
  8
SUNPO
 62
   144
100
AcDbLine
 10
2827.851014127787
 20
2136.749979603862
 30
0.0
 11
2871.851014127787
 21
2136.749979603862
 31
0.0
  0
LINE
  5
1470
330
1F
100
AcDbEntity
  8
SUNPO
 62
   144
100
AcDbLine
 10
2763.851014127787
 20
2136.749979603862
 30
0.0
 11
2783.851014127787
 21
2136.749979603862
 31
0.0
  0
SOLID
  5
1471
330
1F
100
AcDbEntity
  8
SUNPO
 62
   144
100
AcDbTrace
 10
2719.851014127787
 20
2144.083312937196
 30
0.0
 11
2719.851014127787
 21
2129.416646270529
 31
0.0
 12
2763.851014127787
 22
2136.749979603862
 32
0.0
 13
2763.851014127787
 23
2136.749979603862
 33
0.0
  0
SOLID
  5
1472
330
1F
100
AcDbEntity
  8
SUNPO
 62
   144
100
AcDbTrace
 10
2827.851014127787
 20
2144.083312937196
 30
0.0
 11
2827.851014127787
 21
2129.416646270529
 31
0.0
 12
2783.851014127787
 22
2136.749979603862
 32
0.0
 13
2783.851014127787
 23
2136.749979603862
 33
0.0
  0
LINE
  5
1473
330
1F
100
AcDbEntity
  8
SUNPO
 62
   144
100
AcDbLine
 10
1933.851014127787
 20
1763.515747133855
 30
0.0
 11
1933.851014127787
 21
1228.774390045935
 31
0.0
  0
LINE
  5
1474
330
1F
100
AcDbEntity
  8
SUNPO
 62
   144
100
AcDbLine
 10
2113.851014127787
 20
1763.515747133855
 30
0.0
 11
2113.851014127787
 21
1228.774390045935
 31
0.0
  0
LINE
  5
1475
330
1F
100
AcDbEntity
  8
SUNPO
 62
   144
100
AcDbLine
 10
1977.851014127787
 20
1238.774390045935
 30
0.0
 11
2069.851014127787
 21
1238.774390045935
 31
0.0
  0
SOLID
  5
1476
330
1F
100
AcDbEntity
  8
SUNPO
 62
   144
100
AcDbTrace
 10
1977.851014127787
 20
1246.107723379268
 30
0.0
 11
1977.851014127787
 21
1231.441056712602
 31
0.0
 12
1933.851014127787
 22
1238.774390045935
 32
0.0
 13
1933.851014127787
 23
1238.774390045935
 33
0.0
  0
SOLID
  5
1477
330
1F
100
AcDbEntity
  8
SUNPO
 62
   144
100
AcDbTrace
 10
2069.851014127787
 20
1246.107723379268
 30
0.0
 11
2069.851014127787
 21
1231.441056712602
 31
0.0
 12
2113.851014127787
 22
1238.774390045935
 32
0.0
 13
2113.851014127787
 23
1238.774390045935
 33
0.0
  0
TEXT
  5
1479
330
1F
100
AcDbEntity
  8
SUNPO
100
AcDbText
 10
2446.466767997013
 20
417.0451694377297
 30
0.0
 40
50.0
  1
900×1600
  7
ADD
100
AcDbText
1001
ACAD
1000
MTEXTBEGIN
1070
    73
1070
     1
1070
    44
1040
1.0
1070
    74
1070
     0
1000
MTEXTEND
  0
TEXT
  5
147A
330
1F
100
AcDbEntity
  8
SUNPO
100
AcDbText
 10
620.9738466180584
 20
407.6357238281834
 30
0.0
 40
50.0
  1
B型柵渠 杭
  7
ADD
100
AcDbText
1001
ACAD
1000
MTEXTBEGIN
1070
    73
1070
     1
1070
    44
1040
1.0
1070
    74
1070
     0
1000
MTEXTEND
  0
LINE
  5
147B
330
1F
100
AcDbEntity
  8
SUNPO
 62
   144
100
AcDbLine
 10
2593.851014127787
 20
1933.515747133855
 30
0.0
 11
2446.661215995016
 21
1933.515747133855
 31
0.0
  0
LINE
  5
147C
330
1F
100
AcDbEntity
  8
SUNPO
 62
   144
100
AcDbLine
 10
2593.851014127787
 20
2833.515747133855
 30
0.0
 11
2446.661215995016
 21
2833.515747133855
 31
0.0
  0
LINE
  5
147D
330
1F
100
AcDbEntity
  8
SUNPO
 62
   144
100
AcDbLine
 10
2456.661215995016
 20
1977.515747133855
 30
0.0
 11
2456.661215995016
 21
2789.515747133855
 31
0.0
  0
SOLID
  5
147E
330
1F
100
AcDbEntity
  8
SUNPO
 62
   144
100
AcDbTrace
 10
2449.327882661683
 20
1977.515747133855
 30
0.0
 11
2463.994549328349
 21
1977.515747133855
 31
0.0
 12
2456.661215995016
 22
1933.515747133855
 32
0.0
 13
2456.661215995016
 23
1933.515747133855
 33
0.0
  0
SOLID
  5
147F
330
1F
100
AcDbEntity
  8
SUNPO
 62
   144
100
AcDbTrace
 10
2449.327882661683
 20
2789.515747133855
 30
0.0
 11
2463.994549328349
 21
2789.515747133855
 31
0.0
 12
2456.661215995016
 22
2833.515747133855
 32
0.0
 13
2456.661215995016
 23
2833.515747133855
 33
0.0
  0
LINE
  5
1481
330
1F
100
AcDbEntity
  8
SUNPO
 62
   144
100
AcDbLine
 10
2593.851014127787
 20
1783.515747133855
 30
0.0
 11
2446.661215995016
 21
1783.515747133855
 31
0.0
  0
LINE
  5
1482
330
1F
100
AcDbEntity
  8
SUNPO
 62
   144
100
AcDbLine
 10
2593.851014127788
 20
1933.515747133855
 30
0.0
 11
2446.661215995016
 21
1933.515747133855
 31
0.0
  0
LINE
  5
1483
330
1F
100
AcDbEntity
  8
SUNPO
 62
   144
100
AcDbLine
 10
2456.661215995016
 20
1827.515747133855
 30
0.0
 11
2456.661215995016
 21
1889.515747133855
 31
0.0
  0
SOLID
  5
1484
330
1F
100
AcDbEntity
  8
SUNPO
 62
   144
100
AcDbTrace
 10
2449.327882661683
 20
1827.515747133855
 30
0.0
 11
2463.994549328349
 21
1827.515747133855
 31
0.0
 12
2456.661215995016
 22
1783.515747133855
 32
0.0
 13
2456.661215995016
 23
1783.515747133855
 33
0.0
  0
SOLID
  5
1485
330
1F
100
AcDbEntity
  8
SUNPO
 62
   144
100
AcDbTrace
 10
2449.327882661683
 20
1889.515747133855
 30
0.0
 11
2463.994549328349
 21
1889.515747133855
 31
0.0
 12
2456.661215995016
 22
1933.515747133855
 32
0.0
 13
2456.661215995016
 23
1933.515747133855
 33
0.0
  0
LINE
  5
1487
330
1F
100
AcDbEntity
  8
SUNPO
 62
   144
100
AcDbLine
 10
2593.851014127787
 20
2833.515747133855
 30
0.0
 11
2280.395839392869
 21
2833.515747133855
 31
0.0
  0
LINE
  5
1488
330
1F
100
AcDbEntity
  8
SUNPO
 62
   144
100
AcDbLine
 10
2593.851014127787
 20
1783.515747133855
 30
0.0
 11
2280.395839392869
 21
1783.515747133855
 31
0.0
  0
LINE
  5
1489
330
1F
100
AcDbEntity
  8
SUNPO
 62
   144
100
AcDbLine
 10
2290.395839392869
 20
2789.515747133855
 30
0.0
 11
2290.395839392869
 21
1827.515747133855
 31
0.0
  0
SOLID
  5
148A
330
1F
100
AcDbEntity
  8
SUNPO
 62
   144
100
AcDbTrace
 10
2283.062506059536
 20
2789.515747133855
 30
0.0
 11
2297.729172726203
 21
2789.515747133855
 31
0.0
 12
2290.395839392869
 22
2833.515747133855
 32
0.0
 13
2290.395839392869
 23
2833.515747133855
 33
0.0
  0
SOLID
  5
148B
330
1F
100
AcDbEntity
  8
SUNPO
 62
   144
100
AcDbTrace
 10
2283.062506059536
 20
1827.515747133855
 30
0.0
 11
2297.729172726203
 21
1827.515747133855
 31
0.0
 12
2290.395839392869
 22
1783.515747133855
 32
0.0
 13
2290.395839392869
 23
1783.515747133855
 33
0.0
  0
LINE
  5
148D
330
1F
100
AcDbEntity
  8
SUNPO
 62
   144
100
AcDbLine
 10
4323.851014127788
 20
2853.515747133855
 30
0.0
 11
4323.851014127788
 21
3006.584140669775
 31
0.0
  0
LINE
  5
148E
330
1F
100
AcDbEntity
  8
SUNPO
 62
   144
100
AcDbLine
 10
4383.79184251576
 20
2850.851710316612
 30
0.0
 11
4383.79184251576
 21
3006.584140669775
 31
0.0
  0
LINE
  5
148F
330
1F
100
AcDbEntity
  8
SUNPO
 62
   144
100
AcDbLine
 10
4279.851014127787
 20
2996.584140669775
 30
0.0
 11
4235.851014127788
 21
2996.584140669775
 31
0.0
  0
LINE
  5
1490
330
1F
100
AcDbEntity
  8
SUNPO
 62
   144
100
AcDbLine
 10
4427.791842515761
 20
2996.584140669775
 30
0.0
 11
4471.79184251576
 21
2996.584140669775
 31
0.0
  0
LINE
  5
1491
330
1F
100
AcDbEntity
  8
SUNPO
 62
   144
100
AcDbLine
 10
4323.851014127788
 20
2996.584140669775
 30
0.0
 11
4383.79184251576
 21
2996.584140669775
 31
0.0
  0
SOLID
  5
1492
330
1F
100
AcDbEntity
  8
SUNPO
 62
   144
100
AcDbTrace
 10
4279.851014127787
 20
3003.917474003109
 30
0.0
 11
4279.851014127787
 21
2989.250807336442
 31
0.0
 12
4323.851014127788
 22
2996.584140669775
 32
0.0
 13
4323.851014127788
 23
2996.584140669775
 33
0.0
  0
SOLID
  5
1493
330
1F
100
AcDbEntity
  8
SUNPO
 62
   144
100
AcDbTrace
 10
4427.791842515761
 20
3003.917474003109
 30
0.0
 11
4427.791842515761
 21
2989.250807336442
 31
0.0
 12
4383.79184251576
 22
2996.584140669775
 32
0.0
 13
4383.79184251576
 23
2996.584140669775
 33
0.0
  0
LINE
  5
1495
330
1F
100
AcDbEntity
  8
SUNPO
 62
   144
100
AcDbLine
 10
2663.910185739815
 20
2850.851710316612
 30
0.0
 11
2663.910185739815
 21
3006.584140669775
 31
0.0
  0
LINE
  5
1496
330
1F
100
AcDbEntity
  8
SUNPO
 62
   144
100
AcDbLine
 10
2723.851014127787
 20
2853.515747133855
 30
0.0
 11
2723.851014127787
 21
3006.584140669775
 31
0.0
  0
LINE
  5
1497
330
1F
100
AcDbEntity
  8
SUNPO
 62
   144
100
AcDbLine
 10
2619.910185739815
 20
2996.584140669775
 30
0.0
 11
2575.910185739815
 21
2996.584140669775
 31
0.0
  0
LINE
  5
1498
330
1F
100
AcDbEntity
  8
SUNPO
 62
   144
100
AcDbLine
 10
2767.851014127787
 20
2996.584140669775
 30
0.0
 11
2811.851014127787
 21
2996.584140669775
 31
0.0
  0
LINE
  5
149A
330
1F
100
AcDbEntity
  8
SUNPO
 62
   144
100
AcDbLine
 10
2663.910185739815
 20
2996.584140669775
 30
0.0
 11
2723.851014127787
 21
2996.584140669775
 31
0.0
  0
SOLID
  5
149B
330
1F
100
AcDbEntity
  8
SUNPO
 62
   144
100
AcDbTrace
 10
2619.910185739815
 20
3003.917474003109
 30
0.0
 11
2619.910185739815
 21
2989.250807336442
 31
0.0
 12
2663.910185739815
 22
2996.584140669775
 32
0.0
 13
2663.910185739815
 23
2996.584140669775
 33
0.0
  0
SOLID
  5
149C
330
1F
100
AcDbEntity
  8
SUNPO
 62
   144
100
AcDbTrace
 10
2767.851014127787
 20
3003.917474003109
 30
0.0
 11
2767.851014127787
 21
2989.250807336442
 31
0.0
 12
2723.851014127787
 22
2996.584140669775
 32
0.0
 13
2723.851014127787
 23
2996.584140669775
 33
0.0
  0
LINE
  5
149D
330
1F
100
AcDbEntity
  8
SUNPO
 62
   144
100
AcDbLine
 10
4323.851014127788
 20
2853.515747133855
 30
0.0
 11
4323.851014127788
 21
3139.652534205696
 31
0.0
  0
LINE
  5
149E
330
1F
100
AcDbEntity
  8
SUNPO
 62
   144
100
AcDbLine
 10
4433.851014127787
 20
2853.515747133855
 30
0.0
 11
4433.851014127787
 21
3139.652534205696
 31
0.0
  0
LINE
  5
149F
330
1F
100
AcDbEntity
  8
SUNPO
 62
   144
100
AcDbLine
 10
4353.851014127787
 20
3129.652534205695
 30
0.0
 11
4403.851014127787
 21
3129.652534205695
 31
0.0
  0
SOLID
  5
14A1
330
1F
100
AcDbEntity
  8
SUNPO
 62
   144
100
AcDbTrace
 10
4353.851014127787
 20
3134.652534205695
 30
0.0
 11
4353.851014127787
 21
3124.652534205695
 31
0.0
 12
4323.851014127788
 22
3129.652534205695
 32
0.0
 13
4323.851014127788
 23
3129.652534205695
 33
0.0
  0
SOLID
  5
14A2
330
1F
100
AcDbEntity
  8
SUNPO
 62
   144
100
AcDbTrace
 10
4403.851014127787
 20
3134.652534205695
 30
0.0
 11
4403.851014127787
 21
3124.652534205695
 31
0.0
 12
4433.851014127787
 22
3129.652534205695
 32
0.0
 13
4433.851014127787
 23
3129.652534205695
 33
0.0
  0
LINE
  5
14A3
330
1F
100
AcDbEntity
  8
SUNPO
 62
   144
100
AcDbLine
 10
2723.851014127787
 20
2853.515747133855
 30
0.0
 11
2723.851014127787
 21
3139.652534205696
 31
0.0
  0
LINE
  5
14A4
330
1F
100
AcDbEntity
  8
SUNPO
 62
   144
100
AcDbLine
 10
4323.851014127788
 20
2853.515747133855
 30
0.0
 11
4323.851014127788
 21
3139.652534205696
 31
0.0
  0
LINE
  5
14A5
330
1F
100
AcDbEntity
  8
SUNPO
 62
   144
100
AcDbLine
 10
2767.851014127787
 20
3129.652534205695
 30
0.0
 11
4279.851014127787
 21
3129.652534205695
 31
0.0
  0
SOLID
  5
14A6
330
1F
100
AcDbEntity
  8
SUNPO
 62
   144
100
AcDbTrace
 10
2767.851014127787
 20
3136.985867539029
 30
0.0
 11
2767.851014127787
 21
3122.319200872362
 31
0.0
 12
2723.851014127787
 22
3129.652534205695
 32
0.0
 13
2723.851014127787
 23
3129.652534205695
 33
0.0
  0
SOLID
  5
14A7
330
1F
100
AcDbEntity
  8
SUNPO
 62
   144
100
AcDbTrace
 10
4279.851014127787
 20
3136.985867539029
 30
0.0
 11
4279.851014127787
 21
3122.319200872362
 31
0.0
 12
4323.851014127788
 22
3129.652534205695
 32
0.0
 13
4323.851014127788
 23
3129.652534205695
 33
0.0
  0
LINE
  5
14A9
330
1F
100
AcDbEntity
  8
SUNPO
 62
   144
100
AcDbLine
 10
2613.851014127787
 20
2853.515747133855
 30
0.0
 11
2613.851014127787
 21
3139.652534205696
 31
0.0
  0
LINE
  5
14AA
330
1F
100
AcDbEntity
  8
SUNPO
 62
   144
100
AcDbLine
 10
2723.851014127787
 20
2853.515747133855
 30
0.0
 11
2723.851014127787
 21
3139.652534205696
 31
0.0
  0
LINE
  5
14AB
330
1F
100
AcDbEntity
  8
SUNPO
 62
   144
100
AcDbLine
 10
2643.851014127787
 20
3129.652534205695
 30
0.0
 11
2693.851014127787
 21
3129.652534205695
 31
0.0
  0
SOLID
  5
14AD
330
1F
100
AcDbEntity
  8
SUNPO
 62
   144
100
AcDbTrace
 10
2643.851014127787
 20
3134.652534205695
 30
0.0
 11
2643.851014127787
 21
3124.652534205695
 31
0.0
 12
2613.851014127787
 22
3129.652534205695
 32
0.0
 13
2613.851014127787
 23
3129.652534205695
 33
0.0
  0
SOLID
  5
14AE
330
1F
100
AcDbEntity
  8
SUNPO
 62
   144
100
AcDbTrace
 10
2693.851014127787
 20
3134.652534205695
 30
0.0
 11
2693.851014127787
 21
3124.652534205695
 31
0.0
 12
2723.851014127787
 22
3129.652534205695
 32
0.0
 13
2723.851014127787
 23
3129.652534205695
 33
0.0
  0
LINE
  5
14AF
330
1F
100
AcDbEntity
  8
SUNPO
 62
   144
100
AcDbLine
 10
2058.851014127787
 20
2853.515747133855
 30
0.0
 11
2058.851014127787
 21
3006.584140669775
 31
0.0
  0
LINE
  5
14B0
330
1F
100
AcDbEntity
  8
SUNPO
 62
   144
100
AcDbLine
 10
2063.851014127787
 20
2853.515747133855
 30
0.0
 11
2063.851014127787
 21
3006.584140669775
 31
0.0
  0
LINE
  5
14B1
330
1F
100
AcDbEntity
  8
SUNPO
 62
   144
100
AcDbLine
 10
2014.851014127787
 20
2996.584140669775
 30
0.0
 11
1970.851014127787
 21
2996.584140669775
 31
0.0
  0
LINE
  5
14B2
330
1F
100
AcDbEntity
  8
SUNPO
 62
   144
100
AcDbLine
 10
2107.851014127787
 20
2996.584140669775
 30
0.0
 11
2151.851014127787
 21
2996.584140669775
 31
0.0
  0
LINE
  5
14B3
330
1F
100
AcDbEntity
  8
SUNPO
 62
   144
100
AcDbLine
 10
2058.851014127787
 20
2996.584140669775
 30
0.0
 11
2063.851014127787
 21
2996.584140669775
 31
0.0
  0
SOLID
  5
14B4
330
1F
100
AcDbEntity
  8
SUNPO
 62
   144
100
AcDbTrace
 10
2014.851014127787
 20
3003.917474003109
 30
0.0
 11
2014.851014127787
 21
2989.250807336442
 31
0.0
 12
2058.851014127787
 22
2996.584140669775
 32
0.0
 13
2058.851014127787
 23
2996.584140669775
 33
0.0
  0
SOLID
  5
14B5
330
1F
100
AcDbEntity
  8
SUNPO
 62
   144
100
AcDbTrace
 10
2107.851014127787
 20
3003.917474003109
 30
0.0
 11
2107.851014127787
 21
2989.250807336442
 31
0.0
 12
2063.851014127787
 22
2996.584140669775
 32
0.0
 13
2063.851014127787
 23
2996.584140669775
 33
0.0
  0
LINE
  5
14B7
330
1F
100
AcDbEntity
  8
SUNPO
 62
   144
100
AcDbLine
 10
1983.851014127787
 20
2853.515747133855
 30
0.0
 11
1983.851014127787
 21
3006.584140669775
 31
0.0
  0
LINE
  5
14B8
330
1F
100
AcDbEntity
  8
SUNPO
 62
   144
100
AcDbLine
 10
1988.851014127787
 20
2853.515747133855
 30
0.0
 11
1988.851014127787
 21
3006.584140669775
 31
0.0
  0
LINE
  5
14B9
330
1F
100
AcDbEntity
  8
SUNPO
 62
   144
100
AcDbLine
 10
1939.851014127787
 20
2996.584140669775
 30
0.0
 11
1895.851014127787
 21
2996.584140669775
 31
0.0
  0
LINE
  5
14BA
330
1F
100
AcDbEntity
  8
SUNPO
 62
   144
100
AcDbLine
 10
2032.851014127787
 20
2996.584140669775
 30
0.0
 11
2076.851014127787
 21
2996.584140669775
 31
0.0
  0
LINE
  5
14BB
330
1F
100
AcDbEntity
  8
SUNPO
 62
   144
100
AcDbLine
 10
1983.851014127787
 20
2996.584140669775
 30
0.0
 11
1988.851014127787
 21
2996.584140669775
 31
0.0
  0
SOLID
  5
14BC
330
1F
100
AcDbEntity
  8
SUNPO
 62
   144
100
AcDbTrace
 10
1939.851014127787
 20
3003.917474003109
 30
0.0
 11
1939.851014127787
 21
2989.250807336442
 31
0.0
 12
1983.851014127787
 22
2996.584140669775
 32
0.0
 13
1983.851014127787
 23
2996.584140669775
 33
0.0
  0
SOLID
  5
14BD
330
1F
100
AcDbEntity
  8
SUNPO
 62
   144
100
AcDbTrace
 10
2032.851014127787
 20
3003.917474003109
 30
0.0
 11
2032.851014127787
 21
2989.250807336442
 31
0.0
 12
1988.851014127787
 22
2996.584140669775
 32
0.0
 13
1988.851014127787
 23
2996.584140669775
 33
0.0
  0
LINE
  5
14BF
330
1F
100
AcDbEntity
  8
SUNPO
 62
   144
100
AcDbLine
 10
1988.851014127787
 20
2853.515747133855
 30
0.0
 11
1988.851014127787
 21
3139.652534205696
 31
0.0
  0
LINE
  5
14C0
330
1F
100
AcDbEntity
  8
SUNPO
 62
   144
100
AcDbLine
 10
2058.851014127787
 20
2853.515747133855
 30
0.0
 11
2058.851014127787
 21
3139.652534205696
 31
0.0
  0
LINE
  5
14C1
330
1F
100
AcDbEntity
  8
SUNPO
 62
   144
100
AcDbLine
 10
1944.851014127787
 20
3129.652534205695
 30
0.0
 11
1900.851014127787
 21
3129.652534205695
 31
0.0
  0
LINE
  5
14C2
330
1F
100
AcDbEntity
  8
SUNPO
 62
   144
100
AcDbLine
 10
2102.851014127787
 20
3129.652534205695
 30
0.0
 11
2146.851014127787
 21
3129.652534205695
 31
0.0
  0
LINE
  5
14C4
330
1F
100
AcDbEntity
  8
SUNPO
 62
   144
100
AcDbLine
 10
1988.851014127787
 20
3129.652534205695
 30
0.0
 11
2058.851014127787
 21
3129.652534205695
 31
0.0
  0
SOLID
  5
14C5
330
1F
100
AcDbEntity
  8
SUNPO
 62
   144
100
AcDbTrace
 10
1944.851014127787
 20
3136.985867539029
 30
0.0
 11
1944.851014127787
 21
3122.319200872362
 31
0.0
 12
1988.851014127787
 22
3129.652534205695
 32
0.0
 13
1988.851014127787
 23
3129.652534205695
 33
0.0
  0
SOLID
  5
14C6
330
1F
100
AcDbEntity
  8
SUNPO
 62
   144
100
AcDbTrace
 10
2102.851014127787
 20
3136.985867539029
 30
0.0
 11
2102.851014127787
 21
3122.319200872362
 31
0.0
 12
2058.851014127787
 22
3129.652534205695
 32
0.0
 13
2058.851014127787
 23
3129.652534205695
 33
0.0
  0
LINE
  5
14C7
330
1F
100
AcDbEntity
  8
SUNPO
 62
   144
100
AcDbLine
 10
2113.851014127787
 20
2853.515747133855
 30
0.0
 11
2113.851014127787
 21
3139.652534205696
 31
0.0
  0
LINE
  5
14C8
330
1F
100
AcDbEntity
  8
SUNPO
 62
   144
100
AcDbLine
 10
2063.851014127787
 20
2853.515747133855
 30
0.0
 11
2063.851014127787
 21
3139.652534205696
 31
0.0
  0
LINE
  5
14C9
330
1F
100
AcDbEntity
  8
SUNPO
 62
   144
100
AcDbLine
 10
2157.851014127787
 20
3129.652534205695
 30
0.0
 11
2201.851014127787
 21
3129.652534205695
 31
0.0
  0
LINE
  5
14CA
330
1F
100
AcDbEntity
  8
SUNPO
 62
   144
100
AcDbLine
 10
2019.851014127787
 20
3129.652534205695
 30
0.0
 11
1975.851014127787
 21
3129.652534205695
 31
0.0
  0
LINE
  5
14CC
330
1F
100
AcDbEntity
  8
SUNPO
 62
   144
100
AcDbLine
 10
2113.851014127787
 20
3129.652534205695
 30
0.0
 11
2063.851014127787
 21
3129.652534205695
 31
0.0
  0
SOLID
  5
14CD
330
1F
100
AcDbEntity
  8
SUNPO
 62
   144
100
AcDbTrace
 10
2157.851014127787
 20
3136.985867539029
 30
0.0
 11
2157.851014127787
 21
3122.319200872362
 31
0.0
 12
2113.851014127787
 22
3129.652534205695
 32
0.0
 13
2113.851014127787
 23
3129.652534205695
 33
0.0
  0
SOLID
  5
14CE
330
1F
100
AcDbEntity
  8
SUNPO
 62
   144
100
AcDbTrace
 10
2019.851014127787
 20
3136.985867539029
 30
0.0
 11
2019.851014127787
 21
3122.319200872362
 31
0.0
 12
2063.851014127787
 22
3129.652534205695
 32
0.0
 13
2063.851014127787
 23
3129.652534205695
 33
0.0
  0
LINE
  5
14CF
330
1F
100
AcDbEntity
  8
SUNPO
 62
   144
100
AcDbLine
 10
1933.851014127787
 20
2853.515747133855
 30
0.0
 11
1933.851014127787
 21
3139.652534205696
 31
0.0
  0
LINE
  5
14D0
330
1F
100
AcDbEntity
  8
SUNPO
 62
   144
100
AcDbLine
 10
1983.851014127787
 20
2853.515747133855
 30
0.0
 11
1983.851014127787
 21
3139.652534205696
 31
0.0
  0
LINE
  5
14D1
330
1F
100
AcDbEntity
  8
SUNPO
 62
   144
100
AcDbLine
 10
2027.851014127787
 20
3129.652534205695
 30
0.0
 11
2071.851014127787
 21
3129.652534205695
 31
0.0
  0
LINE
  5
14D2
330
1F
100
AcDbEntity
  8
SUNPO
 62
   144
100
AcDbLine
 10
1889.851014127787
 20
3129.652534205695
 30
0.0
 11
1845.851014127787
 21
3129.652534205695
 31
0.0
  0
LINE
  5
14D4
330
1F
100
AcDbEntity
  8
SUNPO
 62
   144
100
AcDbLine
 10
1983.851014127787
 20
3129.652534205695
 30
0.0
 11
1933.851014127787
 21
3129.652534205695
 31
0.0
  0
SOLID
  5
14D5
330
1F
100
AcDbEntity
  8
SUNPO
 62
   144
100
AcDbTrace
 10
2027.851014127787
 20
3136.985867539029
 30
0.0
 11
2027.851014127787
 21
3122.319200872362
 31
0.0
 12
1983.851014127787
 22
3129.652534205695
 32
0.0
 13
1983.851014127787
 23
3129.652534205695
 33
0.0
  0
SOLID
  5
14D6
330
1F
100
AcDbEntity
  8
SUNPO
 62
   144
100
AcDbTrace
 10
1889.851014127787
 20
3136.985867539029
 30
0.0
 11
1889.851014127787
 21
3122.319200872362
 31
0.0
 12
1933.851014127787
 22
3129.652534205695
 32
0.0
 13
1933.851014127787
 23
3129.652534205695
 33
0.0
  0
LINE
  5
14D7
330
1F
100
AcDbEntity
  8
SUNPO
 62
   144
100
AcDbLine
 10
1933.851014127787
 20
2853.515747133855
 30
0.0
 11
1933.851014127787
 21
3359.8932986298
 31
0.0
  0
LINE
  5
14D8
330
1F
100
AcDbEntity
  8
SUNPO
 62
   144
100
AcDbLine
 10
2113.851014127787
 20
2853.515747133855
 30
0.0
 11
2113.851014127787
 21
3359.8932986298
 31
0.0
  0
LINE
  5
14D9
330
1F
100
AcDbEntity
  8
SUNPO
 62
   144
100
AcDbLine
 10
1977.851014127787
 20
3349.893298629801
 30
0.0
 11
2069.851014127787
 21
3349.893298629801
 31
0.0
  0
SOLID
  5
14DA
330
1F
100
AcDbEntity
  8
SUNPO
 62
   144
100
AcDbTrace
 10
1977.851014127787
 20
3357.226631963134
 30
0.0
 11
1977.851014127787
 21
3342.559965296467
 31
0.0
 12
1933.851014127787
 22
3349.893298629801
 32
0.0
 13
1933.851014127787
 23
3349.893298629801
 33
0.0
  0
SOLID
  5
14DB
330
1F
100
AcDbEntity
  8
SUNPO
 62
   144
100
AcDbTrace
 10
2069.851014127787
 20
3357.226631963134
 30
0.0
 11
2069.851014127787
 21
3342.559965296467
 31
0.0
 12
2113.851014127787
 22
3349.893298629801
 32
0.0
 13
2113.851014127787
 23
3349.893298629801
 33
0.0
  0
TEXT
  5
14DD
330
1F
100
AcDbEntity
  8
SUNPO
100
AcDbText
 10
3246.680311730542
 20
359.2274732162223
 30
0.0
 40
70.0
  1
１／２０
  7
ADD
100
AcDbText
1001
ACAD
1000
MTEXTBEGIN
1070
    73
1070
     1
1070
    44
1040
1.0
1070
    74
1070
     0
1000
MTEXTEND
  0
TEXT
  5
14DE
330
1F
100
AcDbEntity
  8
SUNPO
100
AcDbText
 10
381.8862574011546
 20
488.6918916770627
 30
0.0
 40
50.0
  1
製品名
  7
ADD
100
AcDbText
1001
ACAD
1000
MTEXTBEGIN
1070
    73
1070
     1
1070
    44
1040
1.0
1070
    74
1070
     0
1000
MTEXTEND
  0
TEXT
  5
14DF
330
1F
100
AcDbEntity
  8
SUNPO
100
AcDbText
 10
2376.290169028722
 20
494.4531736811823
 30
0.0
 40
50.0
  1
型式
  7
ADD
100
AcDbText
1001
ACAD
1000
MTEXTBEGIN
1070
    73
1070
     1
1070
    44
1040
1.0
1070
    74
1070
     0
1000
MTEXTEND
  0
TEXT
  5
14E0
330
1F
100
AcDbEntity
  8
SUNPO
100
AcDbText
 10
3177.510249231658
 20
488.6918916770627
 30
0.0
 40
50.0
  1
縮尺
  7
ADD
100
AcDbText
1001
ACAD
1000
MTEXTBEGIN
1070
    73
1070
     1
1070
    44
1040
1.0
1070
    74
1070
     0
1000
MTEXTEND
  0
TEXT
  5
14E1
330
1F
100
AcDbEntity
  8
SUNPO
100
AcDbText
 10
3730.870883051572
 20
352.2726133092145
 30
0.0
 40
100.0
  1
千葉県コンクリート製品協同組合
  7
ADD
100
AcDbText
1001
ACAD
1000
MTEXTBEGIN
1070
    73
1070
     1
1070
    44
1040
1.0
1070
    74
1070
     0
1000
MTEXTEND
  0
LINE
  5
14E2
330
1F
100
AcDbEntity
  8
HOJO
100
AcDbLine
 10
360.0
 20
260.0
 30
0.0
 11
5580.0
 21
260.0
 31
0.0
  0
LINE
  5
14E3
330
1F
100
AcDbEntity
  8
HOJO
100
AcDbLine
 10
5580.0
 20
260.0
 30
0.0
 11
5580.0
 21
3940.0
 31
0.0
  0
LINE
  5
14E4
330
1F
100
AcDbEntity
  8
HOJO
100
AcDbLine
 10
5580.0
 20
3940.0
 30
0.0
 11
360.0
 21
3940.0
 31
0.0
  0
LINE
  5
14E5
330
1F
100
AcDbEntity
  8
HOJO
100
AcDbLine
 10
360.0
 20
3940.0
 30
0.0
 11
360.0
 21
260.0
 31
0.0
  0
LINE
  5
14E6
330
1F
100
AcDbEntity
  8
HOJO
100
AcDbLine
 10
0.0
 20
0.0
 30
0.0
 11
5940.0
 21
0.0
 31
0.0
  0
LINE
  5
14E7
330
1F
100
AcDbEntity
  8
HOJO
100
AcDbLine
 10
5940.0
 20
0.0
 30
0.0
 11
5940.0
 21
4200.0
 31
0.0
  0
LINE
  5
14E8
330
1F
100
AcDbEntity
  8
HOJO
100
AcDbLine
 10
5940.0
 20
4200.0
 30
0.0
 11
0.0
 21
4200.0
 31
0.0
  0
LINE
  5
14E9
330
1F
100
AcDbEntity
  8
HOJO
100
AcDbLine
 10
0.0
 20
4200.0
 30
0.0
 11
0.0
 21
0.0
 31
0.0
  0
TEXT
  5
14EA
330
1F
100
AcDbEntity
  8
SUNPO
 62
     7
100
AcDbText
 10
1948.851014127787
 20
3362.3932986298
 30
0.0
 40
50.0
  1
180
  7
ADD
100
AcDbText
1001
ACAD
1000
MTEXTBEGIN
1070
    73
1070
     1
1070
    44
1040
1.0
1070
    74
1070
     0
1000
MTEXTEND
  0
TEXT
  5
14EB
330
1F
100
AcDbEntity
  8
SUNPO
 62
     7
100
AcDbText
 10
1831.197760894423
 20
3141.06195020692
 30
0.0
 40
50.0
  1
50
  7
ADD
100
AcDbText
1001
ACAD
1000
MTEXTBEGIN
1070
    73
1070
     1
1070
    44
1040
1.0
1070
    74
1070
     0
1000
MTEXTEND
  0
TEXT
  5
14EC
330
1F
100
AcDbEntity
  8
SUNPO
 62
     7
100
AcDbText
 10
2113.628502474131
 20
3140.111431258288
 30
0.0
 40
50.0
  1
50
  7
ADD
100
AcDbText
1001
ACAD
1000
MTEXTBEGIN
1070
    73
1070
     1
1070
    44
1040
1.0
1070
    74
1070
     0
1000
MTEXTEND
  0
TEXT
  5
14ED
330
1F
100
AcDbEntity
  8
SUNPO
 62
     7
100
AcDbText
 10
1976.23196650874
 20
3142.152534205695
 30
0.0
 40
50.0
  1
70
  7
ADD
100
AcDbText
1001
ACAD
1000
MTEXTBEGIN
1070
    73
1070
     1
1070
    44
1040
1.0
1070
    74
1070
     0
1000
MTEXTEND
  0
TEXT
  5
14EE
330
1F
100
AcDbEntity
  8
SUNPO
 62
     7
100
AcDbText
 10
1962.541490318263
 20
3009.084140669775
 30
0.0
 40
50.0
  1
5
  7
ADD
100
AcDbText
1001
ACAD
1000
MTEXTBEGIN
1070
    73
1070
     1
1070
    44
1040
1.0
1070
    74
1070
     0
1000
MTEXTEND
  0
TEXT
  5
14EF
330
1F
100
AcDbEntity
  8
SUNPO
 62
     7
100
AcDbText
 10
2037.541490318263
 20
3009.084140669775
 30
0.0
 40
50.0
  1
5
  7
ADD
100
AcDbText
1001
ACAD
1000
MTEXTBEGIN
1070
    73
1070
     1
1070
    44
1040
1.0
1070
    74
1070
     0
1000
MTEXTEND
  0
TEXT
  5
14F0
330
1F
100
AcDbEntity
  8
SUNPO
 62
     7
100
AcDbText
 10
2593.851014127787
 20
3142.152534205695
 30
0.0
 40
50.0
  1
110
  7
ADD
100
AcDbText
1001
ACAD
1000
MTEXTBEGIN
1070
    73
1070
     1
1070
    44
1040
1.0
1070
    74
1070
     0
1000
MTEXTEND
  0
TEXT
  5
14F1
330
1F
100
AcDbEntity
  8
SUNPO
 62
     7
100
AcDbText
 10
3425.041490318263
 20
3142.152534205695
 30
0.0
 40
50.0
  1
1600
  7
ADD
100
AcDbText
1001
ACAD
1000
MTEXTBEGIN
1070
    73
1070
     1
1070
    44
1040
1.0
1070
    74
1070
     0
1000
MTEXTEND
  0
TEXT
  5
14F2
330
1F
100
AcDbEntity
  8
SUNPO
 62
     7
100
AcDbText
 10
4303.851014127787
 20
3142.152534205695
 30
0.0
 40
50.0
  1
110
  7
ADD
100
AcDbText
1001
ACAD
1000
MTEXTBEGIN
1070
    73
1070
     1
1070
    44
1040
1.0
1070
    74
1070
     0
1000
MTEXTEND
  0
TEXT
  5
14F3
330
1F
100
AcDbEntity
  8
SUNPO
 62
     7
100
AcDbText
 10
2645.071076124277
 20
3009.084140669775
 30
0.0
 40
50.0
  1
60
  7
ADD
100
AcDbText
1001
ACAD
1000
MTEXTBEGIN
1070
    73
1070
     1
1070
    44
1040
1.0
1070
    74
1070
     0
1000
MTEXTEND
  0
TEXT
  5
14F4
330
1F
100
AcDbEntity
  8
SUNPO
 62
     7
100
AcDbText
 10
4305.01190451225
 20
3009.084140669775
 30
0.0
 40
50.0
  1
60
  7
ADD
100
AcDbText
1001
ACAD
1000
MTEXTBEGIN
1070
    73
1070
     1
1070
    44
1040
1.0
1070
    74
1070
     0
1000
MTEXTEND
  0
TEXT
  5
14F5
330
1F
100
AcDbEntity
  8
SUNPO
 62
     7
100
AcDbText
 10
2277.895839392869
 20
2209.706223324331
 30
0.0
 40
50.0
  1
1050
 50
90.0
  7
ADD
100
AcDbText
1001
ACAD
1000
MTEXTBEGIN
1070
    73
1070
     1
1070
    44
1040
1.0
1070
    74
1070
     0
1000
MTEXTEND
  0
TEXT
  5
14F6
330
1F
100
AcDbEntity
  8
SUNPO
 62
     7
100
AcDbText
 10
2444.161215995016
 20
1783.515747133855
 30
0.0
 40
50.0
  1
150
 50
90.0
  7
ADD
100
AcDbText
1001
ACAD
1000
MTEXTBEGIN
1070
    73
1070
     1
1070
    44
1040
1.0
1070
    74
1070
     0
1000
MTEXTEND
  0
TEXT
  5
14F7
330
1F
100
AcDbEntity
  8
SUNPO
 62
     7
100
AcDbText
 10
2444.161215995016
 20
2312.087175705284
 30
0.0
 40
50.0
  1
900
 50
90.0
  7
ADD
100
AcDbText
1001
ACAD
1000
MTEXTBEGIN
1070
    73
1070
     1
1070
    44
1040
1.0
1070
    74
1070
     0
1000
MTEXTEND
  0
TEXT
  5
14F8
330
1F
100
AcDbEntity
  8
SUNPO
 62
     7
100
AcDbText
 10
1948.851014127787
 20
1251.274390045935
 30
0.0
 40
50.0
  1
180
  7
ADD
100
AcDbText
1001
ACAD
1000
MTEXTBEGIN
1070
    73
1070
     1
1070
    44
1040
1.0
1070
    74
1070
     0
1000
MTEXTEND
  0
TEXT
  5
14F9
330
1F
100
AcDbEntity
  8
SUNPO
 62
     7
100
AcDbText
 10
2795.526808893711
 20
2149.249979603863
 30
0.0
 40
50.0
  1
20
  7
ADD
100
AcDbText
1001
ACAD
1000
MTEXTBEGIN
1070
    73
1070
     1
1070
    44
1040
1.0
1070
    74
1070
     0
1000
MTEXTEND
  0
TEXT
  5
14FA
330
1F
100
AcDbEntity
  8
SUNPO
 62
     7
100
AcDbText
 10
3006.667042655038
 20
1976.10205452642
 30
0.0
 40
50.0
  1
20
 50
90.0
  7
ADD
100
AcDbText
1001
ACAD
1000
MTEXTBEGIN
1070
    73
1070
     1
1070
    44
1040
1.0
1070
    74
1070
     0
1000
MTEXTEND
  0
TEXT
  5
14FB
330
1F
100
AcDbEntity
  8
SUNPO
 62
     7
100
AcDbText
 10
3425.041490318263
 20
1241.274390045935
 30
0.0
 40
50.0
  1
1820
  7
ADD
100
AcDbText
1001
ACAD
1000
MTEXTBEGIN
1070
    73
1070
     1
1070
    44
1040
1.0
1070
    74
1070
     0
1000
MTEXTEND
  0
TEXT
  5
14FC
330
1F
100
AcDbEntity
  8
SUNPO
 62
     7
100
AcDbText
 10
2613.851014127787
 20
1503.645068589895
 30
0.0
 40
50.0
  1
150
  7
ADD
100
AcDbText
1001
ACAD
1000
MTEXTBEGIN
1070
    73
1070
     1
1070
    44
1040
1.0
1070
    74
1070
     0
1000
MTEXTEND
  0
TEXT
  5
14FD
330
1F
100
AcDbEntity
  8
SUNPO
 62
     7
100
AcDbText
 10
3425.041490318263
 20
1503.645068589895
 30
0.0
 40
50.0
  1
1520
  7
ADD
100
AcDbText
1001
ACAD
1000
MTEXTBEGIN
1070
    73
1070
     1
1070
    44
1040
1.0
1070
    74
1070
     0
1000
MTEXTEND
  0
TEXT
  5
14FE
330
1F
100
AcDbEntity
  8
SUNPO
 62
     7
100
AcDbText
 10
4283.851014127787
 20
1503.645068589895
 30
0.0
 40
50.0
  1
150
  7
ADD
100
AcDbText
1001
ACAD
1000
MTEXTBEGIN
1070
    73
1070
     1
1070
    44
1040
1.0
1070
    74
1070
     0
1000
MTEXTEND
  0
VIEWPORT
  5
72
330
1B
100
AcDbEntity
 67
     1
  8
0
100
AcDbViewport
 10
429.8380103383459
 20
277.0
 30
0.0
 40
948.9782706766918
 41
628.4520000000001
 68
     1
 69
     1
1001
ACAD
1000
MVIEW
1002
{
1070
    16
1010
0.0
1020
0.0
1030
0.0
1010
0.0
1020
0.0
1030
1.0
1040
0.0
1040
628.4520000000001
1040
429.8380103383459
1040
277.0
1040
50.0
1040
0.0
1040
0.0
1070
     0
1070
   100
1070
     1
1070
     1
1070
     0
1070
     0
1070
     0
1070
     0
1040
0.0
1040
0.0
1040
0.0
1040
10.0
1040
10.0
1040
10.0
1040
10.0
1070
     0
1002
{
1002
}
1002
}
  0
VIEWPORT
  5
74
330
1B
100
AcDbEntity
 67
     1
  8
VIEWPORT
100
AcDbViewport
 10
414.3779638919211
 20
277.3177265058034
 30
0.0
 40
840.0353682728887
 41
567.2285469943826
 68
     2
 69
     2
1001
ACAD
1000
MVIEW
1002
{
1070
    16
1010
0.0
1020
0.0
1030
0.0
1010
0.0
1020
0.0
1030
1.0
1040
0.0
1040
579.5583043546323
1040
424.4938908624541
1040
286.1973242720074
1040
50.0
1040
0.0
1040
0.0
1070
     0
1070
   100
1070
     1
1070
     1
1070
     0
1070
     0
1070
     0
1070
     0
1040
0.0
1040
0.0
1040
0.0
1040
10.0
1040
10.0
1040
10.0
1040
10.0
1070
     0
1002
{
1002
}
1002
}
  0
ENDSEC
  0
SECTION
  2
OBJECTS
  0
DICTIONARY
  5
C
330
0
100
AcDbDictionary
  3
ACAD_GROUP
350
D
  3
ACAD_LAYOUT
350
1A
  3
ACAD_MLINESTYLE
350
17
  3
ACAD_PLOTSETTINGS
350
19
  3
DWGPROPS
350
4C7
1001
ACAD
1000
TREAT_AS_HARD
1070
     0
  0
DICTIONARY
  5
13CE
330
1F
100
AcDbDictionary
  3
ACAD_LAYOUTSELFREF
350
1501
1001
ACAD
1000
TREAT_AS_HARD
1070
     1
  0
DICTIONARY
  5
13D0
330
1B
100
AcDbDictionary
  3
ACAD_LAYOUTSELFREF
350
1500
1001
ACAD
1000
TREAT_AS_HARD
1070
     1
  0
DICTIONARY
  5
D
102
{ACAD_REACTORS
330
C
102
}
330
C
100
AcDbDictionary
1001
ACAD
1000
TREAT_AS_HARD
1070
     0
  0
DICTIONARY
  5
1A
102
{ACAD_REACTORS
330
C
102
}
330
C
100
AcDbDictionary
1001
ACAD
1000
TREAT_AS_HARD
1070
     0
  0
DICTIONARY
  5
17
102
{ACAD_REACTORS
330
C
102
}
330
C
100
AcDbDictionary
  3
STANDARD
350
18
1001
ACAD
1000
TREAT_AS_HARD
1070
     0
  0
DICTIONARY
  5
19
102
{ACAD_REACTORS
330
C
102
}
330
C
100
AcDbDictionary
1001
ACAD
1000
TREAT_AS_HARD
1070
     0
  0
XRECORD
  5
4C7
102
{ACAD_REACTORS
330
C
102
}
330
C
100
AcDbXrecord
  1
DWGPROPS COOKIE
  2
印刷用テスト
  3
AutoCAD2000による建築設計
  4
鈴木 裕二
  6

  7

  8
U2
  9

300
=
301
=
302
=
303
=
304
=
305
=
306
=
307
=
308
=
309
=
 40
0.7653446875
 41
2451285.4846114
 42
2451333.689743032
  1

 90
        0
  0
XRECORD
  5
1501
102
{ACAD_REACTORS
330
13CE
102
}
330
13CE
100
AcDbXrecord
340
1F
  0
XRECORD
  5
1500
102
{ACAD_REACTORS
330
13D0
102
}
330
13D0
100
AcDbXrecord
340
1B
  0
MLINESTYLE
  5
18
102
{ACAD_REACTORS
330
17
102
}
330
17
100
AcDbMlineStyle
  2
STANDARD
 70
     0
  3

 62
   256
 51
90.0
 52
90.0
 71
     2
 49
0.5
 62
   256
  6
BYLAYER
 49
-0.5
 62
   256
  6
BYLAYER
  0
ENDSEC
  0
EOF
