  0
SECTION
  2
HEADER
  9
$ACADVER
  1
AC1012
  9
$DWGCODEPAGE
  3
dos932
  9
$INSBASE
 10
0.0
 20
0.0
 30
0.0
  9
$EXTMIN
 10
0.0
 20
0.0
 30
0.0
  9
$EXTMAX
 10
5940.0
 20
4200.0
 30
0.0
  9
$LIMMIN
 10
0.0
 20
0.0
  9
$LIMMAX
 10
5940.0
 20
4200.0
  9
$ORTHOMODE
 70
     0
  9
$REGENMODE
 70
     1
  9
$FILLMODE
 70
     1
  9
$QTEXTMODE
 70
     0
  9
$MIRRTEXT
 70
     0
  9
$DRAGMODE
 70
     2
  9
$LTSCALE
 40
10.0
  9
$OSMODE
 70
    37
  9
$ATTMODE
 70
     1
  9
$TEXTSIZE
 40
50.0
  9
$TRACEWID
 40
1.0
  9
$TEXTSTYLE
  7
ADD
  9
$CLAYER
  8
SUNPO
  9
$CELTYPE
  6
BYLAYER
  9
$CECOLOR
 62
   256
  9
$CELTSCALE
 40
1.0
  9
$DELOBJ
 70
     1
  9
$DISPSILH
 70
     0
  9
$DIMSCALE
 40
20.0
  9
$DIMASZ
 40
2.5
  9
$DIMEXO
 40
1.0
  9
$DIMDLI
 40
7.0
  9
$DIMRND
 40
0.0
  9
$DIMDLE
 40
0.0
  9
$DIMEXE
 40
0.5
  9
$DIMTP
 40
0.0
  9
$DIMTM
 40
0.0
  9
$DIMTXT
 40
2.5
  9
$DIMCEN
 40
2.5
  9
$DIMTSZ
 40
0.0
  9
$DIMTOL
 70
     0
  9
$DIMLIM
 70
     0
  9
$DIMTIH
 70
     0
  9
$DIMTOH
 70
     0
  9
$DIMSE1
 70
     0
  9
$DIMSE2
 70
     0
  9
$DIMTAD
 70
     1
  9
$DIMZIN
 70
     8
  9
$DIMBLK
  1

  9
$DIMASO
 70
     1
  9
$DIMSHO
 70
     1
  9
$DIMPOST
  1

  9
$DIMAPOST
  1

  9
$DIMALT
 70
     0
  9
$DIMALTD
 70
     3
  9
$DIMALTF
 40
0.03937007874016
  9
$DIMLFAC
 40
1.0
  9
$DIMTOFL
 70
     1
  9
$DIMTVP
 40
0.7
  9
$DIMTIX
 70
     1
  9
$DIMSOXD
 70
     0
  9
$DIMSAH
 70
     0
  9
$DIMBLK1
  1

  9
$DIMBLK2
  1

  9
$DIMSTYLE
  2
ADD
  9
$DIMCLRD
 70
   144
  9
$DIMCLRE
 70
   144
  9
$DIMCLRT
 70
     7
  9
$DIMTFAC
 40
1.0
  9
$DIMGAP
 40
0.625
  9
$DIMJUST
 70
     0
  9
$DIMSD1
 70
     0
  9
$DIMSD2
 70
     0
  9
$DIMTOLJ
 70
     2
  9
$DIMTZIN
 70
     8
  9
$DIMALTZ
 70
     0
  9
$DIMALTTZ
 70
     0
  9
$DIMFIT
 70
     5
  9
$DIMUPT
 70
     0
  9
$DIMUNIT
 70
     2
  9
$DIMDEC
 70
     1
  9
$DIMTDEC
 70
     1
  9
$DIMALTU
 70
     2
  9
$DIMALTTD
 70
     3
  9
$DIMTXSTY
  7
ADD
  9
$DIMAUNIT
 70
     0
  9
$LUNITS
 70
     2
  9
$LUPREC
 70
     4
  9
$SKETCHINC
 40
1.0
  9
$FILLETRAD
 40
0.0
  9
$AUNITS
 70
     0
  9
$AUPREC
 70
     1
  9
$MENU
  1
.
  9
$ELEVATION
 40
0.0
  9
$PELEVATION
 40
0.0
  9
$THICKNESS
 40
0.0
  9
$LIMCHECK
 70
     0
  9
$BLIPMODE
 70
     0
  9
$CHAMFERA
 40
20.0
  9
$CHAMFERB
 40
20.0
  9
$CHAMFERC
 40
20.0
  9
$CHAMFERD
 40
0.0
  9
$SKPOLY
 70
     0
  9
$TDCREATE
 40
2451801.142532870
  9
$TDUPDATE
 40
2451865.577017048
  9
$TDINDWG
 40
0.1302193287
  9
$TDUSRTIMER
 40
0.1302193287
  9
$USRTIMER
 70
     1
  9
$ANGBASE
 50
0.0
  9
$ANGDIR
 70
     0
  9
$PDMODE
 70
     0
  9
$PDSIZE
 40
0.0
  9
$PLINEWID
 40
0.0
  9
$COORDS
 70
     2
  9
$SPLFRAME
 70
     0
  9
$SPLINETYPE
 70
     6
  9
$SPLINESEGS
 70
     8
  9
$ATTDIA
 70
     0
  9
$ATTREQ
 70
     1
  9
$HANDLING
 70
 10241
  9
$HANDSEED
  5
161D
  9
$SURFTAB1
 70
     6
  9
$SURFTAB2
 70
     6
  9
$SURFTYPE
 70
     6
  9
$SURFU
 70
     6
  9
$SURFV
 70
     6
  9
$UCSNAME
  2

  9
$UCSORG
 10
0.0
 20
0.0
 30
0.0
  9
$UCSXDIR
 10
1.0
 20
0.0
 30
0.0
  9
$UCSYDIR
 10
0.0
 20
1.0
 30
0.0
  9
$PUCSNAME
  2

  9
$PUCSORG
 10
0.0
 20
0.0
 30
0.0
  9
$PUCSXDIR
 10
1.0
 20
0.0
 30
0.0
  9
$PUCSYDIR
 10
0.0
 20
1.0
 30
0.0
  9
$USERI1
 70
     0
  9
$USERI2
 70
     0
  9
$USERI3
 70
     0
  9
$USERI4
 70
     0
  9
$USERI5
 70
     0
  9
$USERR1
 40
841.0
  9
$USERR2
 40
594.0
  9
$USERR3
 40
1.0
  9
$USERR4
 40
0.0
  9
$USERR5
 40
0.0
  9
$WORLDVIEW
 70
     1
  9
$SHADEDGE
 70
     3
  9
$SHADEDIF
 70
    70
  9
$TILEMODE
 70
     1
  9
$MAXACTVP
 70
    48
  9
$PINSBASE
 10
0.0
 20
0.0
 30
0.0
  9
$PLIMCHECK
 70
     0
  9
$PEXTMIN
 10
-5.662975978526674
 20
-6.331907780761866
 30
-0.0015258207003583
  9
$PEXTMAX
 10
834.4213426047982
 20
560.9663709967471
 30
0.0000000349246037
  9
$PLIMMIN
 10
-7.500000000000001
 20
-20.0
  9
$PLIMMAX
 10
833.5000000000002
 20
574.0000000000001
  9
$UNITMODE
 70
     0
  9
$VISRETAIN
 70
     1
  9
$PLINEGEN
 70
     0
  9
$PSLTSCALE
 70
     1
  9
$TREEDEPTH
 70
  3020
  9
$PICKSTYLE
 70
     1
  9
$CMLSTYLE
  2
STANDARD
  9
$CMLJUST
 70
     0
  9
$CMLSCALE
 40
20.0
  9
$SAVEIMAGES
 70
     1
  0
ENDSEC
  0
SECTION
  2
CLASSES
  0
CLASS
  1
ACDBDICTIONARYWDFLT
  2
AcDbDictionaryWithDefault
  3
AutoCAD 2000
 90
    32768
280
     0
281
     0
  0
CLASS
  1
ACDBPLACEHOLDER
  2
AcDbPlaceHolder
  3
AutoCAD 2000
 90
    32768
280
     0
281
     0
  0
CLASS
  1
LAYOUT
  2
AcDbLayout
  3
AutoCAD 2000
 90
    32768
280
     0
281
     0
  0
CLASS
  1
RTEXT
  2
RText
  3
RText|AutoCAD Express Tool|expresstools@autodesk.com
 90
    32768
280
     0
281
     1
  0
CLASS
  1
DICTIONARYVAR
  2
AcDbDictionaryVar
  3
AutoCAD 2000
 90
    32768
280
     0
281
     0
  0
CLASS
  1
LONG_TRANSACTION
  2
AcDbLongTransaction
  3
AutoCAD 2000
 90
    32768
280
     0
281
     0
  0
CLASS
  1
LWPOLYLINE
  2
AcDbPolyline
  3
AutoCAD 2000
 90
    32768
280
     0
281
     1
  0
CLASS
  1
HATCH
  2
AcDbHatch
  3
AutoCAD 2000
 90
    32768
280
     0
281
     1
  0
CLASS
  1
XRECORD
  2
AcDbXrecord
  3
AutoCAD 2000
 90
    32768
280
     0
281
     0
  0
CLASS
  1
LONG_TRANSACTION
  2
AcDbLongTransaction
  3
AutoCAD 2000
 90
    32768
280
     0
281
     0
  0
CLASS
  1
LWPOLYLINE
  2
AcDbPolyline
  3
AutoCAD 2000
 90
    32768
280
     0
281
     1
  0
CLASS
  1
HATCH
  2
AcDbHatch
  3
AutoCAD 2000
 90
    32768
280
     0
281
     1
  0
CLASS
  1
XRECORD
  2
AcDbXrecord
  3
AutoCAD 2000
 90
    32768
280
     0
281
     0
  0
ENDSEC
  0
SECTION
  2
TABLES
  0
TABLE
  2
VPORT
  5
8
330
0
100
AcDbSymbolTable
 70
     2
  0
VPORT
  5
160D
330
8
100
AcDbSymbolTableRecord
100
AcDbViewportTableRecord
  2
*ACTIVE
 70
     0
 10
0.0
 20
0.0
 11
1.0
 21
1.0
 12
3044.315819300189
 22
2100.000066011589
 13
0.0
 23
0.0
 14
10.0
 24
10.0
 15
10.0
 25
10.0
 16
0.0
 26
0.0
 36
1.0
 17
0.0
 27
0.0
 37
0.0
 40
4233.243944339456
 41
1.461638491547464
 42
50.0
 43
0.0
 44
0.0
 50
0.0
 51
0.0
 71
     0
 72
   100
 73
     1
 74
     1
 75
     0
 76
     0
 77
     0
 78
     0
  0
ENDTAB
  0
TABLE
  2
LTYPE
  5
5
330
0
100
AcDbSymbolTable
 70
     5
  0
LTYPE
  5
14
330
5
100
AcDbSymbolTableRecord
100
AcDbLinetypeTableRecord
  2
BYBLOCK
 70
     0
  3

 72
    65
 73
     0
 40
0.0
  0
LTYPE
  5
15
330
5
100
AcDbSymbolTableRecord
100
AcDbLinetypeTableRecord
  2
BYLAYER
 70
     0
  3

 72
    65
 73
     0
 40
0.0
  0
LTYPE
  5
16
330
5
100
AcDbSymbolTableRecord
100
AcDbLinetypeTableRecord
  2
CONTINUOUS
 70
     0
  3
Solid line
 72
    65
 73
     0
 40
0.0
  0
LTYPE
  5
555
330
5
100
AcDbSymbolTableRecord
100
AcDbLinetypeTableRecord
  2
CENTER
 70
     0
  3
Center ____ _ ____ _ ____ _ ____ _ ____ _ ____
 72
    65
 73
     4
 40
50.8
 49
31.75
 74
     0
 49
-6.349999999999999
 74
     0
 49
6.349999999999999
 74
     0
 49
-6.349999999999999
 74
     0
  0
LTYPE
  5
556
330
5
100
AcDbSymbolTableRecord
100
AcDbLinetypeTableRecord
  2
HIDDEN
 70
     0
  3
Hidden __ __ __ __ __ __ __ __ __ __ __ __ __ _
 72
    65
 73
     2
 40
9.524999999999998
 49
6.349999999999999
 74
     0
 49
-3.174999999999999
 74
     0
  0
LTYPE
  5
557
330
5
100
AcDbSymbolTableRecord
100
AcDbLinetypeTableRecord
  2
HIDDEN2
 70
     0
  3
Hidden (.5x) _ _ _ _ _ _ _ _ _ _ _ _ _ _ _ _ _
 72
    65
 73
     2
 40
4.762499999999999
 49
3.174999999999999
 74
     0
 49
-1.587499999999999
 74
     0
  0
LTYPE
  5
558
330
5
100
AcDbSymbolTableRecord
100
AcDbLinetypeTableRecord
  2
PHANTOM
 70
     0
  3
Phantom ______  __  __  ______  __  __  ______
 72
    65
 73
     6
 40
63.5
 49
31.75
 74
     0
 49
-6.349999999999999
 74
     0
 49
6.349999999999999
 74
     0
 49
-6.349999999999999
 74
     0
 49
6.349999999999999
 74
     0
 49
-6.349999999999999
 74
     0
  0
ENDTAB
  0
TABLE
  2
LAYER
  5
2
330
0
100
AcDbSymbolTable
 70
    22
  0
LAYER
  5
10
330
2
100
AcDbSymbolTableRecord
100
AcDbLayerTableRecord
  2
0
 70
     0
 62
     7
  6
CONTINUOUS
  0
LAYER
  5
75
330
2
100
AcDbSymbolTableRecord
100
AcDbLayerTableRecord
  2
VIEWPORT
 70
     0
 62
     1
  6
CONTINUOUS
  0
LAYER
  5
504
330
2
100
AcDbSymbolTableRecord
100
AcDbLayerTableRecord
  2
DEFPOINTS
 70
     0
 62
     7
  6
CONTINUOUS
  0
LAYER
  5
505
330
2
100
AcDbSymbolTableRecord
100
AcDbLayerTableRecord
  2
1C1
 70
     0
 62
   254
  6
CONTINUOUS
  0
LAYER
  5
506
330
2
100
AcDbSymbolTableRecord
100
AcDbLayerTableRecord
  2
1C2
 70
     0
 62
   254
  6
CONTINUOUS
  0
LAYER
  5
507
330
2
100
AcDbSymbolTableRecord
100
AcDbLayerTableRecord
  2
2C1
 70
     0
 62
   144
  6
CONTINUOUS
  0
LAYER
  5
508
330
2
100
AcDbSymbolTableRecord
100
AcDbLayerTableRecord
  2
2C2
 70
     0
 62
   144
  6
CONTINUOUS
  0
LAYER
  5
509
330
2
100
AcDbSymbolTableRecord
100
AcDbLayerTableRecord
  2
2H1
 70
     0
 62
   144
  6
HIDDEN
  0
LAYER
  5
50A
330
2
100
AcDbSymbolTableRecord
100
AcDbLayerTableRecord
  2
2H2
 70
     0
 62
   144
  6
HIDDEN2
  0
LAYER
  5
50B
330
2
100
AcDbSymbolTableRecord
100
AcDbLayerTableRecord
  2
2P1
 70
     0
 62
   144
  6
PHANTOM
  0
LAYER
  5
50C
330
2
100
AcDbSymbolTableRecord
100
AcDbLayerTableRecord
  2
3C1
 70
     0
 62
     7
  6
CONTINUOUS
  0
LAYER
  5
50D
330
2
100
AcDbSymbolTableRecord
100
AcDbLayerTableRecord
  2
3C2
 70
     0
 62
     7
  6
CONTINUOUS
  0
LAYER
  5
50E
330
2
100
AcDbSymbolTableRecord
100
AcDbLayerTableRecord
  2
3C3
 70
     0
 62
     7
  6
CONTINUOUS
  0
LAYER
  5
50F
330
2
100
AcDbSymbolTableRecord
100
AcDbLayerTableRecord
  2
4H1
 70
     0
 62
     6
  6
HIDDEN
  0
LAYER
  5
510
330
2
100
AcDbSymbolTableRecord
100
AcDbLayerTableRecord
  2
4H2
 70
     0
 62
     6
  6
HIDDEN2
  0
LAYER
  5
511
330
2
100
AcDbSymbolTableRecord
100
AcDbLayerTableRecord
  2
5C1
 70
     0
 62
    55
  6
CONTINUOUS
  0
LAYER
  5
512
330
2
100
AcDbSymbolTableRecord
100
AcDbLayerTableRecord
  2
5C2
 70
     0
 62
    55
  6
CONTINUOUS
  0
LAYER
  5
513
330
2
100
AcDbSymbolTableRecord
100
AcDbLayerTableRecord
  2
8C1
 70
     0
 62
    92
  6
CONTINUOUS
  0
LAYER
  5
514
330
2
100
AcDbSymbolTableRecord
100
AcDbLayerTableRecord
  2
HOJO
 70
     0
 62
     5
  6
CONTINUOUS
  0
LAYER
  5
515
330
2
100
AcDbSymbolTableRecord
100
AcDbLayerTableRecord
  2
KIJUN
 70
     0
 62
     1
  6
CENTER
  0
LAYER
  5
516
330
2
100
AcDbSymbolTableRecord
100
AcDbLayerTableRecord
  2
MOJI
 70
     0
 62
     7
  6
CONTINUOUS
  0
LAYER
  5
517
330
2
100
AcDbSymbolTableRecord
100
AcDbLayerTableRecord
  2
SUNPO
 70
     0
 62
   144
  6
CONTINUOUS
  0
ENDTAB
  0
TABLE
  2
STYLE
  5
3
330
0
100
AcDbSymbolTable
 70
     6
  0
STYLE
  5
11
330
3
100
AcDbSymbolTableRecord
100
AcDbTextStyleTableRecord
  2
STANDARD
 70
     0
 40
0.0
 41
1.0
 50
0.0
 71
     0
 42
2.5
  3
txt
  4

  0
STYLE
  5
2C
330
3
100
AcDbSymbolTableRecord
100
AcDbTextStyleTableRecord
  2

 70
     1
 40
0.0
 41
1.0
 50
0.0
 71
     0
 42
2.5
  3
ltypeshp.shx
  4

  0
STYLE
  5
18E
330
3
100
AcDbSymbolTableRecord
100
AcDbTextStyleTableRecord
  2
ADD
 70
     0
 40
0.0
 41
1.0
 50
0.0
 71
     0
 42
50.0
  3
romans.shx
  4
bigfont.shx
  0
STYLE
  5
191
330
3
100
AcDbSymbolTableRecord
100
AcDbTextStyleTableRecord
  2
MSG
 70
     0
 40
0.0
 41
1.0
 50
0.0
 71
     0
 42
2.5
  3
MS Gothic.ttf
  4

1001
ACAD
1000
MS Gothic
1071
    32817
  0
STYLE
  5
5C8
330
3
100
AcDbSymbolTableRecord
100
AcDbTextStyleTableRecord
  2
STANDARD15
 70
     0
 40
0.0
 41
1.0
 50
15.0
 71
     0
 42
2.5
  3
ROMANS
  4
bigfont
  0
STYLE
  5
5C9
330
3
100
AcDbSymbolTableRecord
100
AcDbTextStyleTableRecord
  2
ROMANS15
 70
     0
 40
0.0
 41
1.0
 50
15.0
 71
     0
 42
2.5
  3
romans
  4

  0
ENDTAB
  0
TABLE
  2
VIEW
  5
6
330
0
100
AcDbSymbolTable
 70
     1
  0
VIEW
  5
54D
330
6
100
AcDbSymbolTableRecord
100
AcDbViewTableRecord
  2
ALL
 70
     0
 40
594.0
 10
420.5
 20
297.0
 41
865.125
 11
0.0
 21
0.0
 31
1.0
 12
0.0
 22
0.0
 32
0.0
 42
50.0
 43
0.0
 44
0.0
 50
0.0
 71
     0
  0
ENDTAB
  0
TABLE
  2
UCS
  5
7
330
0
100
AcDbSymbolTable
 70
     0
  0
ENDTAB
  0
TABLE
  2
APPID
  5
9
330
0
100
AcDbSymbolTable
 70
     4
  0
APPID
  5
12
330
9
100
AcDbSymbolTableRecord
100
AcDbRegAppTableRecord
  2
ACAD
 70
     0
  0
APPID
  5
5CB
330
9
100
AcDbSymbolTableRecord
100
AcDbRegAppTableRecord
  2
ARAIGUMI_YOHEKI
 70
     0
  0
APPID
  5
5CC
330
9
100
AcDbSymbolTableRecord
100
AcDbRegAppTableRecord
  2
CONTENTTABDATA
 70
     0
  0
APPID
  5
5CD
330
9
100
AcDbSymbolTableRecord
100
AcDbRegAppTableRecord
  2
CONTENTCURRENTTAB
 70
     0
  0
ENDTAB
  0
TABLE
  2
DIMSTYLE
  5
A
330
0
100
AcDbSymbolTable
 70
    10
  0
DIMSTYLE
105
27
330
A
100
AcDbSymbolTableRecord
100
AcDbDimStyleTableRecord
  2
ISO-25
 70
     0
  3

  4

  5

  6

  7

 40
1.0
 41
2.5
 42
0.625
 43
3.75
 44
1.25
 45
0.0
 46
0.0
 47
0.0
 48
0.0
140
2.5
141
2.5
142
0.0
143
0.03937007874016
144
1.0
145
0.0
146
1.0
147
0.625
 71
     0
 72
     0
 73
     0
 74
     0
 75
     0
 76
     0
 77
     1
 78
     8
170
     0
171
     3
172
     1
173
     0
174
     0
175
     0
176
     0
177
     0
178
     0
270
     2
271
     2
272
     2
273
     2
274
     3
340
11
275
     0
280
     0
281
     0
282
     0
283
     0
284
     8
285
     0
286
     0
287
     3
288
     0
  0
DIMSTYLE
105
197
330
A
100
AcDbSymbolTableRecord
100
AcDbDimStyleTableRecord
  2
ADD
 70
     0
  3

  4

  5

  6

  7

 40
1.0
 41
2.5
 42
1.0
 43
7.0
 44
0.5
 45
0.0
 46
0.0
 47
0.0
 48
0.0
140
2.5
141
2.5
142
0.0
143
0.03937007874016
144
1.0
145
0.7
146
1.0
147
0.625
 71
     0
 72
     0
 73
     0
 74
     0
 75
     0
 76
     0
 77
     1
 78
     8
170
     0
171
     3
172
     1
173
     0
174
     1
175
     0
176
   144
177
   144
178
     7
270
     2
271
     1
272
     1
273
     2
274
     3
340
18E
275
     0
280
     0
281
     0
282
     0
283
     2
284
     8
285
     0
286
     0
287
     5
288
     0
  0
DIMSTYLE
105
3E6
330
A
100
AcDbSymbolTableRecord
100
AcDbDimStyleTableRecord
  2
ADD$2
 70
     0
  3

  4

  5

  6

  7

 40
1.0
 41
2.5
 42
1.0
 43
7.0
 44
0.5
 45
0.0
 46
0.0
 47
0.0
 48
0.0
140
2.5
141
2.5
142
0.0
143
0.03937007874016
144
1.0
145
0.7
146
1.0
147
0.625
 71
     0
 72
     0
 73
     0
 74
     0
 75
     0
 76
     0
 77
     1
 78
     8
170
     0
171
     3
172
     1
173
     0
174
     1
175
     0
176
   144
177
   144
178
     7
270
     2
271
     1
272
     1
273
     2
274
     3
340
18E
275
     0
280
     0
281
     0
282
     0
283
     2
284
     8
285
     0
286
     0
287
     5
288
     0
  0
DIMSTYLE
105
3E7
330
A
100
AcDbSymbolTableRecord
100
AcDbDimStyleTableRecord
  2
ADD$4
 70
     0
  3

  4

  5

  6

  7

 40
1.0
 41
2.5
 42
1.0
 43
7.0
 44
0.5
 45
0.0
 46
0.0
 47
0.0
 48
0.0
140
2.5
141
2.5
142
0.0
143
0.03937007874016
144
1.0
145
0.0
146
1.0
147
0.625
 71
     0
 72
     0
 73
     0
 74
     0
 75
     0
 76
     0
 77
     1
 78
     8
170
     0
171
     3
172
     1
173
     0
174
     1
175
     0
176
   144
177
   144
178
     7
270
     2
271
     1
272
     1
273
     2
274
     3
340
18E
275
     0
280
     0
281
     0
282
     0
283
     2
284
     8
285
     0
286
     0
287
     5
288
     0
  0
DIMSTYLE
105
3E8
330
A
100
AcDbSymbolTableRecord
100
AcDbDimStyleTableRecord
  2
ADD$3
 70
     0
  3

  4

  5

  6

  7

 40
1.0
 41
2.5
 42
1.0
 43
7.0
 44
0.5
 45
0.0
 46
0.0
 47
0.0
 48
0.0
140
2.5
141
2.5
142
0.0
143
0.03937007874016
144
1.0
145
0.0
146
1.0
147
0.625
 71
     0
 72
     0
 73
     0
 74
     0
 75
     0
 76
     0
 77
     1
 78
     8
170
     0
171
     3
172
     1
173
     0
174
     1
175
     0
176
   144
177
   144
178
     7
270
     2
271
     1
272
     1
273
     2
274
     3
340
18E
275
     0
280
     0
281
     0
282
     0
283
     2
284
     8
285
     0
286
     0
287
     5
288
     0
  0
DIMSTYLE
105
3E9
330
A
100
AcDbSymbolTableRecord
100
AcDbDimStyleTableRecord
  2
ADD$6
 70
     0
  3

  4

  5

  6

  7

 40
1.0
 41
2.5
 42
1.0
 43
7.0
 44
0.5
 45
0.0
 46
0.0
 47
0.0
 48
0.0
140
2.5
141
2.5
142
0.0
143
0.03937007874016
144
1.0
145
0.0
146
1.0
147
0.625
 71
     0
 72
     0
 73
     0
 74
     0
 75
     0
 76
     0
 77
     1
 78
     8
170
     0
171
     3
172
     1
173
     0
174
     1
175
     0
176
   144
177
   144
178
     7
270
     2
271
     1
272
     1
273
     2
274
     3
340
18E
275
     0
280
     0
281
     0
282
     0
283
     2
284
     8
285
     0
286
     0
287
     5
288
     0
  0
DIMSTYLE
105
3EA
330
A
100
AcDbSymbolTableRecord
100
AcDbDimStyleTableRecord
  2
ADD$7
 70
     0
  3

  4

  5

  6

  7

 40
1.0
 41
2.5
 42
1.0
 43
7.0
 44
0.5
 45
0.0
 46
0.0
 47
0.0
 48
0.0
140
2.5
141
2.5
142
0.0
143
0.03937007874016
144
1.0
145
0.0
146
1.0
147
0.625
 71
     0
 72
     0
 73
     0
 74
     0
 75
     0
 76
     0
 77
     0
 78
     8
170
     0
171
     3
172
     1
173
     0
174
     1
175
     0
176
   144
177
   144
178
     7
270
     2
271
     1
272
     1
273
     2
274
     3
340
18E
275
     0
280
     0
281
     0
282
     0
283
     2
284
     8
285
     0
286
     0
287
     5
288
     0
  0
DIMSTYLE
105
518
330
A
100
AcDbSymbolTableRecord
100
AcDbDimStyleTableRecord
  2
STANDARD
 70
     0
  3

  4

  5

  6

  7

 40
1.0
 41
0.18
 42
0.0625
 43
0.38
 44
0.18
 45
0.0
 46
0.0
 47
0.0
 48
0.0
140
0.18
141
0.09
142
0.0
143
25.4
144
1.0
145
0.0
146
1.0
147
0.09
 71
     0
 72
     0
 73
     1
 74
     1
 75
     0
 76
     0
 77
     0
 78
     0
170
     0
171
     2
172
     0
173
     0
174
     0
175
     0
176
     0
177
     0
178
     0
270
     2
271
     4
272
     4
273
     2
274
     2
340
11
275
     0
280
     0
281
     0
282
     0
283
     1
284
     0
285
     0
286
     0
287
     3
288
     0
  0
DIMSTYLE
105
550
102
{ACAD_REACTORS
330
10F6
330
10E9
330
10DC
330
10CD
330
10A0
330
108C
330
106D
330
100A
330
FFD
330
FF0
330
FB5
330
FA6
330
F97
330
F8A
330
F7B
330
F6C
330
F5D
330
F0C
330
EFD
330
EEE
330
E8F
102
}
330
A
100
AcDbSymbolTableRecord
100
AcDbDimStyleTableRecord
  2
ADD$0
 70
     0
  3

  4

  5

  6

  7

 40
1.0
 41
2.2
 42
1.0
 43
7.0
 44
0.5
 45
0.0
 46
0.0
 47
0.0
 48
0.0
140
2.5
141
2.5
142
0.0
143
0.03937007874016
144
1.0
145
0.7
146
1.0
147
0.625
 71
     0
 72
     0
 73
     0
 74
     0
 75
     0
 76
     0
 77
     1
 78
     8
170
     0
171
     3
172
     1
173
     0
174
     1
175
     0
176
   144
177
   144
178
     7
270
     2
271
     1
272
     1
273
     2
274
     3
340
18E
275
     0
280
     0
281
     0
282
     0
283
     2
284
     8
285
     0
286
     0
287
     5
288
     0
  0
DIMSTYLE
105
59B
330
A
100
AcDbSymbolTableRecord
100
AcDbDimStyleTableRecord
  2
ADD_M
 70
     0
  3

  4

  5

  6

  7

 40
1.0
 41
2.5
 42
1.0
 43
7.0
 44
0.5
 45
0.0
 46
0.0
 47
0.0
 48
0.0
140
2.5
141
2.5
142
0.0
143
0.03937007874016
144
1.0
145
0.7
146
1.0
147
0.625
 71
     0
 72
     0
 73
     0
 74
     0
 75
     0
 76
     0
 77
     1
 78
     8
170
     0
171
     3
172
     1
173
     0
174
     1
175
     0
176
   144
177
   144
178
     7
270
     2
271
     1
272
     1
273
     2
274
     3
340
18E
275
     0
280
     0
281
     0
282
     0
283
     2
284
     8
285
     0
286
     0
287
     5
288
     0
  0
ENDTAB
  0
TABLE
  2
BLOCK_RECORD
  5
1
330
0
100
AcDbSymbolTable
 70
    25
  0
BLOCK_RECORD
  5
1F
102
{ACAD_XDICTIONARY
360
14DC
102
}
330
1
100
AcDbSymbolTableRecord
100
AcDbBlockTableRecord
  2
*MODEL_SPACE
  0
BLOCK_RECORD
  5
1B
102
{ACAD_XDICTIONARY
360
14DE
102
}
330
1
100
AcDbSymbolTableRecord
100
AcDbBlockTableRecord
  2
*PAPER_SPACE
  0
BLOCK_RECORD
  5
192
330
1
100
AcDbSymbolTableRecord
100
AcDbBlockTableRecord
  2
_DOT
  0
BLOCK_RECORD
  5
5CE
330
1
100
AcDbSymbolTableRecord
100
AcDbBlockTableRecord
  2
A4
  0
BLOCK_RECORD
  5
636
330
1
100
AcDbSymbolTableRecord
100
AcDbBlockTableRecord
  2
_OPEN90
  0
BLOCK_RECORD
  5
63C
330
1
100
AcDbSymbolTableRecord
100
AcDbBlockTableRecord
  2
_OPEN30
  0
BLOCK_RECORD
  5
E90
330
1
100
AcDbSymbolTableRecord
100
AcDbBlockTableRecord
  2
*D4
  0
BLOCK_RECORD
  5
EEF
330
1
100
AcDbSymbolTableRecord
100
AcDbBlockTableRecord
  2
*D5
  0
BLOCK_RECORD
  5
EFE
330
1
100
AcDbSymbolTableRecord
100
AcDbBlockTableRecord
  2
*D6
  0
BLOCK_RECORD
  5
F0D
330
1
100
AcDbSymbolTableRecord
100
AcDbBlockTableRecord
  2
*D7
  0
BLOCK_RECORD
  5
F5E
330
1
100
AcDbSymbolTableRecord
100
AcDbBlockTableRecord
  2
*D8
  0
BLOCK_RECORD
  5
F6D
330
1
100
AcDbSymbolTableRecord
100
AcDbBlockTableRecord
  2
*D9
  0
BLOCK_RECORD
  5
F7C
330
1
100
AcDbSymbolTableRecord
100
AcDbBlockTableRecord
  2
*D10
  0
BLOCK_RECORD
  5
F8B
330
1
100
AcDbSymbolTableRecord
100
AcDbBlockTableRecord
  2
*D11
  0
BLOCK_RECORD
  5
F98
330
1
100
AcDbSymbolTableRecord
100
AcDbBlockTableRecord
  2
*D12
  0
BLOCK_RECORD
  5
FA7
330
1
100
AcDbSymbolTableRecord
100
AcDbBlockTableRecord
  2
*D13
  0
BLOCK_RECORD
  5
FB6
330
1
100
AcDbSymbolTableRecord
100
AcDbBlockTableRecord
  2
*D14
  0
BLOCK_RECORD
  5
FF1
330
1
100
AcDbSymbolTableRecord
100
AcDbBlockTableRecord
  2
*D15
  0
BLOCK_RECORD
  5
FFE
330
1
100
AcDbSymbolTableRecord
100
AcDbBlockTableRecord
  2
*D16
  0
BLOCK_RECORD
  5
100B
330
1
100
AcDbSymbolTableRecord
100
AcDbBlockTableRecord
  2
*D17
  0
BLOCK_RECORD
  5
106E
330
1
100
AcDbSymbolTableRecord
100
AcDbBlockTableRecord
  2
*D18
  0
BLOCK_RECORD
  5
108D
330
1
100
AcDbSymbolTableRecord
100
AcDbBlockTableRecord
  2
*D19
  0
BLOCK_RECORD
  5
10A1
330
1
100
AcDbSymbolTableRecord
100
AcDbBlockTableRecord
  2
*D20
  0
BLOCK_RECORD
  5
10CE
330
1
100
AcDbSymbolTableRecord
100
AcDbBlockTableRecord
  2
*D21
  0
BLOCK_RECORD
  5
10DD
330
1
100
AcDbSymbolTableRecord
100
AcDbBlockTableRecord
  2
*D22
  0
BLOCK_RECORD
  5
10EA
330
1
100
AcDbSymbolTableRecord
100
AcDbBlockTableRecord
  2
*D23
  0
BLOCK_RECORD
  5
10F7
330
1
100
AcDbSymbolTableRecord
100
AcDbBlockTableRecord
  2
*D24
  0
ENDTAB
  0
ENDSEC
  0
SECTION
  2
BLOCKS
  0
BLOCK
  5
20
330
1F
100
AcDbEntity
  8
0
100
AcDbBlockBegin
  2
*MODEL_SPACE
 70
     0
 10
0.0
 20
0.0
 30
0.0
  3
*MODEL_SPACE
  1

  0
ENDBLK
  5
21
330
1F
100
AcDbEntity
  8
0
100
AcDbBlockEnd
  0
BLOCK
  5
1C
330
1B
100
AcDbEntity
 67
     1
  8
0
100
AcDbBlockBegin
  2
*PAPER_SPACE
 70
     0
 10
0.0
 20
0.0
 30
0.0
  3
*PAPER_SPACE
  1

  0
ENDBLK
  5
1D
330
1B
100
AcDbEntity
 67
     1
  8
0
100
AcDbBlockEnd
  0
BLOCK
  5
195
330
192
100
AcDbEntity
  8
0
100
AcDbBlockBegin
  2
_DOT
 70
     0
 10
0.0
 20
0.0
 30
0.0
  3
_DOT
  1

  0
POLYLINE
  5
193
330
192
100
AcDbEntity
  8
0
 62
     0
100
AcDb2dPolyline
 66
     1
 10
0.0
 20
0.0
 30
0.0
 70
     1
 40
0.5
 41
0.5
  0
VERTEX
  5
1610
330
193
100
AcDbEntity
  8
0
 62
     0
100
AcDbVertex
100
AcDb2dVertex
 10
-0.25
 20
0.0
 30
0.0
 42
1.0
  0
VERTEX
  5
1611
330
193
100
AcDbEntity
  8
0
 62
     0
100
AcDbVertex
100
AcDb2dVertex
 10
0.25
 20
0.0
 30
0.0
 42
1.0
  0
SEQEND
  5
1612
330
193
100
AcDbEntity
  8
0
 62
     0
  0
LINE
  5
194
330
192
100
AcDbEntity
  8
0
 62
     0
100
AcDbLine
 10
-0.5
 20
0.0
 30
0.0
 11
-1.0
 21
0.0
 31
0.0
  0
ENDBLK
  5
196
330
192
100
AcDbEntity
  8
0
100
AcDbBlockEnd
  0
BLOCK
  5
5D1
330
5CE
100
AcDbEntity
  8
0
100
AcDbBlockBegin
  2
A4
 70
     0
 10
0.0
 20
0.0
 30
0.0
  3
A4
  1

  0
POLYLINE
  5
5CF
330
5CE
100
AcDbEntity
  8
HOJO
100
AcDb2dPolyline
 66
     1
 10
0.0
 20
0.0
 30
0.0
 70
     1
  0
VERTEX
  5
1613
330
5CF
100
AcDbEntity
  8
HOJO
100
AcDbVertex
100
AcDb2dVertex
 10
0.0
 20
0.0
 30
0.0
  0
VERTEX
  5
1614
330
5CF
100
AcDbEntity
  8
HOJO
100
AcDbVertex
100
AcDb2dVertex
 10
297.0
 20
0.0
 30
0.0
  0
VERTEX
  5
1615
330
5CF
100
AcDbEntity
  8
HOJO
100
AcDbVertex
100
AcDb2dVertex
 10
297.0
 20
210.0
 30
0.0
  0
VERTEX
  5
1616
330
5CF
100
AcDbEntity
  8
HOJO
100
AcDbVertex
100
AcDb2dVertex
 10
0.0
 20
210.0
 30
0.0
  0
SEQEND
  5
1617
330
5CF
100
AcDbEntity
  8
HOJO
  0
POLYLINE
  5
5D0
330
5CE
100
AcDbEntity
  8
HOJO
100
AcDb2dPolyline
 66
     1
 10
0.0
 20
0.0
 30
0.0
 70
     1
  0
VERTEX
  5
1618
330
5D0
100
AcDbEntity
  8
HOJO
100
AcDbVertex
100
AcDb2dVertex
 10
18.0
 20
13.0
 30
0.0
  0
VERTEX
  5
1619
330
5D0
100
AcDbEntity
  8
HOJO
100
AcDbVertex
100
AcDb2dVertex
 10
279.0
 20
13.0
 30
0.0
  0
VERTEX
  5
161A
330
5D0
100
AcDbEntity
  8
HOJO
100
AcDbVertex
100
AcDb2dVertex
 10
279.0
 20
197.0
 30
0.0
  0
VERTEX
  5
161B
330
5D0
100
AcDbEntity
  8
HOJO
100
AcDbVertex
100
AcDb2dVertex
 10
18.0
 20
197.0
 30
0.0
  0
SEQEND
  5
161C
330
5D0
100
AcDbEntity
  8
HOJO
  0
ENDBLK
  5
5D2
330
5CE
100
AcDbEntity
  8
0
100
AcDbBlockEnd
  0
BLOCK
  5
63A
330
636
100
AcDbEntity
  8
0
100
AcDbBlockBegin
  2
_OPEN90
 70
     0
 10
0.0
 20
0.0
 30
0.0
  3
_OPEN90
  1

  0
LINE
  5
637
330
636
100
AcDbEntity
  8
SUNPO
 62
     0
100
AcDbLine
 10
-0.5
 20
0.5
 30
0.0
 11
0.0
 21
0.0
 31
0.0
  0
LINE
  5
638
330
636
100
AcDbEntity
  8
SUNPO
 62
     0
100
AcDbLine
 10
0.0
 20
0.0
 30
0.0
 11
-0.5
 21
-0.5
 31
0.0
  0
LINE
  5
639
330
636
100
AcDbEntity
  8
SUNPO
 62
     0
100
AcDbLine
 10
0.0
 20
0.0
 30
0.0
 11
-1.0
 21
0.0
 31
0.0
  0
ENDBLK
  5
63B
330
636
100
AcDbEntity
  8
0
100
AcDbBlockEnd
  0
BLOCK
  5
640
330
63C
100
AcDbEntity
  8
0
100
AcDbBlockBegin
  2
_OPEN30
 70
     0
 10
0.0
 20
0.0
 30
0.0
  3
_OPEN30
  1

  0
LINE
  5
63D
330
63C
100
AcDbEntity
  8
SUNPO
 62
     0
100
AcDbLine
 10
-1.0
 20
0.26794919
 30
0.0
 11
0.0
 21
0.0
 31
0.0
  0
LINE
  5
63E
330
63C
100
AcDbEntity
  8
SUNPO
 62
     0
100
AcDbLine
 10
0.0
 20
0.0
 30
0.0
 11
-1.0
 21
-0.26794919
 31
0.0
  0
LINE
  5
63F
330
63C
100
AcDbEntity
  8
SUNPO
 62
     0
100
AcDbLine
 10
0.0
 20
0.0
 30
0.0
 11
-1.0
 21
0.0
 31
0.0
  0
ENDBLK
  5
641
330
63C
100
AcDbEntity
  8
0
100
AcDbBlockEnd
  0
BLOCK
  5
E9A
330
E90
100
AcDbEntity
  8
0
100
AcDbBlockBegin
  2
*D4
 70
     1
 10
0.0
 20
0.0
 30
0.0
  3
*D4
  1

  0
LINE
  5
149A
330
E90
100
AcDbEntity
  8
SUNPO
 62
   144
100
AcDbLine
 10
1733.851014127787
 20
2853.515747133855
 30
0.0
 11
1733.851014127787
 21
3359.8932986298
 31
0.0
  0
LINE
  5
149B
330
E90
100
AcDbEntity
  8
SUNPO
 62
   144
100
AcDbLine
 10
1913.851014127787
 20
2853.515747133855
 30
0.0
 11
1913.851014127787
 21
3359.8932986298
 31
0.0
  0
LINE
  5
149C
330
E90
100
AcDbEntity
  8
SUNPO
 62
   144
100
AcDbLine
 10
1777.851014127787
 20
3349.893298629801
 30
0.0
 11
1869.851014127787
 21
3349.893298629801
 31
0.0
  0
SOLID
  5
149D
330
E90
100
AcDbEntity
  8
SUNPO
 62
   144
100
AcDbTrace
 10
1777.851014127787
 20
3357.226631963134
 30
0.0
 11
1777.851014127787
 21
3342.559965296467
 31
0.0
 12
1733.851014127787
 22
3349.893298629801
 32
0.0
 13
1733.851014127787
 23
3349.893298629801
 33
0.0
  0
SOLID
  5
149E
330
E90
100
AcDbEntity
  8
SUNPO
 62
   144
100
AcDbTrace
 10
1869.851014127787
 20
3357.226631963134
 30
0.0
 11
1869.851014127787
 21
3342.559965296467
 31
0.0
 12
1913.851014127787
 22
3349.893298629801
 32
0.0
 13
1913.851014127787
 23
3349.893298629801
 33
0.0
  0
MTEXT
  5
149F
330
E90
100
AcDbEntity
  8
SUNPO
 62
     7
100
AcDbMText
 10
1823.851014127787
 20
3387.393298629801
 30
0.0
 40
50.0
 41
0.0
 71
     5
 72
     1
  1
\A2;180
  7
ADD
1001
ACAD
1000
MTEXTBEGIN
1070
    73
1070
     1
1070
    44
1040
1.0
1070
    74
1070
     0
1000
MTEXTEND
1000
MTEXTBEGIN
1070
    73
1070
     1
1070
    44
1040
1.0
1070
    74
1070
     0
1000
MTEXTEND
  0
POINT
  5
14A0
330
E90
100
AcDbEntity
  8
DEFPOINTS
 62
     0
100
AcDbPoint
 10
1733.851014127787
 20
2833.515747133855
 30
0.0
  0
POINT
  5
14A1
330
E90
100
AcDbEntity
  8
DEFPOINTS
 62
     0
100
AcDbPoint
 10
1913.851014127787
 20
2833.515747133855
 30
0.0
  0
POINT
  5
14A2
330
E90
100
AcDbEntity
  8
DEFPOINTS
 62
     0
100
AcDbPoint
 10
1913.851014127787
 20
3349.893298629801
 30
0.0
  0
ENDBLK
  5
E9B
330
E90
100
AcDbEntity
  8
0
100
AcDbBlockEnd
  0
BLOCK
  5
EFB
330
EEF
100
AcDbEntity
  8
0
100
AcDbBlockBegin
  2
*D5
 70
     1
 10
0.0
 20
0.0
 30
0.0
  3
*D5
  1

  0
LINE
  5
148F
330
EEF
100
AcDbEntity
  8
SUNPO
 62
   144
100
AcDbLine
 10
1733.851014127787
 20
2853.515747133855
 30
0.0
 11
1733.851014127787
 21
3139.652534205696
 31
0.0
  0
LINE
  5
1490
330
EEF
100
AcDbEntity
  8
SUNPO
 62
   144
100
AcDbLine
 10
1783.851014127787
 20
2853.515747133855
 30
0.0
 11
1783.851014127787
 21
3139.652534205696
 31
0.0
  0
LINE
  5
1491
330
EEF
100
AcDbEntity
  8
SUNPO
 62
   144
100
AcDbLine
 10
1827.851014127787
 20
3129.652534205695
 30
0.0
 11
1871.851014127787
 21
3129.652534205695
 31
0.0
  0
LINE
  5
1492
330
EEF
100
AcDbEntity
  8
SUNPO
 62
   144
100
AcDbLine
 10
1689.851014127787
 20
3129.652534205695
 30
0.0
 11
1645.851014127787
 21
3129.652534205695
 31
0.0
  0
MTEXT
  5
1493
330
EEF
100
AcDbEntity
  8
SUNPO
 62
     7
100
AcDbMText
 10
1678.816808513471
 20
3166.06195020692
 30
0.0
 40
50.0
 41
0.0
 71
     5
 72
     1
  1
\A2;50
  7
ADD
1001
ACAD
1000
MTEXTBEGIN
1070
    73
1070
     1
1070
    44
1040
1.0
1070
    74
1070
     0
1000
MTEXTEND
1000
MTEXTBEGIN
1070
    73
1070
     1
1070
    44
1040
1.0
1070
    74
1070
     0
1000
MTEXTEND
  0
LINE
  5
1494
330
EEF
100
AcDbEntity
  8
SUNPO
 62
   144
100
AcDbLine
 10
1783.851014127787
 20
3129.652534205695
 30
0.0
 11
1733.851014127787
 21
3129.652534205695
 31
0.0
  0
SOLID
  5
1495
330
EEF
100
AcDbEntity
  8
SUNPO
 62
   144
100
AcDbTrace
 10
1827.851014127787
 20
3136.985867539029
 30
0.0
 11
1827.851014127787
 21
3122.319200872362
 31
0.0
 12
1783.851014127787
 22
3129.652534205695
 32
0.0
 13
1783.851014127787
 23
3129.652534205695
 33
0.0
  0
SOLID
  5
1496
330
EEF
100
AcDbEntity
  8
SUNPO
 62
   144
100
AcDbTrace
 10
1689.851014127787
 20
3136.985867539029
 30
0.0
 11
1689.851014127787
 21
3122.319200872362
 31
0.0
 12
1733.851014127787
 22
3129.652534205695
 32
0.0
 13
1733.851014127787
 23
3129.652534205695
 33
0.0
  0
POINT
  5
1497
330
EEF
100
AcDbEntity
  8
DEFPOINTS
 62
     0
100
AcDbPoint
 10
1733.851014127787
 20
2833.515747133855
 30
0.0
  0
POINT
  5
1498
330
EEF
100
AcDbEntity
  8
DEFPOINTS
 62
     0
100
AcDbPoint
 10
1783.851014127787
 20
2833.515747133855
 30
0.0
  0
POINT
  5
1499
330
EEF
100
AcDbEntity
  8
DEFPOINTS
 62
     0
100
AcDbPoint
 10
1783.851014127787
 20
3129.652534205695
 30
0.0
  0
ENDBLK
  5
EFC
330
EEF
100
AcDbEntity
  8
0
100
AcDbBlockEnd
  0
BLOCK
  5
F0A
330
EFE
100
AcDbEntity
  8
0
100
AcDbBlockBegin
  2
*D6
 70
     1
 10
0.0
 20
0.0
 30
0.0
  3
*D6
  1

  0
LINE
  5
1484
330
EFE
100
AcDbEntity
  8
SUNPO
 62
   144
100
AcDbLine
 10
1913.851014127787
 20
2853.515747133855
 30
0.0
 11
1913.851014127787
 21
3139.652534205696
 31
0.0
  0
LINE
  5
1485
330
EFE
100
AcDbEntity
  8
SUNPO
 62
   144
100
AcDbLine
 10
1863.851014127787
 20
2853.515747133855
 30
0.0
 11
1863.851014127787
 21
3139.652534205696
 31
0.0
  0
LINE
  5
1486
330
EFE
100
AcDbEntity
  8
SUNPO
 62
   144
100
AcDbLine
 10
1957.851014127787
 20
3129.652534205695
 30
0.0
 11
2001.851014127787
 21
3129.652534205695
 31
0.0
  0
LINE
  5
1487
330
EFE
100
AcDbEntity
  8
SUNPO
 62
   144
100
AcDbLine
 10
1819.851014127787
 20
3129.652534205695
 30
0.0
 11
1775.851014127787
 21
3129.652534205695
 31
0.0
  0
MTEXT
  5
1488
330
EFE
100
AcDbEntity
  8
SUNPO
 62
     7
100
AcDbMText
 10
1961.247550093179
 20
3165.111431258289
 30
0.0
 40
50.0
 41
0.0
 71
     5
 72
     1
  1
\A2;50
  7
ADD
1001
ACAD
1000
MTEXTBEGIN
1070
    73
1070
     1
1070
    44
1040
1.0
1070
    74
1070
     0
1000
MTEXTEND
1000
MTEXTBEGIN
1070
    73
1070
     1
1070
    44
1040
1.0
1070
    74
1070
     0
1000
MTEXTEND
  0
LINE
  5
1489
330
EFE
100
AcDbEntity
  8
SUNPO
 62
   144
100
AcDbLine
 10
1913.851014127787
 20
3129.652534205695
 30
0.0
 11
1863.851014127787
 21
3129.652534205695
 31
0.0
  0
SOLID
  5
148A
330
EFE
100
AcDbEntity
  8
SUNPO
 62
   144
100
AcDbTrace
 10
1957.851014127787
 20
3136.985867539029
 30
0.0
 11
1957.851014127787
 21
3122.319200872362
 31
0.0
 12
1913.851014127787
 22
3129.652534205695
 32
0.0
 13
1913.851014127787
 23
3129.652534205695
 33
0.0
  0
SOLID
  5
148B
330
EFE
100
AcDbEntity
  8
SUNPO
 62
   144
100
AcDbTrace
 10
1819.851014127787
 20
3136.985867539029
 30
0.0
 11
1819.851014127787
 21
3122.319200872362
 31
0.0
 12
1863.851014127787
 22
3129.652534205695
 32
0.0
 13
1863.851014127787
 23
3129.652534205695
 33
0.0
  0
POINT
  5
148C
330
EFE
100
AcDbEntity
  8
DEFPOINTS
 62
     0
100
AcDbPoint
 10
1913.851014127787
 20
2833.515747133855
 30
0.0
  0
POINT
  5
148D
330
EFE
100
AcDbEntity
  8
DEFPOINTS
 62
     0
100
AcDbPoint
 10
1863.851014127787
 20
2833.515747133855
 30
0.0
  0
POINT
  5
148E
330
EFE
100
AcDbEntity
  8
DEFPOINTS
 62
     0
100
AcDbPoint
 10
1863.851014127787
 20
3129.652534205695
 30
0.0
  0
ENDBLK
  5
F0B
330
EFE
100
AcDbEntity
  8
0
100
AcDbBlockEnd
  0
BLOCK
  5
F19
330
F0D
100
AcDbEntity
  8
0
100
AcDbBlockBegin
  2
*D7
 70
     1
 10
0.0
 20
0.0
 30
0.0
  3
*D7
  1

  0
LINE
  5
1479
330
F0D
100
AcDbEntity
  8
SUNPO
 62
   144
100
AcDbLine
 10
1788.851014127787
 20
2853.515747133855
 30
0.0
 11
1788.851014127787
 21
3139.652534205696
 31
0.0
  0
LINE
  5
147A
330
F0D
100
AcDbEntity
  8
SUNPO
 62
   144
100
AcDbLine
 10
1858.851014127787
 20
2853.515747133855
 30
0.0
 11
1858.851014127787
 21
3139.652534205696
 31
0.0
  0
LINE
  5
147B
330
F0D
100
AcDbEntity
  8
SUNPO
 62
   144
100
AcDbLine
 10
1744.851014127787
 20
3129.652534205695
 30
0.0
 11
1700.851014127787
 21
3129.652534205695
 31
0.0
  0
LINE
  5
147C
330
F0D
100
AcDbEntity
  8
SUNPO
 62
   144
100
AcDbLine
 10
1902.851014127787
 20
3129.652534205695
 30
0.0
 11
1946.851014127787
 21
3129.652534205695
 31
0.0
  0
MTEXT
  5
147D
330
F0D
100
AcDbEntity
  8
SUNPO
 62
     7
100
AcDbMText
 10
1823.851014127787
 20
3167.152534205695
 30
0.0
 40
50.0
 41
0.0
 71
     5
 72
     1
  1
\A2;70
  7
ADD
1001
ACAD
1000
MTEXTBEGIN
1070
    73
1070
     1
1070
    44
1040
1.0
1070
    74
1070
     0
1000
MTEXTEND
1000
MTEXTBEGIN
1070
    73
1070
     1
1070
    44
1040
1.0
1070
    74
1070
     0
1000
MTEXTEND
  0
LINE
  5
147E
330
F0D
100
AcDbEntity
  8
SUNPO
 62
   144
100
AcDbLine
 10
1788.851014127787
 20
3129.652534205695
 30
0.0
 11
1858.851014127787
 21
3129.652534205695
 31
0.0
  0
SOLID
  5
147F
330
F0D
100
AcDbEntity
  8
SUNPO
 62
   144
100
AcDbTrace
 10
1744.851014127787
 20
3136.985867539029
 30
0.0
 11
1744.851014127787
 21
3122.319200872362
 31
0.0
 12
1788.851014127787
 22
3129.652534205695
 32
0.0
 13
1788.851014127787
 23
3129.652534205695
 33
0.0
  0
SOLID
  5
1480
330
F0D
100
AcDbEntity
  8
SUNPO
 62
   144
100
AcDbTrace
 10
1902.851014127787
 20
3136.985867539029
 30
0.0
 11
1902.851014127787
 21
3122.319200872362
 31
0.0
 12
1858.851014127787
 22
3129.652534205695
 32
0.0
 13
1858.851014127787
 23
3129.652534205695
 33
0.0
  0
POINT
  5
1481
330
F0D
100
AcDbEntity
  8
DEFPOINTS
 62
     0
100
AcDbPoint
 10
1788.851014127787
 20
2833.515747133855
 30
0.0
  0
POINT
  5
1482
330
F0D
100
AcDbEntity
  8
DEFPOINTS
 62
     0
100
AcDbPoint
 10
1858.851014127787
 20
2833.515747133855
 30
0.0
  0
POINT
  5
1483
330
F0D
100
AcDbEntity
  8
DEFPOINTS
 62
     0
100
AcDbPoint
 10
1858.851014127787
 20
3129.652534205695
 30
0.0
  0
ENDBLK
  5
F1A
330
F0D
100
AcDbEntity
  8
0
100
AcDbBlockEnd
  0
BLOCK
  5
F6A
330
F5E
100
AcDbEntity
  8
0
100
AcDbBlockBegin
  2
*D8
 70
     1
 10
0.0
 20
0.0
 30
0.0
  3
*D8
  1

  0
LINE
  5
146E
330
F5E
100
AcDbEntity
  8
SUNPO
 62
   144
100
AcDbLine
 10
1783.851014127787
 20
2853.515747133855
 30
0.0
 11
1783.851014127787
 21
3006.584140669775
 31
0.0
  0
LINE
  5
146F
330
F5E
100
AcDbEntity
  8
SUNPO
 62
   144
100
AcDbLine
 10
1788.851014127787
 20
2853.515747133855
 30
0.0
 11
1788.851014127787
 21
3006.584140669775
 31
0.0
  0
LINE
  5
1470
330
F5E
100
AcDbEntity
  8
SUNPO
 62
   144
100
AcDbLine
 10
1739.851014127787
 20
2996.584140669775
 30
0.0
 11
1695.851014127787
 21
2996.584140669775
 31
0.0
  0
LINE
  5
1471
330
F5E
100
AcDbEntity
  8
SUNPO
 62
   144
100
AcDbLine
 10
1832.851014127787
 20
2996.584140669775
 30
0.0
 11
1876.851014127787
 21
2996.584140669775
 31
0.0
  0
LINE
  5
1472
330
F5E
100
AcDbEntity
  8
SUNPO
 62
   144
100
AcDbLine
 10
1783.851014127787
 20
2996.584140669775
 30
0.0
 11
1788.851014127787
 21
2996.584140669775
 31
0.0
  0
SOLID
  5
1473
330
F5E
100
AcDbEntity
  8
SUNPO
 62
   144
100
AcDbTrace
 10
1739.851014127787
 20
3003.917474003109
 30
0.0
 11
1739.851014127787
 21
2989.250807336442
 31
0.0
 12
1783.851014127787
 22
2996.584140669775
 32
0.0
 13
1783.851014127787
 23
2996.584140669775
 33
0.0
  0
SOLID
  5
1474
330
F5E
100
AcDbEntity
  8
SUNPO
 62
   144
100
AcDbTrace
 10
1832.851014127787
 20
3003.917474003109
 30
0.0
 11
1832.851014127787
 21
2989.250807336442
 31
0.0
 12
1788.851014127787
 22
2996.584140669775
 32
0.0
 13
1788.851014127787
 23
2996.584140669775
 33
0.0
  0
MTEXT
  5
1475
330
F5E
100
AcDbEntity
  8
SUNPO
 62
     7
100
AcDbMText
 10
1786.351014127787
 20
3034.084140669775
 30
0.0
 40
50.0
 41
0.0
 71
     5
 72
     1
  1
\A2;5
  7
ADD
1001
ACAD
1000
MTEXTBEGIN
1070
    73
1070
     1
1070
    44
1040
1.0
1070
    74
1070
     0
1000
MTEXTEND
1000
MTEXTBEGIN
1070
    73
1070
     1
1070
    44
1040
1.0
1070
    74
1070
     0
1000
MTEXTEND
  0
POINT
  5
1476
330
F5E
100
AcDbEntity
  8
DEFPOINTS
 62
     0
100
AcDbPoint
 10
1783.851014127787
 20
2833.515747133855
 30
0.0
  0
POINT
  5
1477
330
F5E
100
AcDbEntity
  8
DEFPOINTS
 62
     0
100
AcDbPoint
 10
1788.851014127787
 20
2833.515747133855
 30
0.0
  0
POINT
  5
1478
330
F5E
100
AcDbEntity
  8
DEFPOINTS
 62
     0
100
AcDbPoint
 10
1788.851014127787
 20
2996.584140669775
 30
0.0
  0
ENDBLK
  5
F6B
330
F5E
100
AcDbEntity
  8
0
100
AcDbBlockEnd
  0
BLOCK
  5
F79
330
F6D
100
AcDbEntity
  8
0
100
AcDbBlockBegin
  2
*D9
 70
     1
 10
0.0
 20
0.0
 30
0.0
  3
*D9
  1

  0
LINE
  5
1463
330
F6D
100
AcDbEntity
  8
SUNPO
 62
   144
100
AcDbLine
 10
1858.851014127787
 20
2853.515747133855
 30
0.0
 11
1858.851014127787
 21
3006.584140669775
 31
0.0
  0
LINE
  5
1464
330
F6D
100
AcDbEntity
  8
SUNPO
 62
   144
100
AcDbLine
 10
1863.851014127787
 20
2853.515747133855
 30
0.0
 11
1863.851014127787
 21
3006.584140669775
 31
0.0
  0
LINE
  5
1465
330
F6D
100
AcDbEntity
  8
SUNPO
 62
   144
100
AcDbLine
 10
1814.851014127787
 20
2996.584140669775
 30
0.0
 11
1770.851014127787
 21
2996.584140669775
 31
0.0
  0
LINE
  5
1466
330
F6D
100
AcDbEntity
  8
SUNPO
 62
   144
100
AcDbLine
 10
1907.851014127787
 20
2996.584140669775
 30
0.0
 11
1951.851014127787
 21
2996.584140669775
 31
0.0
  0
LINE
  5
1467
330
F6D
100
AcDbEntity
  8
SUNPO
 62
   144
100
AcDbLine
 10
1858.851014127787
 20
2996.584140669775
 30
0.0
 11
1863.851014127787
 21
2996.584140669775
 31
0.0
  0
SOLID
  5
1468
330
F6D
100
AcDbEntity
  8
SUNPO
 62
   144
100
AcDbTrace
 10
1814.851014127787
 20
3003.917474003109
 30
0.0
 11
1814.851014127787
 21
2989.250807336442
 31
0.0
 12
1858.851014127787
 22
2996.584140669775
 32
0.0
 13
1858.851014127787
 23
2996.584140669775
 33
0.0
  0
SOLID
  5
1469
330
F6D
100
AcDbEntity
  8
SUNPO
 62
   144
100
AcDbTrace
 10
1907.851014127787
 20
3003.917474003109
 30
0.0
 11
1907.851014127787
 21
2989.250807336442
 31
0.0
 12
1863.851014127787
 22
2996.584140669775
 32
0.0
 13
1863.851014127787
 23
2996.584140669775
 33
0.0
  0
MTEXT
  5
146A
330
F6D
100
AcDbEntity
  8
SUNPO
 62
     7
100
AcDbMText
 10
1861.351014127787
 20
3034.084140669775
 30
0.0
 40
50.0
 41
0.0
 71
     5
 72
     1
  1
\A2;5
  7
ADD
1001
ACAD
1000
MTEXTBEGIN
1070
    73
1070
     1
1070
    44
1040
1.0
1070
    74
1070
     0
1000
MTEXTEND
1000
MTEXTBEGIN
1070
    73
1070
     1
1070
    44
1040
1.0
1070
    74
1070
     0
1000
MTEXTEND
  0
POINT
  5
146B
330
F6D
100
AcDbEntity
  8
DEFPOINTS
 62
     0
100
AcDbPoint
 10
1858.851014127787
 20
2833.515747133855
 30
0.0
  0
POINT
  5
146C
330
F6D
100
AcDbEntity
  8
DEFPOINTS
 62
     0
100
AcDbPoint
 10
1863.851014127787
 20
2833.515747133855
 30
0.0
  0
POINT
  5
146D
330
F6D
100
AcDbEntity
  8
DEFPOINTS
 62
     0
100
AcDbPoint
 10
1863.851014127787
 20
2996.584140669775
 30
0.0
  0
ENDBLK
  5
F7A
330
F6D
100
AcDbEntity
  8
0
100
AcDbBlockEnd
  0
BLOCK
  5
F88
330
F7C
100
AcDbEntity
  8
0
100
AcDbBlockBegin
  2
*D10
 70
     1
 10
0.0
 20
0.0
 30
0.0
  3
*D10
  1

  0
LINE
  5
14C1
330
F7C
100
AcDbEntity
  8
SUNPO
 62
   144
100
AcDbLine
 10
2413.851014127788
 20
2853.515747133855
 30
0.0
 11
2413.851014127788
 21
3139.652534205696
 31
0.0
  0
LINE
  5
14C2
330
F7C
100
AcDbEntity
  8
SUNPO
 62
   144
100
AcDbLine
 10
2523.851014127787
 20
2853.515747133855
 30
0.0
 11
2523.851014127787
 21
3139.652534205696
 31
0.0
  0
LINE
  5
14C3
330
F7C
100
AcDbEntity
  8
SUNPO
 62
   144
100
AcDbLine
 10
2443.851014127787
 20
3129.652534205695
 30
0.0
 11
2493.851014127787
 21
3129.652534205695
 31
0.0
  0
MTEXT
  5
14C4
330
F7C
100
AcDbEntity
  8
SUNPO
 62
     7
100
AcDbMText
 10
2468.851014127787
 20
3167.152534205695
 30
0.0
 40
50.0
 41
0.0
 71
     5
 72
     1
  1
\A2;110
  7
ADD
1001
ACAD
1000
MTEXTBEGIN
1070
    73
1070
     1
1070
    44
1040
1.0
1070
    74
1070
     0
1000
MTEXTEND
1000
MTEXTBEGIN
1070
    73
1070
     1
1070
    44
1040
1.0
1070
    74
1070
     0
1000
MTEXTEND
  0
SOLID
  5
14C5
330
F7C
100
AcDbEntity
  8
SUNPO
 62
   144
100
AcDbTrace
 10
2443.851014127787
 20
3134.652534205695
 30
0.0
 11
2443.851014127787
 21
3124.652534205695
 31
0.0
 12
2413.851014127788
 22
3129.652534205695
 32
0.0
 13
2413.851014127788
 23
3129.652534205695
 33
0.0
  0
SOLID
  5
14C6
330
F7C
100
AcDbEntity
  8
SUNPO
 62
   144
100
AcDbTrace
 10
2493.851014127787
 20
3134.652534205695
 30
0.0
 11
2493.851014127787
 21
3124.652534205695
 31
0.0
 12
2523.851014127787
 22
3129.652534205695
 32
0.0
 13
2523.851014127787
 23
3129.652534205695
 33
0.0
  0
POINT
  5
14C7
330
F7C
100
AcDbEntity
  8
DEFPOINTS
 62
     0
100
AcDbPoint
 10
2413.851014127788
 20
2833.515747133855
 30
0.0
  0
POINT
  5
14C8
330
F7C
100
AcDbEntity
  8
DEFPOINTS
 62
     0
100
AcDbPoint
 10
2523.851014127787
 20
2833.515747133855
 30
0.0
  0
POINT
  5
14C9
330
F7C
100
AcDbEntity
  8
DEFPOINTS
 62
     0
100
AcDbPoint
 10
2523.851014127787
 20
3129.652534205695
 30
0.0
  0
ENDBLK
  5
F89
330
F7C
100
AcDbEntity
  8
0
100
AcDbBlockEnd
  0
BLOCK
  5
F95
330
F8B
100
AcDbEntity
  8
0
100
AcDbBlockBegin
  2
*D11
 70
     1
 10
0.0
 20
0.0
 30
0.0
  3
*D11
  1

  0
LINE
  5
144F
330
F8B
100
AcDbEntity
  8
SUNPO
 62
   144
100
AcDbLine
 10
2523.851014127787
 20
2853.515747133855
 30
0.0
 11
2523.851014127787
 21
3139.652534205696
 31
0.0
  0
LINE
  5
1450
330
F8B
100
AcDbEntity
  8
SUNPO
 62
   144
100
AcDbLine
 10
4323.851014127788
 20
2853.515747133855
 30
0.0
 11
4323.851014127788
 21
3139.652534205696
 31
0.0
  0
LINE
  5
1451
330
F8B
100
AcDbEntity
  8
SUNPO
 62
   144
100
AcDbLine
 10
2567.851014127787
 20
3129.652534205695
 30
0.0
 11
4279.851014127787
 21
3129.652534205695
 31
0.0
  0
SOLID
  5
1452
330
F8B
100
AcDbEntity
  8
SUNPO
 62
   144
100
AcDbTrace
 10
2567.851014127787
 20
3136.985867539029
 30
0.0
 11
2567.851014127787
 21
3122.319200872362
 31
0.0
 12
2523.851014127787
 22
3129.652534205695
 32
0.0
 13
2523.851014127787
 23
3129.652534205695
 33
0.0
  0
SOLID
  5
1453
330
F8B
100
AcDbEntity
  8
SUNPO
 62
   144
100
AcDbTrace
 10
4279.851014127787
 20
3136.985867539029
 30
0.0
 11
4279.851014127787
 21
3122.319200872362
 31
0.0
 12
4323.851014127788
 22
3129.652534205695
 32
0.0
 13
4323.851014127788
 23
3129.652534205695
 33
0.0
  0
MTEXT
  5
1454
330
F8B
100
AcDbEntity
  8
SUNPO
 62
     7
100
AcDbMText
 10
3423.851014127787
 20
3167.152534205695
 30
0.0
 40
50.0
 41
0.0
 71
     5
 72
     1
  1
\A2;1800
  7
ADD
1001
ACAD
1000
MTEXTBEGIN
1070
    73
1070
     1
1070
    44
1040
1.0
1070
    74
1070
     0
1000
MTEXTEND
1000
MTEXTBEGIN
1070
    73
1070
     1
1070
    44
1040
1.0
1070
    74
1070
     0
1000
MTEXTEND
  0
POINT
  5
1455
330
F8B
100
AcDbEntity
  8
DEFPOINTS
 62
     0
100
AcDbPoint
 10
2523.851014127787
 20
2833.515747133855
 30
0.0
  0
POINT
  5
1456
330
F8B
100
AcDbEntity
  8
DEFPOINTS
 62
     0
100
AcDbPoint
 10
4323.851014127788
 20
2833.515747133855
 30
0.0
  0
POINT
  5
1457
330
F8B
100
AcDbEntity
  8
DEFPOINTS
 62
     0
100
AcDbPoint
 10
4323.851014127788
 20
3129.652534205695
 30
0.0
  0
ENDBLK
  5
F96
330
F8B
100
AcDbEntity
  8
0
100
AcDbBlockEnd
  0
BLOCK
  5
FA4
330
F98
100
AcDbEntity
  8
0
100
AcDbBlockBegin
  2
*D12
 70
     1
 10
0.0
 20
0.0
 30
0.0
  3
*D12
  1

  0
LINE
  5
14CA
330
F98
100
AcDbEntity
  8
SUNPO
 62
   144
100
AcDbLine
 10
4323.851014127788
 20
2853.515747133855
 30
0.0
 11
4323.851014127788
 21
3139.652534205696
 31
0.0
  0
LINE
  5
14CB
330
F98
100
AcDbEntity
  8
SUNPO
 62
   144
100
AcDbLine
 10
4433.851014127787
 20
2853.515747133855
 30
0.0
 11
4433.851014127787
 21
3139.652534205696
 31
0.0
  0
LINE
  5
14CC
330
F98
100
AcDbEntity
  8
SUNPO
 62
   144
100
AcDbLine
 10
4353.851014127787
 20
3129.652534205695
 30
0.0
 11
4403.851014127787
 21
3129.652534205695
 31
0.0
  0
MTEXT
  5
14CD
330
F98
100
AcDbEntity
  8
SUNPO
 62
     7
100
AcDbMText
 10
4378.851014127787
 20
3167.152534205695
 30
0.0
 40
50.0
 41
0.0
 71
     5
 72
     1
  1
\A2;110
  7
ADD
1001
ACAD
1000
MTEXTBEGIN
1070
    73
1070
     1
1070
    44
1040
1.0
1070
    74
1070
     0
1000
MTEXTEND
1000
MTEXTBEGIN
1070
    73
1070
     1
1070
    44
1040
1.0
1070
    74
1070
     0
1000
MTEXTEND
  0
SOLID
  5
14CE
330
F98
100
AcDbEntity
  8
SUNPO
 62
   144
100
AcDbTrace
 10
4353.851014127787
 20
3134.652534205695
 30
0.0
 11
4353.851014127787
 21
3124.652534205695
 31
0.0
 12
4323.851014127788
 22
3129.652534205695
 32
0.0
 13
4323.851014127788
 23
3129.652534205695
 33
0.0
  0
SOLID
  5
14CF
330
F98
100
AcDbEntity
  8
SUNPO
 62
   144
100
AcDbTrace
 10
4403.851014127787
 20
3134.652534205695
 30
0.0
 11
4403.851014127787
 21
3124.652534205695
 31
0.0
 12
4433.851014127787
 22
3129.652534205695
 32
0.0
 13
4433.851014127787
 23
3129.652534205695
 33
0.0
  0
POINT
  5
14D0
330
F98
100
AcDbEntity
  8
DEFPOINTS
 62
     0
100
AcDbPoint
 10
4323.851014127788
 20
2833.515747133855
 30
0.0
  0
POINT
  5
14D1
330
F98
100
AcDbEntity
  8
DEFPOINTS
 62
     0
100
AcDbPoint
 10
4433.851014127787
 20
2833.515747133855
 30
0.0
  0
POINT
  5
14D2
330
F98
100
AcDbEntity
  8
DEFPOINTS
 62
     0
100
AcDbPoint
 10
4433.851014127787
 20
3129.652534205695
 30
0.0
  0
ENDBLK
  5
FA5
330
F98
100
AcDbEntity
  8
0
100
AcDbBlockEnd
  0
BLOCK
  5
FB3
330
FA7
100
AcDbEntity
  8
0
100
AcDbBlockBegin
  2
*D13
 70
     1
 10
0.0
 20
0.0
 30
0.0
  3
*D13
  1

  0
LINE
  5
1439
330
FA7
100
AcDbEntity
  8
SUNPO
 62
   144
100
AcDbLine
 10
2463.910185739814
 20
2850.851710316612
 30
0.0
 11
2463.910185739814
 21
3006.584140669775
 31
0.0
  0
LINE
  5
143A
330
FA7
100
AcDbEntity
  8
SUNPO
 62
   144
100
AcDbLine
 10
2523.851014127787
 20
2853.515747133855
 30
0.0
 11
2523.851014127787
 21
3006.584140669775
 31
0.0
  0
LINE
  5
143B
330
FA7
100
AcDbEntity
  8
SUNPO
 62
   144
100
AcDbLine
 10
2419.910185739815
 20
2996.584140669775
 30
0.0
 11
2375.910185739815
 21
2996.584140669775
 31
0.0
  0
LINE
  5
143C
330
FA7
100
AcDbEntity
  8
SUNPO
 62
   144
100
AcDbLine
 10
2567.851014127787
 20
2996.584140669775
 30
0.0
 11
2611.851014127787
 21
2996.584140669775
 31
0.0
  0
MTEXT
  5
143D
330
FA7
100
AcDbEntity
  8
SUNPO
 62
     7
100
AcDbMText
 10
2493.880599933801
 20
3034.084140669775
 30
0.0
 40
50.0
 41
0.0
 71
     5
 72
     1
  1
\A2;60
  7
ADD
1001
ACAD
1000
MTEXTBEGIN
1070
    73
1070
     1
1070
    44
1040
1.0
1070
    74
1070
     0
1000
MTEXTEND
1000
MTEXTBEGIN
1070
    73
1070
     1
1070
    44
1040
1.0
1070
    74
1070
     0
1000
MTEXTEND
  0
LINE
  5
143E
330
FA7
100
AcDbEntity
  8
SUNPO
 62
   144
100
AcDbLine
 10
2463.910185739814
 20
2996.584140669775
 30
0.0
 11
2523.851014127787
 21
2996.584140669775
 31
0.0
  0
SOLID
  5
143F
330
FA7
100
AcDbEntity
  8
SUNPO
 62
   144
100
AcDbTrace
 10
2419.910185739815
 20
3003.917474003109
 30
0.0
 11
2419.910185739815
 21
2989.250807336442
 31
0.0
 12
2463.910185739814
 22
2996.584140669775
 32
0.0
 13
2463.910185739814
 23
2996.584140669775
 33
0.0
  0
SOLID
  5
1440
330
FA7
100
AcDbEntity
  8
SUNPO
 62
   144
100
AcDbTrace
 10
2567.851014127787
 20
3003.917474003109
 30
0.0
 11
2567.851014127787
 21
2989.250807336442
 31
0.0
 12
2523.851014127787
 22
2996.584140669775
 32
0.0
 13
2523.851014127787
 23
2996.584140669775
 33
0.0
  0
POINT
  5
1441
330
FA7
100
AcDbEntity
  8
DEFPOINTS
 62
     0
100
AcDbPoint
 10
2463.910185739814
 20
2830.851710316611
 30
0.0
  0
POINT
  5
1442
330
FA7
100
AcDbEntity
  8
DEFPOINTS
 62
     0
100
AcDbPoint
 10
2523.851014127787
 20
2833.515747133855
 30
0.0
  0
POINT
  5
1443
330
FA7
100
AcDbEntity
  8
DEFPOINTS
 62
     0
100
AcDbPoint
 10
2523.851014127787
 20
2996.584140669775
 30
0.0
  0
ENDBLK
  5
FB4
330
FA7
100
AcDbEntity
  8
0
100
AcDbBlockEnd
  0
BLOCK
  5
FC2
330
FB6
100
AcDbEntity
  8
0
100
AcDbBlockBegin
  2
*D14
 70
     1
 10
0.0
 20
0.0
 30
0.0
  3
*D14
  1

  0
LINE
  5
142E
330
FB6
100
AcDbEntity
  8
SUNPO
 62
   144
100
AcDbLine
 10
4323.851014127788
 20
2853.515747133855
 30
0.0
 11
4323.851014127788
 21
3006.584140669775
 31
0.0
  0
LINE
  5
142F
330
FB6
100
AcDbEntity
  8
SUNPO
 62
   144
100
AcDbLine
 10
4383.79184251576
 20
2850.851710316612
 30
0.0
 11
4383.79184251576
 21
3006.584140669775
 31
0.0
  0
LINE
  5
1430
330
FB6
100
AcDbEntity
  8
SUNPO
 62
   144
100
AcDbLine
 10
4279.851014127787
 20
2996.584140669775
 30
0.0
 11
4235.851014127788
 21
2996.584140669775
 31
0.0
  0
LINE
  5
1431
330
FB6
100
AcDbEntity
  8
SUNPO
 62
   144
100
AcDbLine
 10
4427.791842515761
 20
2996.584140669775
 30
0.0
 11
4471.79184251576
 21
2996.584140669775
 31
0.0
  0
LINE
  5
1432
330
FB6
100
AcDbEntity
  8
SUNPO
 62
   144
100
AcDbLine
 10
4323.851014127788
 20
2996.584140669775
 30
0.0
 11
4383.79184251576
 21
2996.584140669775
 31
0.0
  0
SOLID
  5
1433
330
FB6
100
AcDbEntity
  8
SUNPO
 62
   144
100
AcDbTrace
 10
4279.851014127787
 20
3003.917474003109
 30
0.0
 11
4279.851014127787
 21
2989.250807336442
 31
0.0
 12
4323.851014127788
 22
2996.584140669775
 32
0.0
 13
4323.851014127788
 23
2996.584140669775
 33
0.0
  0
SOLID
  5
1434
330
FB6
100
AcDbEntity
  8
SUNPO
 62
   144
100
AcDbTrace
 10
4427.791842515761
 20
3003.917474003109
 30
0.0
 11
4427.791842515761
 21
2989.250807336442
 31
0.0
 12
4383.79184251576
 22
2996.584140669775
 32
0.0
 13
4383.79184251576
 23
2996.584140669775
 33
0.0
  0
MTEXT
  5
1435
330
FB6
100
AcDbEntity
  8
SUNPO
 62
     7
100
AcDbMText
 10
4353.821428321774
 20
3034.084140669775
 30
0.0
 40
50.0
 41
0.0
 71
     5
 72
     1
  1
\A2;60
  7
ADD
1001
ACAD
1000
MTEXTBEGIN
1070
    73
1070
     1
1070
    44
1040
1.0
1070
    74
1070
     0
1000
MTEXTEND
1000
MTEXTBEGIN
1070
    73
1070
     1
1070
    44
1040
1.0
1070
    74
1070
     0
1000
MTEXTEND
  0
POINT
  5
1436
330
FB6
100
AcDbEntity
  8
DEFPOINTS
 62
     0
100
AcDbPoint
 10
4323.851014127788
 20
2833.515747133855
 30
0.0
  0
POINT
  5
1437
330
FB6
100
AcDbEntity
  8
DEFPOINTS
 62
     0
100
AcDbPoint
 10
4383.79184251576
 20
2830.851710316611
 30
0.0
  0
POINT
  5
1438
330
FB6
100
AcDbEntity
  8
DEFPOINTS
 62
     0
100
AcDbPoint
 10
4383.79184251576
 20
2996.584140669775
 30
0.0
  0
ENDBLK
  5
FC3
330
FB6
100
AcDbEntity
  8
0
100
AcDbBlockEnd
  0
BLOCK
  5
FFB
330
FF1
100
AcDbEntity
  8
0
100
AcDbBlockBegin
  2
*D15
 70
     1
 10
0.0
 20
0.0
 30
0.0
  3
*D15
  1

  0
LINE
  5
1425
330
FF1
100
AcDbEntity
  8
SUNPO
 62
   144
100
AcDbLine
 10
2393.851014127787
 20
2833.515747133855
 30
0.0
 11
2080.395839392869
 21
2833.515747133855
 31
0.0
  0
LINE
  5
1426
330
FF1
100
AcDbEntity
  8
SUNPO
 62
   144
100
AcDbLine
 10
2393.851014127787
 20
1783.515747133855
 30
0.0
 11
2080.395839392869
 21
1783.515747133855
 31
0.0
  0
LINE
  5
1427
330
FF1
100
AcDbEntity
  8
SUNPO
 62
   144
100
AcDbLine
 10
2090.395839392869
 20
2789.515747133855
 30
0.0
 11
2090.395839392869
 21
1827.515747133855
 31
0.0
  0
SOLID
  5
1428
330
FF1
100
AcDbEntity
  8
SUNPO
 62
   144
100
AcDbTrace
 10
2083.062506059536
 20
2789.515747133855
 30
0.0
 11
2097.729172726203
 21
2789.515747133855
 31
0.0
 12
2090.395839392869
 22
2833.515747133855
 32
0.0
 13
2090.395839392869
 23
2833.515747133855
 33
0.0
  0
SOLID
  5
1429
330
FF1
100
AcDbEntity
  8
SUNPO
 62
   144
100
AcDbTrace
 10
2083.062506059536
 20
1827.515747133855
 30
0.0
 11
2097.729172726203
 21
1827.515747133855
 31
0.0
 12
2090.395839392869
 22
1783.515747133855
 32
0.0
 13
2090.395839392869
 23
1783.515747133855
 33
0.0
  0
MTEXT
  5
142A
330
FF1
100
AcDbEntity
  8
SUNPO
 62
     7
100
AcDbMText
 10
2052.895839392869
 20
2308.515747133855
 30
0.0
 40
50.0
 41
0.0
 71
     5
 72
     1
  1
\A2;1050
  7
ADD
 11
0.0000000000000001
 21
1.0
 31
0.0
1001
ACAD
1000
MTEXTBEGIN
1070
    73
1070
     1
1070
    44
1040
1.0
1070
    74
1070
     0
1000
MTEXTEND
1000
MTEXTBEGIN
1070
    73
1070
     1
1070
    44
1040
1.0
1070
    74
1070
     0
1000
MTEXTEND
  0
POINT
  5
142B
330
FF1
100
AcDbEntity
  8
DEFPOINTS
 62
     0
100
AcDbPoint
 10
2413.851014127788
 20
2833.515747133855
 30
0.0
  0
POINT
  5
142C
330
FF1
100
AcDbEntity
  8
DEFPOINTS
 62
     0
100
AcDbPoint
 10
2413.851014127788
 20
1783.515747133855
 30
0.0
  0
POINT
  5
142D
330
FF1
100
AcDbEntity
  8
DEFPOINTS
 62
     0
100
AcDbPoint
 10
2090.395839392869
 20
1783.515747133855
 30
0.0
  0
ENDBLK
  5
FFC
330
FF1
100
AcDbEntity
  8
0
100
AcDbBlockEnd
  0
BLOCK
  5
1008
330
FFE
100
AcDbEntity
  8
0
100
AcDbBlockBegin
  2
*D16
 70
     1
 10
0.0
 20
0.0
 30
0.0
  3
*D16
  1

  0
LINE
  5
141C
330
FFE
100
AcDbEntity
  8
SUNPO
 62
   144
100
AcDbLine
 10
2393.851014127787
 20
1783.515747133855
 30
0.0
 11
2246.661215995016
 21
1783.515747133855
 31
0.0
  0
LINE
  5
141D
330
FFE
100
AcDbEntity
  8
SUNPO
 62
   144
100
AcDbLine
 10
2393.851014127788
 20
1933.515747133855
 30
0.0
 11
2246.661215995016
 21
1933.515747133855
 31
0.0
  0
LINE
  5
141E
330
FFE
100
AcDbEntity
  8
SUNPO
 62
   144
100
AcDbLine
 10
2256.661215995016
 20
1827.515747133855
 30
0.0
 11
2256.661215995016
 21
1889.515747133855
 31
0.0
  0
SOLID
  5
141F
330
FFE
100
AcDbEntity
  8
SUNPO
 62
   144
100
AcDbTrace
 10
2249.327882661682
 20
1827.515747133855
 30
0.0
 11
2263.994549328349
 21
1827.515747133855
 31
0.0
 12
2256.661215995016
 22
1783.515747133855
 32
0.0
 13
2256.661215995016
 23
1783.515747133855
 33
0.0
  0
SOLID
  5
1420
330
FFE
100
AcDbEntity
  8
SUNPO
 62
   144
100
AcDbTrace
 10
2249.327882661682
 20
1889.515747133855
 30
0.0
 11
2263.994549328349
 21
1889.515747133855
 31
0.0
 12
2256.661215995016
 22
1933.515747133855
 32
0.0
 13
2256.661215995016
 23
1933.515747133855
 33
0.0
  0
MTEXT
  5
1421
330
FFE
100
AcDbEntity
  8
SUNPO
 62
     7
100
AcDbMText
 10
2219.161215995016
 20
1858.515747133855
 30
0.0
 40
50.0
 41
0.0
 71
     5
 72
     1
  1
\A2;150
  7
ADD
 11
0.0000000000000001
 21
1.0
 31
0.0
1001
ACAD
1000
MTEXTBEGIN
1070
    73
1070
     1
1070
    44
1040
1.0
1070
    74
1070
     0
1000
MTEXTEND
1000
MTEXTBEGIN
1070
    73
1070
     1
1070
    44
1040
1.0
1070
    74
1070
     0
1000
MTEXTEND
  0
POINT
  5
1422
330
FFE
100
AcDbEntity
  8
DEFPOINTS
 62
     0
100
AcDbPoint
 10
2413.851014127788
 20
1783.515747133855
 30
0.0
  0
POINT
  5
1423
330
FFE
100
AcDbEntity
  8
DEFPOINTS
 62
     0
100
AcDbPoint
 10
2413.851014127788
 20
1933.515747133855
 30
0.0
  0
POINT
  5
1424
330
FFE
100
AcDbEntity
  8
DEFPOINTS
 62
     0
100
AcDbPoint
 10
2256.661215995016
 20
1933.515747133855
 30
0.0
  0
ENDBLK
  5
1009
330
FFE
100
AcDbEntity
  8
0
100
AcDbBlockEnd
  0
BLOCK
  5
1015
330
100B
100
AcDbEntity
  8
0
100
AcDbBlockBegin
  2
*D17
 70
     1
 10
0.0
 20
0.0
 30
0.0
  3
*D17
  1

  0
LINE
  5
1413
330
100B
100
AcDbEntity
  8
SUNPO
 62
   144
100
AcDbLine
 10
2393.851014127787
 20
1933.515747133855
 30
0.0
 11
2246.661215995016
 21
1933.515747133855
 31
0.0
  0
LINE
  5
1414
330
100B
100
AcDbEntity
  8
SUNPO
 62
   144
100
AcDbLine
 10
2393.851014127787
 20
2833.515747133855
 30
0.0
 11
2246.661215995016
 21
2833.515747133855
 31
0.0
  0
LINE
  5
1415
330
100B
100
AcDbEntity
  8
SUNPO
 62
   144
100
AcDbLine
 10
2256.661215995016
 20
1977.515747133855
 30
0.0
 11
2256.661215995016
 21
2789.515747133855
 31
0.0
  0
SOLID
  5
1416
330
100B
100
AcDbEntity
  8
SUNPO
 62
   144
100
AcDbTrace
 10
2249.327882661682
 20
1977.515747133855
 30
0.0
 11
2263.994549328349
 21
1977.515747133855
 31
0.0
 12
2256.661215995016
 22
1933.515747133855
 32
0.0
 13
2256.661215995016
 23
1933.515747133855
 33
0.0
  0
SOLID
  5
1417
330
100B
100
AcDbEntity
  8
SUNPO
 62
   144
100
AcDbTrace
 10
2249.327882661682
 20
2789.515747133855
 30
0.0
 11
2263.994549328349
 21
2789.515747133855
 31
0.0
 12
2256.661215995016
 22
2833.515747133855
 32
0.0
 13
2256.661215995016
 23
2833.515747133855
 33
0.0
  0
MTEXT
  5
1418
330
100B
100
AcDbEntity
  8
SUNPO
 62
     7
100
AcDbMText
 10
2219.161215995016
 20
2383.515747133855
 30
0.0
 40
50.0
 41
0.0
 71
     5
 72
     1
  1
\A2;900
  7
ADD
 11
0.0000000000000001
 21
1.0
 31
0.0
1001
ACAD
1000
MTEXTBEGIN
1070
    73
1070
     1
1070
    44
1040
1.0
1070
    74
1070
     0
1000
MTEXTEND
1000
MTEXTBEGIN
1070
    73
1070
     1
1070
    44
1040
1.0
1070
    74
1070
     0
1000
MTEXTEND
  0
POINT
  5
1419
330
100B
100
AcDbEntity
  8
DEFPOINTS
 62
     0
100
AcDbPoint
 10
2413.851014127788
 20
1933.515747133855
 30
0.0
  0
POINT
  5
141A
330
100B
100
AcDbEntity
  8
DEFPOINTS
 62
     0
100
AcDbPoint
 10
2413.851014127788
 20
2833.515747133855
 30
0.0
  0
POINT
  5
141B
330
100B
100
AcDbEntity
  8
DEFPOINTS
 62
     0
100
AcDbPoint
 10
2256.661215995016
 20
2833.515747133855
 30
0.0
  0
ENDBLK
  5
1016
330
100B
100
AcDbEntity
  8
0
100
AcDbBlockEnd
  0
BLOCK
  5
1078
330
106E
100
AcDbEntity
  8
0
100
AcDbBlockBegin
  2
*D18
 70
     1
 10
0.0
 20
0.0
 30
0.0
  3
*D18
  1

  0
LINE
  5
140A
330
106E
100
AcDbEntity
  8
SUNPO
 62
   144
100
AcDbLine
 10
1733.851014127787
 20
1763.515747133855
 30
0.0
 11
1733.851014127787
 21
1228.774390045935
 31
0.0
  0
LINE
  5
140B
330
106E
100
AcDbEntity
  8
SUNPO
 62
   144
100
AcDbLine
 10
1913.851014127787
 20
1763.515747133855
 30
0.0
 11
1913.851014127787
 21
1228.774390045935
 31
0.0
  0
LINE
  5
140C
330
106E
100
AcDbEntity
  8
SUNPO
 62
   144
100
AcDbLine
 10
1777.851014127787
 20
1238.774390045935
 30
0.0
 11
1869.851014127787
 21
1238.774390045935
 31
0.0
  0
SOLID
  5
140D
330
106E
100
AcDbEntity
  8
SUNPO
 62
   144
100
AcDbTrace
 10
1777.851014127787
 20
1246.107723379268
 30
0.0
 11
1777.851014127787
 21
1231.441056712602
 31
0.0
 12
1733.851014127787
 22
1238.774390045935
 32
0.0
 13
1733.851014127787
 23
1238.774390045935
 33
0.0
  0
SOLID
  5
140E
330
106E
100
AcDbEntity
  8
SUNPO
 62
   144
100
AcDbTrace
 10
1869.851014127787
 20
1246.107723379268
 30
0.0
 11
1869.851014127787
 21
1231.441056712602
 31
0.0
 12
1913.851014127787
 22
1238.774390045935
 32
0.0
 13
1913.851014127787
 23
1238.774390045935
 33
0.0
  0
MTEXT
  5
140F
330
106E
100
AcDbEntity
  8
SUNPO
 62
     7
100
AcDbMText
 10
1823.851014127787
 20
1276.274390045935
 30
0.0
 40
50.0
 41
0.0
 71
     5
 72
     1
  1
\A2;180
  7
ADD
1001
ACAD
1000
MTEXTBEGIN
1070
    73
1070
     1
1070
    44
1040
1.0
1070
    74
1070
     0
1000
MTEXTEND
1000
MTEXTBEGIN
1070
    73
1070
     1
1070
    44
1040
1.0
1070
    74
1070
     0
1000
MTEXTEND
  0
POINT
  5
1410
330
106E
100
AcDbEntity
  8
DEFPOINTS
 62
     0
100
AcDbPoint
 10
1733.851014127787
 20
1783.515747133855
 30
0.0
  0
POINT
  5
1411
330
106E
100
AcDbEntity
  8
DEFPOINTS
 62
     0
100
AcDbPoint
 10
1913.851014127787
 20
1783.515747133855
 30
0.0
  0
POINT
  5
1412
330
106E
100
AcDbEntity
  8
DEFPOINTS
 62
     0
100
AcDbPoint
 10
1913.851014127787
 20
1238.774390045935
 30
0.0
  0
ENDBLK
  5
1079
330
106E
100
AcDbEntity
  8
0
100
AcDbBlockEnd
  0
BLOCK
  5
1099
330
108D
100
AcDbEntity
  8
0
100
AcDbBlockBegin
  2
*D19
 70
     1
 10
0.0
 20
0.0
 30
0.0
  3
*D19
  1

  0
LINE
  5
13FF
330
108D
100
AcDbEntity
  8
SUNPO
 62
   144
100
AcDbLine
 10
2563.851014127787
 20
1953.515747133855
 30
0.0
 11
2563.851014127787
 21
2146.749979603862
 31
0.0
  0
LINE
  5
1400
330
108D
100
AcDbEntity
  8
SUNPO
 62
   144
100
AcDbLine
 10
2583.851014127787
 20
1953.515747133855
 30
0.0
 11
2583.851014127787
 21
2146.749979603862
 31
0.0
  0
LINE
  5
1401
330
108D
100
AcDbEntity
  8
SUNPO
 62
   144
100
AcDbLine
 10
2519.851014127787
 20
2136.749979603862
 30
0.0
 11
2475.851014127787
 21
2136.749979603862
 31
0.0
  0
LINE
  5
1402
330
108D
100
AcDbEntity
  8
SUNPO
 62
   144
100
AcDbLine
 10
2627.851014127787
 20
2136.749979603862
 30
0.0
 11
2671.851014127787
 21
2136.749979603862
 31
0.0
  0
MTEXT
  5
1403
330
108D
100
AcDbEntity
  8
SUNPO
 62
     7
100
AcDbMText
 10
2643.145856512759
 20
2174.249979603863
 30
0.0
 40
50.0
 41
0.0
 71
     5
 72
     1
  1
\A2;20
  7
ADD
1001
ACAD
1000
MTEXTBEGIN
1070
    73
1070
     1
1070
    44
1040
1.0
1070
    74
1070
     0
1000
MTEXTEND
1000
MTEXTBEGIN
1070
    73
1070
     1
1070
    44
1040
1.0
1070
    74
1070
     0
1000
MTEXTEND
  0
LINE
  5
1404
330
108D
100
AcDbEntity
  8
SUNPO
 62
   144
100
AcDbLine
 10
2563.851014127787
 20
2136.749979603862
 30
0.0
 11
2583.851014127787
 21
2136.749979603862
 31
0.0
  0
SOLID
  5
1405
330
108D
100
AcDbEntity
  8
SUNPO
 62
   144
100
AcDbTrace
 10
2519.851014127787
 20
2144.083312937196
 30
0.0
 11
2519.851014127787
 21
2129.416646270529
 31
0.0
 12
2563.851014127787
 22
2136.749979603862
 32
0.0
 13
2563.851014127787
 23
2136.749979603862
 33
0.0
  0
SOLID
  5
1406
330
108D
100
AcDbEntity
  8
SUNPO
 62
   144
100
AcDbTrace
 10
2627.851014127787
 20
2144.083312937196
 30
0.0
 11
2627.851014127787
 21
2129.416646270529
 31
0.0
 12
2583.851014127787
 22
2136.749979603862
 32
0.0
 13
2583.851014127787
 23
2136.749979603862
 33
0.0
  0
POINT
  5
1407
330
108D
100
AcDbEntity
  8
DEFPOINTS
 62
     0
100
AcDbPoint
 10
2563.851014127787
 20
1933.515747133855
 30
0.0
  0
POINT
  5
1408
330
108D
100
AcDbEntity
  8
DEFPOINTS
 62
     0
100
AcDbPoint
 10
2583.851014127787
 20
1933.515747133855
 30
0.0
  0
POINT
  5
1409
330
108D
100
AcDbEntity
  8
DEFPOINTS
 62
     0
100
AcDbPoint
 10
2583.851014127787
 20
2136.749979603862
 30
0.0
  0
ENDBLK
  5
109A
330
108D
100
AcDbEntity
  8
0
100
AcDbBlockEnd
  0
BLOCK
  5
10AD
330
10A1
100
AcDbEntity
  8
0
100
AcDbBlockBegin
  2
*D20
 70
     1
 10
0.0
 20
0.0
 30
0.0
  3
*D20
  1

  0
LINE
  5
13F4
330
10A1
100
AcDbEntity
  8
SUNPO
 62
   144
100
AcDbLine
 10
2582.963001855372
 20
1933.515747133855
 30
0.0
 11
2829.167042655038
 21
1933.515747133855
 31
0.0
  0
LINE
  5
13F5
330
10A1
100
AcDbEntity
  8
SUNPO
 62
   144
100
AcDbLine
 10
2582.963001855372
 20
1953.49602326318
 30
0.0
 11
2829.167042655038
 21
1953.49602326318
 31
0.0
  0
LINE
  5
13F6
330
10A1
100
AcDbEntity
  8
SUNPO
 62
   144
100
AcDbLine
 10
2819.167042655039
 20
1889.515747133856
 30
0.0
 11
2819.167042655039
 21
1845.515747133855
 31
0.0
  0
LINE
  5
13F7
330
10A1
100
AcDbEntity
  8
SUNPO
 62
   144
100
AcDbLine
 10
2819.167042655039
 20
1997.49602326318
 30
0.0
 11
2819.167042655039
 21
2041.496023263179
 31
0.0
  0
MTEXT
  5
13F8
330
10A1
100
AcDbEntity
  8
SUNPO
 62
     7
100
AcDbMText
 10
2781.667042655039
 20
2023.721102145467
 30
0.0
 40
50.0
 41
0.0
 71
     5
 72
     1
  1
\A2;20
  7
ADD
 11
0.0000000000000001
 21
1.0
 31
0.0
1001
ACAD
1000
MTEXTBEGIN
1070
    73
1070
     1
1070
    44
1040
1.0
1070
    74
1070
     0
1000
MTEXTEND
1000
MTEXTBEGIN
1070
    73
1070
     1
1070
    44
1040
1.0
1070
    74
1070
     0
1000
MTEXTEND
  0
LINE
  5
13F9
330
10A1
100
AcDbEntity
  8
SUNPO
 62
   144
100
AcDbLine
 10
2819.167042655039
 20
1933.515747133855
 30
0.0
 11
2819.167042655039
 21
1953.49602326318
 31
0.0
  0
SOLID
  5
13FA
330
10A1
100
AcDbEntity
  8
SUNPO
 62
   144
100
AcDbTrace
 10
2811.833709321705
 20
1889.515747133856
 30
0.0
 11
2826.500375988372
 21
1889.515747133856
 31
0.0
 12
2819.167042655039
 22
1933.515747133855
 32
0.0
 13
2819.167042655039
 23
1933.515747133855
 33
0.0
  0
SOLID
  5
13FB
330
10A1
100
AcDbEntity
  8
SUNPO
 62
   144
100
AcDbTrace
 10
2811.833709321705
 20
1997.49602326318
 30
0.0
 11
2826.500375988372
 21
1997.49602326318
 31
0.0
 12
2819.167042655039
 22
1953.49602326318
 32
0.0
 13
2819.167042655039
 23
1953.49602326318
 33
0.0
  0
POINT
  5
13FC
330
10A1
100
AcDbEntity
  8
DEFPOINTS
 62
     0
100
AcDbPoint
 10
2562.963001855372
 20
1933.515747133855
 30
0.0
  0
POINT
  5
13FD
330
10A1
100
AcDbEntity
  8
DEFPOINTS
 62
     0
100
AcDbPoint
 10
2562.963001855372
 20
1953.49602326318
 30
0.0
  0
POINT
  5
13FE
330
10A1
100
AcDbEntity
  8
DEFPOINTS
 62
     0
100
AcDbPoint
 10
2819.167042655039
 20
1953.49602326318
 30
0.0
  0
ENDBLK
  5
10AE
330
10A1
100
AcDbEntity
  8
0
100
AcDbBlockEnd
  0
BLOCK
  5
10D8
330
10CE
100
AcDbEntity
  8
0
100
AcDbBlockBegin
  2
*D21
 70
     1
 10
0.0
 20
0.0
 30
0.0
  3
*D21
  1

  0
LINE
  5
13EB
330
10CE
100
AcDbEntity
  8
SUNPO
 62
   144
100
AcDbLine
 10
2413.851014127788
 20
1763.515747133855
 30
0.0
 11
2413.851014127788
 21
1218.774390045935
 31
0.0
  0
LINE
  5
13EC
330
10CE
100
AcDbEntity
  8
SUNPO
 62
   144
100
AcDbLine
 10
4433.851014127787
 20
1763.515747133855
 30
0.0
 11
4433.851014127787
 21
1218.774390045935
 31
0.0
  0
LINE
  5
13ED
330
10CE
100
AcDbEntity
  8
SUNPO
 62
   144
100
AcDbLine
 10
2457.851014127787
 20
1228.774390045935
 30
0.0
 11
4389.851014127787
 21
1228.774390045935
 31
0.0
  0
SOLID
  5
13EE
330
10CE
100
AcDbEntity
  8
SUNPO
 62
   144
100
AcDbTrace
 10
2457.851014127787
 20
1236.107723379268
 30
0.0
 11
2457.851014127787
 21
1221.441056712602
 31
0.0
 12
2413.851014127788
 22
1228.774390045935
 32
0.0
 13
2413.851014127788
 23
1228.774390045935
 33
0.0
  0
SOLID
  5
13EF
330
10CE
100
AcDbEntity
  8
SUNPO
 62
   144
100
AcDbTrace
 10
4389.851014127787
 20
1236.107723379268
 30
0.0
 11
4389.851014127787
 21
1221.441056712602
 31
0.0
 12
4433.851014127787
 22
1228.774390045935
 32
0.0
 13
4433.851014127787
 23
1228.774390045935
 33
0.0
  0
MTEXT
  5
13F0
330
10CE
100
AcDbEntity
  8
SUNPO
 62
     7
100
AcDbMText
 10
3423.851014127787
 20
1266.274390045935
 30
0.0
 40
50.0
 41
0.0
 71
     5
 72
     1
  1
\A2;2020
  7
ADD
1001
ACAD
1000
MTEXTBEGIN
1070
    73
1070
     1
1070
    44
1040
1.0
1070
    74
1070
     0
1000
MTEXTEND
1000
MTEXTBEGIN
1070
    73
1070
     1
1070
    44
1040
1.0
1070
    74
1070
     0
1000
MTEXTEND
  0
POINT
  5
13F1
330
10CE
100
AcDbEntity
  8
DEFPOINTS
 62
     0
100
AcDbPoint
 10
2413.851014127788
 20
1783.515747133855
 30
0.0
  0
POINT
  5
13F2
330
10CE
100
AcDbEntity
  8
DEFPOINTS
 62
     0
100
AcDbPoint
 10
4433.851014127787
 20
1783.515747133855
 30
0.0
  0
POINT
  5
13F3
330
10CE
100
AcDbEntity
  8
DEFPOINTS
 62
     0
100
AcDbPoint
 10
4433.851014127787
 20
1228.774390045935
 30
0.0
  0
ENDBLK
  5
10D9
330
10CE
100
AcDbEntity
  8
0
100
AcDbBlockEnd
  0
BLOCK
  5
10E7
330
10DD
100
AcDbEntity
  8
0
100
AcDbBlockBegin
  2
*D22
 70
     1
 10
0.0
 20
0.0
 30
0.0
  3
*D22
  1

  0
LINE
  5
13E2
330
10DD
100
AcDbEntity
  8
SUNPO
 62
   144
100
AcDbLine
 10
2413.851014127788
 20
1763.515747133855
 30
0.0
 11
2413.851014127788
 21
1481.145068589895
 31
0.0
  0
LINE
  5
13E3
330
10DD
100
AcDbEntity
  8
SUNPO
 62
   144
100
AcDbLine
 10
2563.851014127787
 20
1763.515747133855
 30
0.0
 11
2563.851014127787
 21
1481.145068589895
 31
0.0
  0
LINE
  5
13E4
330
10DD
100
AcDbEntity
  8
SUNPO
 62
   144
100
AcDbLine
 10
2457.851014127787
 20
1491.145068589895
 30
0.0
 11
2519.851014127787
 21
1491.145068589895
 31
0.0
  0
SOLID
  5
13E5
330
10DD
100
AcDbEntity
  8
SUNPO
 62
   144
100
AcDbTrace
 10
2457.851014127787
 20
1498.478401923228
 30
0.0
 11
2457.851014127787
 21
1483.811735256562
 31
0.0
 12
2413.851014127788
 22
1491.145068589895
 32
0.0
 13
2413.851014127788
 23
1491.145068589895
 33
0.0
  0
SOLID
  5
13E6
330
10DD
100
AcDbEntity
  8
SUNPO
 62
   144
100
AcDbTrace
 10
2519.851014127787
 20
1498.478401923228
 30
0.0
 11
2519.851014127787
 21
1483.811735256562
 31
0.0
 12
2563.851014127787
 22
1491.145068589895
 32
0.0
 13
2563.851014127787
 23
1491.145068589895
 33
0.0
  0
MTEXT
  5
13E7
330
10DD
100
AcDbEntity
  8
SUNPO
 62
     7
100
AcDbMText
 10
2488.851014127787
 20
1528.645068589895
 30
0.0
 40
50.0
 41
0.0
 71
     5
 72
     1
  1
\A2;150
  7
ADD
1001
ACAD
1000
MTEXTBEGIN
1070
    73
1070
     1
1070
    44
1040
1.0
1070
    74
1070
     0
1000
MTEXTEND
1000
MTEXTBEGIN
1070
    73
1070
     1
1070
    44
1040
1.0
1070
    74
1070
     0
1000
MTEXTEND
  0
POINT
  5
13E8
330
10DD
100
AcDbEntity
  8
DEFPOINTS
 62
     0
100
AcDbPoint
 10
2413.851014127788
 20
1783.515747133855
 30
0.0
  0
POINT
  5
13E9
330
10DD
100
AcDbEntity
  8
DEFPOINTS
 62
     0
100
AcDbPoint
 10
2563.851014127787
 20
1783.515747133855
 30
0.0
  0
POINT
  5
13EA
330
10DD
100
AcDbEntity
  8
DEFPOINTS
 62
     0
100
AcDbPoint
 10
2563.851014127787
 20
1491.145068589895
 30
0.0
  0
ENDBLK
  5
10E8
330
10DD
100
AcDbEntity
  8
0
100
AcDbBlockEnd
  0
BLOCK
  5
10F4
330
10EA
100
AcDbEntity
  8
0
100
AcDbBlockBegin
  2
*D23
 70
     1
 10
0.0
 20
0.0
 30
0.0
  3
*D23
  1

  0
LINE
  5
13D9
330
10EA
100
AcDbEntity
  8
SUNPO
 62
   144
100
AcDbLine
 10
2563.851014127787
 20
1763.515747133855
 30
0.0
 11
2563.851014127787
 21
1481.145068589895
 31
0.0
  0
LINE
  5
13DA
330
10EA
100
AcDbEntity
  8
SUNPO
 62
   144
100
AcDbLine
 10
4283.851014127787
 20
1763.515747133855
 30
0.0
 11
4283.851014127787
 21
1481.145068589895
 31
0.0
  0
LINE
  5
13DB
330
10EA
100
AcDbEntity
  8
SUNPO
 62
   144
100
AcDbLine
 10
2607.851014127787
 20
1491.145068589895
 30
0.0
 11
4239.851014127787
 21
1491.145068589895
 31
0.0
  0
SOLID
  5
13DC
330
10EA
100
AcDbEntity
  8
SUNPO
 62
   144
100
AcDbTrace
 10
2607.851014127787
 20
1498.478401923228
 30
0.0
 11
2607.851014127787
 21
1483.811735256562
 31
0.0
 12
2563.851014127787
 22
1491.145068589895
 32
0.0
 13
2563.851014127787
 23
1491.145068589895
 33
0.0
  0
SOLID
  5
13DD
330
10EA
100
AcDbEntity
  8
SUNPO
 62
   144
100
AcDbTrace
 10
4239.851014127787
 20
1498.478401923228
 30
0.0
 11
4239.851014127787
 21
1483.811735256562
 31
0.0
 12
4283.851014127787
 22
1491.145068589895
 32
0.0
 13
4283.851014127787
 23
1491.145068589895
 33
0.0
  0
MTEXT
  5
13DE
330
10EA
100
AcDbEntity
  8
SUNPO
 62
     7
100
AcDbMText
 10
3423.851014127787
 20
1528.645068589895
 30
0.0
 40
50.0
 41
0.0
 71
     5
 72
     1
  1
\A2;1720
  7
ADD
1001
ACAD
1000
MTEXTBEGIN
1070
    73
1070
     1
1070
    44
1040
1.0
1070
    74
1070
     0
1000
MTEXTEND
1000
MTEXTBEGIN
1070
    73
1070
     1
1070
    44
1040
1.0
1070
    74
1070
     0
1000
MTEXTEND
  0
POINT
  5
13DF
330
10EA
100
AcDbEntity
  8
DEFPOINTS
 62
     0
100
AcDbPoint
 10
2563.851014127787
 20
1783.515747133855
 30
0.0
  0
POINT
  5
13E0
330
10EA
100
AcDbEntity
  8
DEFPOINTS
 62
     0
100
AcDbPoint
 10
4283.851014127787
 20
1783.515747133855
 30
0.0
  0
POINT
  5
13E1
330
10EA
100
AcDbEntity
  8
DEFPOINTS
 62
     0
100
AcDbPoint
 10
4283.851014127787
 20
1491.145068589895
 30
0.0
  0
ENDBLK
  5
10F5
330
10EA
100
AcDbEntity
  8
0
100
AcDbBlockEnd
  0
BLOCK
  5
1101
330
10F7
100
AcDbEntity
  8
0
100
AcDbBlockBegin
  2
*D24
 70
     1
 10
0.0
 20
0.0
 30
0.0
  3
*D24
  1

  0
LINE
  5
13D0
330
10F7
100
AcDbEntity
  8
SUNPO
 62
   144
100
AcDbLine
 10
4283.851014127787
 20
1763.515747133855
 30
0.0
 11
4283.851014127787
 21
1481.145068589895
 31
0.0
  0
LINE
  5
13D1
330
10F7
100
AcDbEntity
  8
SUNPO
 62
   144
100
AcDbLine
 10
4433.851014127787
 20
1763.515747133855
 30
0.0
 11
4433.851014127787
 21
1481.145068589895
 31
0.0
  0
LINE
  5
13D2
330
10F7
100
AcDbEntity
  8
SUNPO
 62
   144
100
AcDbLine
 10
4327.851014127787
 20
1491.145068589895
 30
0.0
 11
4389.851014127787
 21
1491.145068589895
 31
0.0
  0
SOLID
  5
13D3
330
10F7
100
AcDbEntity
  8
SUNPO
 62
   144
100
AcDbTrace
 10
4327.851014127787
 20
1498.478401923228
 30
0.0
 11
4327.851014127787
 21
1483.811735256562
 31
0.0
 12
4283.851014127787
 22
1491.145068589895
 32
0.0
 13
4283.851014127787
 23
1491.145068589895
 33
0.0
  0
SOLID
  5
13D4
330
10F7
100
AcDbEntity
  8
SUNPO
 62
   144
100
AcDbTrace
 10
4389.851014127787
 20
1498.478401923228
 30
0.0
 11
4389.851014127787
 21
1483.811735256562
 31
0.0
 12
4433.851014127787
 22
1491.145068589895
 32
0.0
 13
4433.851014127787
 23
1491.145068589895
 33
0.0
  0
MTEXT
  5
13D5
330
10F7
100
AcDbEntity
  8
SUNPO
 62
     7
100
AcDbMText
 10
4358.851014127787
 20
1528.645068589895
 30
0.0
 40
50.0
 41
0.0
 71
     5
 72
     1
  1
\A2;150
  7
ADD
1001
ACAD
1000
MTEXTBEGIN
1070
    73
1070
     1
1070
    44
1040
1.0
1070
    74
1070
     0
1000
MTEXTEND
1000
MTEXTBEGIN
1070
    73
1070
     1
1070
    44
1040
1.0
1070
    74
1070
     0
1000
MTEXTEND
  0
POINT
  5
13D6
330
10F7
100
AcDbEntity
  8
DEFPOINTS
 62
     0
100
AcDbPoint
 10
4283.851014127787
 20
1783.515747133855
 30
0.0
  0
POINT
  5
13D7
330
10F7
100
AcDbEntity
  8
DEFPOINTS
 62
     0
100
AcDbPoint
 10
4433.851014127787
 20
1783.515747133855
 30
0.0
  0
POINT
  5
13D8
330
10F7
100
AcDbEntity
  8
DEFPOINTS
 62
     0
100
AcDbPoint
 10
4433.851014127787
 20
1491.145068589895
 30
0.0
  0
ENDBLK
  5
1102
330
10F7
100
AcDbEntity
  8
0
100
AcDbBlockEnd
  0
ENDSEC
  0
SECTION
  2
ENTITIES
  0
LINE
  5
60A
330
1F
100
AcDbEntity
  8
HOJO
100
AcDbLine
 10
360.0
 20
260.0
 30
0.0
 11
5580.0
 21
260.0
 31
0.0
  0
LINE
  5
60B
330
1F
100
AcDbEntity
  8
HOJO
100
AcDbLine
 10
360.0
 20
560.0
 30
0.0
 11
5580.0
 21
560.0
 31
0.0
  0
LINE
  5
60C
330
1F
100
AcDbEntity
  8
HOJO
100
AcDbLine
 10
360.0
 20
260.0
 30
0.0
 11
360.0
 21
560.0
 31
0.0
  0
LINE
  5
60D
330
1F
100
AcDbEntity
  8
HOJO
100
AcDbLine
 10
2360.0
 20
260.0
 30
0.0
 11
2360.0
 21
560.0
 31
0.0
  0
LINE
  5
60F
330
1F
100
AcDbEntity
  8
HOJO
100
AcDbLine
 10
3160.0
 20
260.0
 30
0.0
 11
3160.0
 21
560.0
 31
0.0
  0
LINE
  5
610
330
1F
100
AcDbEntity
  8
HOJO
100
AcDbLine
 10
3660.0
 20
260.0
 30
0.0
 11
3660.0
 21
560.0
 31
0.0
  0
LINE
  5
E73
330
1F
100
AcDbEntity
  8
3C1
100
AcDbLine
 10
2413.851014127788
 20
1783.515747133855
 30
0.0
 11
2413.851014127788
 21
2833.515747133855
 31
0.0
  0
LINE
  5
E75
330
1F
100
AcDbEntity
  8
3C1
100
AcDbLine
 10
2413.851014127788
 20
1783.515747133855
 30
0.0
 11
4433.851014127787
 21
1783.515747133855
 31
0.0
  0
LINE
  5
E76
330
1F
100
AcDbEntity
  8
3C1
100
AcDbLine
 10
4433.851014127787
 20
1783.515747133855
 30
0.0
 11
4433.851014127787
 21
2833.515747133855
 31
0.0
  0
LINE
  5
E77
330
1F
100
AcDbEntity
  8
3C1
100
AcDbLine
 10
2413.851014127788
 20
2833.515747133855
 30
0.0
 11
2523.851014127787
 21
2833.515747133855
 31
0.0
  0
LINE
  5
E79
330
1F
100
AcDbEntity
  8
3C1
100
AcDbLine
 10
4433.851014127787
 20
2833.515747133855
 30
0.0
 11
4323.851014127788
 21
2833.515747133855
 31
0.0
  0
LINE
  5
E7C
330
1F
100
AcDbEntity
  8
3C1
100
AcDbLine
 10
2413.851014127788
 20
1933.515747133855
 30
0.0
 11
2503.791784103492
 21
1933.515747133855
 31
0.0
  0
LINE
  5
E83
330
1F
100
AcDbEntity
  8
3C1
100
AcDbLine
 10
2463.910185739814
 20
2830.851710316611
 30
0.0
 11
2503.791784103492
 21
1933.515747133855
 31
0.0
  0
LINE
  5
E84
330
1F
100
AcDbEntity
  8
3C1
100
AcDbLine
 10
4383.79184251576
 20
2830.851710316611
 30
0.0
 11
4343.910244152081
 21
1933.515747133855
 31
0.0
  0
LINE
  5
E85
330
1F
100
AcDbEntity
  8
3C1
100
AcDbLine
 10
1913.851014127787
 20
1783.515747133855
 30
0.0
 11
1913.851014127787
 21
2833.515747133855
 31
0.0
  0
LINE
  5
E86
330
1F
100
AcDbEntity
  8
3C1
100
AcDbLine
 10
1913.851014127787
 20
1783.515747133855
 30
0.0
 11
1733.851014127787
 21
1783.515747133855
 31
0.0
  0
LINE
  5
E87
330
1F
100
AcDbEntity
  8
3C1
100
AcDbLine
 10
1733.851014127787
 20
1783.515747133855
 30
0.0
 11
1733.851014127787
 21
2833.515747133855
 31
0.0
  0
LINE
  5
E88
330
1F
100
AcDbEntity
  8
3C1
100
AcDbLine
 10
1733.851014127787
 20
2833.515747133855
 30
0.0
 11
1913.851014127787
 21
2833.515747133855
 31
0.0
  0
LINE
  5
E89
330
1F
100
AcDbEntity
  8
3C1
100
AcDbLine
 10
1913.851014127787
 20
1933.515747133855
 30
0.0
 11
1863.851014127787
 21
1933.515747133855
 31
0.0
  0
LINE
  5
E8A
330
1F
100
AcDbEntity
  8
3C1
100
AcDbLine
 10
1783.851014127788
 20
1933.515747133855
 30
0.0
 11
1783.851014127787
 21
2833.515747133855
 31
0.0
  0
LINE
  5
E8B
330
1F
100
AcDbEntity
  8
3C1
100
AcDbLine
 10
1863.851014127788
 20
1933.515747133855
 30
0.0
 11
1863.851014127787
 21
2833.515747133855
 31
0.0
  0
LINE
  5
E8C
330
1F
100
AcDbEntity
  8
3C1
100
AcDbLine
 10
1788.851014127788
 20
1933.515747133855
 30
0.0
 11
1788.851014127787
 21
2833.515747133855
 31
0.0
  0
LINE
  5
E8D
330
1F
100
AcDbEntity
  8
3C1
100
AcDbLine
 10
1858.851014127788
 20
1933.515747133855
 30
0.0
 11
1858.851014127787
 21
2833.515747133855
 31
0.0
  0
LINE
  5
E8E
330
1F
100
AcDbEntity
  8
3C1
100
AcDbLine
 10
1783.851014127788
 20
1933.515747133855
 30
0.0
 11
1733.851014127787
 21
1933.515747133855
 31
0.0
  0
LINE
  5
104B
330
1F
100
AcDbEntity
  8
3C1
100
AcDbLine
 10
4343.91024415208
 20
1933.515747133855
 30
0.0
 11
4433.851014127787
 21
1933.515747133855
 31
0.0
  0
LINE
  5
104C
330
1F
100
AcDbEntity
  8
3C1
100
AcDbLine
 10
2583.851014127786
 20
1933.515747133855
 30
0.0
 11
4263.851014127787
 21
1933.515747133855
 31
0.0
  0
LINE
  5
109B
330
1F
100
AcDbEntity
  8
3C1
100
AcDbLine
 10
2523.851014127787
 20
2833.515747133855
 30
0.0
 11
2562.963001855372
 21
1953.49602326318
 31
0.0
  0
LINE
  5
109C
330
1F
100
AcDbEntity
  8
3C1
100
AcDbLine
 10
4323.851014127788
 20
2833.515747133855
 30
0.0
 11
4284.739026400202
 21
1953.496023263179
 31
0.0
  0
LINE
  5
109D
330
1F
100
AcDbEntity
  8
3C1
100
AcDbLine
 10
2562.963001855372
 20
1953.49602326318
 30
0.0
 11
2583.851014127786
 21
1933.515747133855
 31
0.0
  0
LINE
  5
109E
330
1F
100
AcDbEntity
  8
3C1
100
AcDbLine
 10
4284.739026400202
 20
1953.496023263179
 30
0.0
 11
4263.851014127787
 21
1933.515747133855
 31
0.0
  0
LINE
  5
1559
330
1F
100
AcDbEntity
  8
SUNPO
 62
   144
100
AcDbLine
 10
4283.851014127787
 20
1763.515747133855
 30
0.0
 11
4283.851014127787
 21
1481.145068589895
 31
0.0
  0
LINE
  5
155A
330
1F
100
AcDbEntity
  8
SUNPO
 62
   144
100
AcDbLine
 10
4433.851014127787
 20
1763.515747133855
 30
0.0
 11
4433.851014127787
 21
1481.145068589895
 31
0.0
  0
LINE
  5
155B
330
1F
100
AcDbEntity
  8
SUNPO
 62
   144
100
AcDbLine
 10
4327.851014127787
 20
1491.145068589895
 30
0.0
 11
4389.851014127787
 21
1491.145068589895
 31
0.0
  0
SOLID
  5
155C
330
1F
100
AcDbEntity
  8
SUNPO
 62
   144
100
AcDbTrace
 10
4327.851014127787
 20
1498.478401923228
 30
0.0
 11
4327.851014127787
 21
1483.811735256562
 31
0.0
 12
4283.851014127787
 22
1491.145068589895
 32
0.0
 13
4283.851014127787
 23
1491.145068589895
 33
0.0
  0
SOLID
  5
155D
330
1F
100
AcDbEntity
  8
SUNPO
 62
   144
100
AcDbTrace
 10
4389.851014127787
 20
1498.478401923228
 30
0.0
 11
4389.851014127787
 21
1483.811735256562
 31
0.0
 12
4433.851014127787
 22
1491.145068589895
 32
0.0
 13
4433.851014127787
 23
1491.145068589895
 33
0.0
  0
LINE
  5
155F
330
1F
100
AcDbEntity
  8
SUNPO
 62
   144
100
AcDbLine
 10
2563.851014127787
 20
1763.515747133855
 30
0.0
 11
2563.851014127787
 21
1481.145068589895
 31
0.0
  0
LINE
  5
1560
330
1F
100
AcDbEntity
  8
SUNPO
 62
   144
100
AcDbLine
 10
4283.851014127787
 20
1763.515747133855
 30
0.0
 11
4283.851014127787
 21
1481.145068589895
 31
0.0
  0
LINE
  5
1561
330
1F
100
AcDbEntity
  8
SUNPO
 62
   144
100
AcDbLine
 10
2607.851014127787
 20
1491.145068589895
 30
0.0
 11
4239.851014127787
 21
1491.145068589895
 31
0.0
  0
SOLID
  5
1562
330
1F
100
AcDbEntity
  8
SUNPO
 62
   144
100
AcDbTrace
 10
2607.851014127787
 20
1498.478401923228
 30
0.0
 11
2607.851014127787
 21
1483.811735256562
 31
0.0
 12
2563.851014127787
 22
1491.145068589895
 32
0.0
 13
2563.851014127787
 23
1491.145068589895
 33
0.0
  0
SOLID
  5
1563
330
1F
100
AcDbEntity
  8
SUNPO
 62
   144
100
AcDbTrace
 10
4239.851014127787
 20
1498.478401923228
 30
0.0
 11
4239.851014127787
 21
1483.811735256562
 31
0.0
 12
4283.851014127787
 22
1491.145068589895
 32
0.0
 13
4283.851014127787
 23
1491.145068589895
 33
0.0
  0
LINE
  5
1565
330
1F
100
AcDbEntity
  8
SUNPO
 62
   144
100
AcDbLine
 10
2413.851014127788
 20
1763.515747133855
 30
0.0
 11
2413.851014127788
 21
1481.145068589895
 31
0.0
  0
LINE
  5
1566
330
1F
100
AcDbEntity
  8
SUNPO
 62
   144
100
AcDbLine
 10
2563.851014127787
 20
1763.515747133855
 30
0.0
 11
2563.851014127787
 21
1481.145068589895
 31
0.0
  0
LINE
  5
1567
330
1F
100
AcDbEntity
  8
SUNPO
 62
   144
100
AcDbLine
 10
2457.851014127787
 20
1491.145068589895
 30
0.0
 11
2519.851014127787
 21
1491.145068589895
 31
0.0
  0
SOLID
  5
1568
330
1F
100
AcDbEntity
  8
SUNPO
 62
   144
100
AcDbTrace
 10
2457.851014127787
 20
1498.478401923228
 30
0.0
 11
2457.851014127787
 21
1483.811735256562
 31
0.0
 12
2413.851014127788
 22
1491.145068589895
 32
0.0
 13
2413.851014127788
 23
1491.145068589895
 33
0.0
  0
SOLID
  5
1569
330
1F
100
AcDbEntity
  8
SUNPO
 62
   144
100
AcDbTrace
 10
2519.851014127787
 20
1498.478401923228
 30
0.0
 11
2519.851014127787
 21
1483.811735256562
 31
0.0
 12
2563.851014127787
 22
1491.145068589895
 32
0.0
 13
2563.851014127787
 23
1491.145068589895
 33
0.0
  0
LINE
  5
156B
330
1F
100
AcDbEntity
  8
SUNPO
 62
   144
100
AcDbLine
 10
2413.851014127788
 20
1763.515747133855
 30
0.0
 11
2413.851014127788
 21
1218.774390045935
 31
0.0
  0
LINE
  5
156C
330
1F
100
AcDbEntity
  8
SUNPO
 62
   144
100
AcDbLine
 10
4433.851014127787
 20
1763.515747133855
 30
0.0
 11
4433.851014127787
 21
1218.774390045935
 31
0.0
  0
LINE
  5
156D
330
1F
100
AcDbEntity
  8
SUNPO
 62
   144
100
AcDbLine
 10
2457.851014127787
 20
1228.774390045935
 30
0.0
 11
4389.851014127787
 21
1228.774390045935
 31
0.0
  0
SOLID
  5
156E
330
1F
100
AcDbEntity
  8
SUNPO
 62
   144
100
AcDbTrace
 10
2457.851014127787
 20
1236.107723379268
 30
0.0
 11
2457.851014127787
 21
1221.441056712602
 31
0.0
 12
2413.851014127788
 22
1228.774390045935
 32
0.0
 13
2413.851014127788
 23
1228.774390045935
 33
0.0
  0
SOLID
  5
156F
330
1F
100
AcDbEntity
  8
SUNPO
 62
   144
100
AcDbTrace
 10
4389.851014127787
 20
1236.107723379268
 30
0.0
 11
4389.851014127787
 21
1221.441056712602
 31
0.0
 12
4433.851014127787
 22
1228.774390045935
 32
0.0
 13
4433.851014127787
 23
1228.774390045935
 33
0.0
  0
LINE
  5
1571
330
1F
100
AcDbEntity
  8
SUNPO
 62
   144
100
AcDbLine
 10
2582.963001855372
 20
1933.515747133855
 30
0.0
 11
2829.167042655038
 21
1933.515747133855
 31
0.0
  0
LINE
  5
1572
330
1F
100
AcDbEntity
  8
SUNPO
 62
   144
100
AcDbLine
 10
2582.963001855372
 20
1953.49602326318
 30
0.0
 11
2829.167042655038
 21
1953.49602326318
 31
0.0
  0
LINE
  5
1573
330
1F
100
AcDbEntity
  8
SUNPO
 62
   144
100
AcDbLine
 10
2819.167042655039
 20
1889.515747133856
 30
0.0
 11
2819.167042655039
 21
1845.515747133855
 31
0.0
  0
LINE
  5
1574
330
1F
100
AcDbEntity
  8
SUNPO
 62
   144
100
AcDbLine
 10
2819.167042655039
 20
1997.49602326318
 30
0.0
 11
2819.167042655039
 21
2041.496023263179
 31
0.0
  0
LINE
  5
1576
330
1F
100
AcDbEntity
  8
SUNPO
 62
   144
100
AcDbLine
 10
2819.167042655039
 20
1933.515747133855
 30
0.0
 11
2819.167042655039
 21
1953.49602326318
 31
0.0
  0
SOLID
  5
1577
330
1F
100
AcDbEntity
  8
SUNPO
 62
   144
100
AcDbTrace
 10
2811.833709321705
 20
1889.515747133856
 30
0.0
 11
2826.500375988372
 21
1889.515747133856
 31
0.0
 12
2819.167042655039
 22
1933.515747133855
 32
0.0
 13
2819.167042655039
 23
1933.515747133855
 33
0.0
  0
SOLID
  5
1578
330
1F
100
AcDbEntity
  8
SUNPO
 62
   144
100
AcDbTrace
 10
2811.833709321705
 20
1997.49602326318
 30
0.0
 11
2826.500375988372
 21
1997.49602326318
 31
0.0
 12
2819.167042655039
 22
1953.49602326318
 32
0.0
 13
2819.167042655039
 23
1953.49602326318
 33
0.0
  0
LINE
  5
1579
330
1F
100
AcDbEntity
  8
SUNPO
 62
   144
100
AcDbLine
 10
2563.851014127787
 20
1953.515747133855
 30
0.0
 11
2563.851014127787
 21
2146.749979603862
 31
0.0
  0
LINE
  5
157A
330
1F
100
AcDbEntity
  8
SUNPO
 62
   144
100
AcDbLine
 10
2583.851014127787
 20
1953.515747133855
 30
0.0
 11
2583.851014127787
 21
2146.749979603862
 31
0.0
  0
LINE
  5
157B
330
1F
100
AcDbEntity
  8
SUNPO
 62
   144
100
AcDbLine
 10
2519.851014127787
 20
2136.749979603862
 30
0.0
 11
2475.851014127787
 21
2136.749979603862
 31
0.0
  0
LINE
  5
157C
330
1F
100
AcDbEntity
  8
SUNPO
 62
   144
100
AcDbLine
 10
2627.851014127787
 20
2136.749979603862
 30
0.0
 11
2671.851014127787
 21
2136.749979603862
 31
0.0
  0
LINE
  5
157E
330
1F
100
AcDbEntity
  8
SUNPO
 62
   144
100
AcDbLine
 10
2563.851014127787
 20
2136.749979603862
 30
0.0
 11
2583.851014127787
 21
2136.749979603862
 31
0.0
  0
SOLID
  5
157F
330
1F
100
AcDbEntity
  8
SUNPO
 62
   144
100
AcDbTrace
 10
2519.851014127787
 20
2144.083312937196
 30
0.0
 11
2519.851014127787
 21
2129.416646270529
 31
0.0
 12
2563.851014127787
 22
2136.749979603862
 32
0.0
 13
2563.851014127787
 23
2136.749979603862
 33
0.0
  0
SOLID
  5
1580
330
1F
100
AcDbEntity
  8
SUNPO
 62
   144
100
AcDbTrace
 10
2627.851014127787
 20
2144.083312937196
 30
0.0
 11
2627.851014127787
 21
2129.416646270529
 31
0.0
 12
2583.851014127787
 22
2136.749979603862
 32
0.0
 13
2583.851014127787
 23
2136.749979603862
 33
0.0
  0
LINE
  5
1581
330
1F
100
AcDbEntity
  8
SUNPO
 62
   144
100
AcDbLine
 10
1733.851014127787
 20
1763.515747133855
 30
0.0
 11
1733.851014127787
 21
1228.774390045935
 31
0.0
  0
LINE
  5
1582
330
1F
100
AcDbEntity
  8
SUNPO
 62
   144
100
AcDbLine
 10
1913.851014127787
 20
1763.515747133855
 30
0.0
 11
1913.851014127787
 21
1228.774390045935
 31
0.0
  0
LINE
  5
1583
330
1F
100
AcDbEntity
  8
SUNPO
 62
   144
100
AcDbLine
 10
1777.851014127787
 20
1238.774390045935
 30
0.0
 11
1869.851014127787
 21
1238.774390045935
 31
0.0
  0
SOLID
  5
1584
330
1F
100
AcDbEntity
  8
SUNPO
 62
   144
100
AcDbTrace
 10
1777.851014127787
 20
1246.107723379268
 30
0.0
 11
1777.851014127787
 21
1231.441056712602
 31
0.0
 12
1733.851014127787
 22
1238.774390045935
 32
0.0
 13
1733.851014127787
 23
1238.774390045935
 33
0.0
  0
SOLID
  5
1585
330
1F
100
AcDbEntity
  8
SUNPO
 62
   144
100
AcDbTrace
 10
1869.851014127787
 20
1246.107723379268
 30
0.0
 11
1869.851014127787
 21
1231.441056712602
 31
0.0
 12
1913.851014127787
 22
1238.774390045935
 32
0.0
 13
1913.851014127787
 23
1238.774390045935
 33
0.0
  0
TEXT
  5
1587
330
1F
100
AcDbEntity
  8
SUNPO
100
AcDbText
 10
2446.466767997013
 20
417.0451694377297
 30
0.0
 40
50.0
  1
900×1800
  7
ADD
100
AcDbText
1001
ACAD
1000
MTEXTBEGIN
1070
    73
1070
     1
1070
    44
1040
1.0
1070
    74
1070
     0
1000
MTEXTEND
  0
TEXT
  5
1588
330
1F
100
AcDbEntity
  8
SUNPO
100
AcDbText
 10
620.9738466180584
 20
407.6357238281834
 30
0.0
 40
50.0
  1
B型柵渠 杭
  7
ADD
100
AcDbText
1001
ACAD
1000
MTEXTBEGIN
1070
    73
1070
     1
1070
    44
1040
1.0
1070
    74
1070
     0
1000
MTEXTEND
  0
LINE
  5
1589
330
1F
100
AcDbEntity
  8
SUNPO
 62
   144
100
AcDbLine
 10
2393.851014127787
 20
1933.515747133855
 30
0.0
 11
2246.661215995016
 21
1933.515747133855
 31
0.0
  0
LINE
  5
158A
330
1F
100
AcDbEntity
  8
SUNPO
 62
   144
100
AcDbLine
 10
2393.851014127787
 20
2833.515747133855
 30
0.0
 11
2246.661215995016
 21
2833.515747133855
 31
0.0
  0
LINE
  5
158B
330
1F
100
AcDbEntity
  8
SUNPO
 62
   144
100
AcDbLine
 10
2256.661215995016
 20
1977.515747133855
 30
0.0
 11
2256.661215995016
 21
2789.515747133855
 31
0.0
  0
SOLID
  5
158C
330
1F
100
AcDbEntity
  8
SUNPO
 62
   144
100
AcDbTrace
 10
2249.327882661682
 20
1977.515747133855
 30
0.0
 11
2263.994549328349
 21
1977.515747133855
 31
0.0
 12
2256.661215995016
 22
1933.515747133855
 32
0.0
 13
2256.661215995016
 23
1933.515747133855
 33
0.0
  0
SOLID
  5
158D
330
1F
100
AcDbEntity
  8
SUNPO
 62
   144
100
AcDbTrace
 10
2249.327882661682
 20
2789.515747133855
 30
0.0
 11
2263.994549328349
 21
2789.515747133855
 31
0.0
 12
2256.661215995016
 22
2833.515747133855
 32
0.0
 13
2256.661215995016
 23
2833.515747133855
 33
0.0
  0
LINE
  5
158F
330
1F
100
AcDbEntity
  8
SUNPO
 62
   144
100
AcDbLine
 10
2393.851014127787
 20
1783.515747133855
 30
0.0
 11
2246.661215995016
 21
1783.515747133855
 31
0.0
  0
LINE
  5
1590
330
1F
100
AcDbEntity
  8
SUNPO
 62
   144
100
AcDbLine
 10
2393.851014127788
 20
1933.515747133855
 30
0.0
 11
2246.661215995016
 21
1933.515747133855
 31
0.0
  0
LINE
  5
1591
330
1F
100
AcDbEntity
  8
SUNPO
 62
   144
100
AcDbLine
 10
2256.661215995016
 20
1827.515747133855
 30
0.0
 11
2256.661215995016
 21
1889.515747133855
 31
0.0
  0
SOLID
  5
1592
330
1F
100
AcDbEntity
  8
SUNPO
 62
   144
100
AcDbTrace
 10
2249.327882661682
 20
1827.515747133855
 30
0.0
 11
2263.994549328349
 21
1827.515747133855
 31
0.0
 12
2256.661215995016
 22
1783.515747133855
 32
0.0
 13
2256.661215995016
 23
1783.515747133855
 33
0.0
  0
SOLID
  5
1593
330
1F
100
AcDbEntity
  8
SUNPO
 62
   144
100
AcDbTrace
 10
2249.327882661682
 20
1889.515747133855
 30
0.0
 11
2263.994549328349
 21
1889.515747133855
 31
0.0
 12
2256.661215995016
 22
1933.515747133855
 32
0.0
 13
2256.661215995016
 23
1933.515747133855
 33
0.0
  0
LINE
  5
1595
330
1F
100
AcDbEntity
  8
SUNPO
 62
   144
100
AcDbLine
 10
2393.851014127787
 20
2833.515747133855
 30
0.0
 11
2080.395839392869
 21
2833.515747133855
 31
0.0
  0
LINE
  5
1596
330
1F
100
AcDbEntity
  8
SUNPO
 62
   144
100
AcDbLine
 10
2393.851014127787
 20
1783.515747133855
 30
0.0
 11
2080.395839392869
 21
1783.515747133855
 31
0.0
  0
LINE
  5
1597
330
1F
100
AcDbEntity
  8
SUNPO
 62
   144
100
AcDbLine
 10
2090.395839392869
 20
2789.515747133855
 30
0.0
 11
2090.395839392869
 21
1827.515747133855
 31
0.0
  0
SOLID
  5
1598
330
1F
100
AcDbEntity
  8
SUNPO
 62
   144
100
AcDbTrace
 10
2083.062506059536
 20
2789.515747133855
 30
0.0
 11
2097.729172726203
 21
2789.515747133855
 31
0.0
 12
2090.395839392869
 22
2833.515747133855
 32
0.0
 13
2090.395839392869
 23
2833.515747133855
 33
0.0
  0
SOLID
  5
1599
330
1F
100
AcDbEntity
  8
SUNPO
 62
   144
100
AcDbTrace
 10
2083.062506059536
 20
1827.515747133855
 30
0.0
 11
2097.729172726203
 21
1827.515747133855
 31
0.0
 12
2090.395839392869
 22
1783.515747133855
 32
0.0
 13
2090.395839392869
 23
1783.515747133855
 33
0.0
  0
LINE
  5
159B
330
1F
100
AcDbEntity
  8
SUNPO
 62
   144
100
AcDbLine
 10
4323.851014127788
 20
2853.515747133855
 30
0.0
 11
4323.851014127788
 21
3006.584140669775
 31
0.0
  0
LINE
  5
159C
330
1F
100
AcDbEntity
  8
SUNPO
 62
   144
100
AcDbLine
 10
4383.79184251576
 20
2850.851710316612
 30
0.0
 11
4383.79184251576
 21
3006.584140669775
 31
0.0
  0
LINE
  5
159D
330
1F
100
AcDbEntity
  8
SUNPO
 62
   144
100
AcDbLine
 10
4279.851014127787
 20
2996.584140669775
 30
0.0
 11
4235.851014127788
 21
2996.584140669775
 31
0.0
  0
LINE
  5
159E
330
1F
100
AcDbEntity
  8
SUNPO
 62
   144
100
AcDbLine
 10
4427.791842515761
 20
2996.584140669775
 30
0.0
 11
4471.79184251576
 21
2996.584140669775
 31
0.0
  0
LINE
  5
159F
330
1F
100
AcDbEntity
  8
SUNPO
 62
   144
100
AcDbLine
 10
4323.851014127788
 20
2996.584140669775
 30
0.0
 11
4383.79184251576
 21
2996.584140669775
 31
0.0
  0
SOLID
  5
15A0
330
1F
100
AcDbEntity
  8
SUNPO
 62
   144
100
AcDbTrace
 10
4279.851014127787
 20
3003.917474003109
 30
0.0
 11
4279.851014127787
 21
2989.250807336442
 31
0.0
 12
4323.851014127788
 22
2996.584140669775
 32
0.0
 13
4323.851014127788
 23
2996.584140669775
 33
0.0
  0
SOLID
  5
15A1
330
1F
100
AcDbEntity
  8
SUNPO
 62
   144
100
AcDbTrace
 10
4427.791842515761
 20
3003.917474003109
 30
0.0
 11
4427.791842515761
 21
2989.250807336442
 31
0.0
 12
4383.79184251576
 22
2996.584140669775
 32
0.0
 13
4383.79184251576
 23
2996.584140669775
 33
0.0
  0
LINE
  5
15A3
330
1F
100
AcDbEntity
  8
SUNPO
 62
   144
100
AcDbLine
 10
2463.910185739814
 20
2850.851710316612
 30
0.0
 11
2463.910185739814
 21
3006.584140669775
 31
0.0
  0
LINE
  5
15A4
330
1F
100
AcDbEntity
  8
SUNPO
 62
   144
100
AcDbLine
 10
2523.851014127787
 20
2853.515747133855
 30
0.0
 11
2523.851014127787
 21
3006.584140669775
 31
0.0
  0
LINE
  5
15A5
330
1F
100
AcDbEntity
  8
SUNPO
 62
   144
100
AcDbLine
 10
2419.910185739815
 20
2996.584140669775
 30
0.0
 11
2375.910185739815
 21
2996.584140669775
 31
0.0
  0
LINE
  5
15A6
330
1F
100
AcDbEntity
  8
SUNPO
 62
   144
100
AcDbLine
 10
2567.851014127787
 20
2996.584140669775
 30
0.0
 11
2611.851014127787
 21
2996.584140669775
 31
0.0
  0
LINE
  5
15A8
330
1F
100
AcDbEntity
  8
SUNPO
 62
   144
100
AcDbLine
 10
2463.910185739814
 20
2996.584140669775
 30
0.0
 11
2523.851014127787
 21
2996.584140669775
 31
0.0
  0
SOLID
  5
15A9
330
1F
100
AcDbEntity
  8
SUNPO
 62
   144
100
AcDbTrace
 10
2419.910185739815
 20
3003.917474003109
 30
0.0
 11
2419.910185739815
 21
2989.250807336442
 31
0.0
 12
2463.910185739814
 22
2996.584140669775
 32
0.0
 13
2463.910185739814
 23
2996.584140669775
 33
0.0
  0
SOLID
  5
15AA
330
1F
100
AcDbEntity
  8
SUNPO
 62
   144
100
AcDbTrace
 10
2567.851014127787
 20
3003.917474003109
 30
0.0
 11
2567.851014127787
 21
2989.250807336442
 31
0.0
 12
2523.851014127787
 22
2996.584140669775
 32
0.0
 13
2523.851014127787
 23
2996.584140669775
 33
0.0
  0
LINE
  5
15AB
330
1F
100
AcDbEntity
  8
SUNPO
 62
   144
100
AcDbLine
 10
4323.851014127788
 20
2853.515747133855
 30
0.0
 11
4323.851014127788
 21
3139.652534205696
 31
0.0
  0
LINE
  5
15AC
330
1F
100
AcDbEntity
  8
SUNPO
 62
   144
100
AcDbLine
 10
4433.851014127787
 20
2853.515747133855
 30
0.0
 11
4433.851014127787
 21
3139.652534205696
 31
0.0
  0
LINE
  5
15AD
330
1F
100
AcDbEntity
  8
SUNPO
 62
   144
100
AcDbLine
 10
4353.851014127787
 20
3129.652534205695
 30
0.0
 11
4403.851014127787
 21
3129.652534205695
 31
0.0
  0
SOLID
  5
15AF
330
1F
100
AcDbEntity
  8
SUNPO
 62
   144
100
AcDbTrace
 10
4353.851014127787
 20
3134.652534205695
 30
0.0
 11
4353.851014127787
 21
3124.652534205695
 31
0.0
 12
4323.851014127788
 22
3129.652534205695
 32
0.0
 13
4323.851014127788
 23
3129.652534205695
 33
0.0
  0
SOLID
  5
15B0
330
1F
100
AcDbEntity
  8
SUNPO
 62
   144
100
AcDbTrace
 10
4403.851014127787
 20
3134.652534205695
 30
0.0
 11
4403.851014127787
 21
3124.652534205695
 31
0.0
 12
4433.851014127787
 22
3129.652534205695
 32
0.0
 13
4433.851014127787
 23
3129.652534205695
 33
0.0
  0
LINE
  5
15B1
330
1F
100
AcDbEntity
  8
SUNPO
 62
   144
100
AcDbLine
 10
2523.851014127787
 20
2853.515747133855
 30
0.0
 11
2523.851014127787
 21
3139.652534205696
 31
0.0
  0
LINE
  5
15B2
330
1F
100
AcDbEntity
  8
SUNPO
 62
   144
100
AcDbLine
 10
4323.851014127788
 20
2853.515747133855
 30
0.0
 11
4323.851014127788
 21
3139.652534205696
 31
0.0
  0
LINE
  5
15B3
330
1F
100
AcDbEntity
  8
SUNPO
 62
   144
100
AcDbLine
 10
2567.851014127787
 20
3129.652534205695
 30
0.0
 11
4279.851014127787
 21
3129.652534205695
 31
0.0
  0
SOLID
  5
15B4
330
1F
100
AcDbEntity
  8
SUNPO
 62
   144
100
AcDbTrace
 10
2567.851014127787
 20
3136.985867539029
 30
0.0
 11
2567.851014127787
 21
3122.319200872362
 31
0.0
 12
2523.851014127787
 22
3129.652534205695
 32
0.0
 13
2523.851014127787
 23
3129.652534205695
 33
0.0
  0
SOLID
  5
15B5
330
1F
100
AcDbEntity
  8
SUNPO
 62
   144
100
AcDbTrace
 10
4279.851014127787
 20
3136.985867539029
 30
0.0
 11
4279.851014127787
 21
3122.319200872362
 31
0.0
 12
4323.851014127788
 22
3129.652534205695
 32
0.0
 13
4323.851014127788
 23
3129.652534205695
 33
0.0
  0
LINE
  5
15B7
330
1F
100
AcDbEntity
  8
SUNPO
 62
   144
100
AcDbLine
 10
2413.851014127788
 20
2853.515747133855
 30
0.0
 11
2413.851014127788
 21
3139.652534205696
 31
0.0
  0
LINE
  5
15B8
330
1F
100
AcDbEntity
  8
SUNPO
 62
   144
100
AcDbLine
 10
2523.851014127787
 20
2853.515747133855
 30
0.0
 11
2523.851014127787
 21
3139.652534205696
 31
0.0
  0
LINE
  5
15B9
330
1F
100
AcDbEntity
  8
SUNPO
 62
   144
100
AcDbLine
 10
2443.851014127787
 20
3129.652534205695
 30
0.0
 11
2493.851014127787
 21
3129.652534205695
 31
0.0
  0
SOLID
  5
15BB
330
1F
100
AcDbEntity
  8
SUNPO
 62
   144
100
AcDbTrace
 10
2443.851014127787
 20
3134.652534205695
 30
0.0
 11
2443.851014127787
 21
3124.652534205695
 31
0.0
 12
2413.851014127788
 22
3129.652534205695
 32
0.0
 13
2413.851014127788
 23
3129.652534205695
 33
0.0
  0
SOLID
  5
15BC
330
1F
100
AcDbEntity
  8
SUNPO
 62
   144
100
AcDbTrace
 10
2493.851014127787
 20
3134.652534205695
 30
0.0
 11
2493.851014127787
 21
3124.652534205695
 31
0.0
 12
2523.851014127787
 22
3129.652534205695
 32
0.0
 13
2523.851014127787
 23
3129.652534205695
 33
0.0
  0
LINE
  5
15BD
330
1F
100
AcDbEntity
  8
SUNPO
 62
   144
100
AcDbLine
 10
1858.851014127787
 20
2853.515747133855
 30
0.0
 11
1858.851014127787
 21
3006.584140669775
 31
0.0
  0
LINE
  5
15BE
330
1F
100
AcDbEntity
  8
SUNPO
 62
   144
100
AcDbLine
 10
1863.851014127787
 20
2853.515747133855
 30
0.0
 11
1863.851014127787
 21
3006.584140669775
 31
0.0
  0
LINE
  5
15BF
330
1F
100
AcDbEntity
  8
SUNPO
 62
   144
100
AcDbLine
 10
1814.851014127787
 20
2996.584140669775
 30
0.0
 11
1770.851014127787
 21
2996.584140669775
 31
0.0
  0
LINE
  5
15C0
330
1F
100
AcDbEntity
  8
SUNPO
 62
   144
100
AcDbLine
 10
1907.851014127787
 20
2996.584140669775
 30
0.0
 11
1951.851014127787
 21
2996.584140669775
 31
0.0
  0
LINE
  5
15C1
330
1F
100
AcDbEntity
  8
SUNPO
 62
   144
100
AcDbLine
 10
1858.851014127787
 20
2996.584140669775
 30
0.0
 11
1863.851014127787
 21
2996.584140669775
 31
0.0
  0
SOLID
  5
15C2
330
1F
100
AcDbEntity
  8
SUNPO
 62
   144
100
AcDbTrace
 10
1814.851014127787
 20
3003.917474003109
 30
0.0
 11
1814.851014127787
 21
2989.250807336442
 31
0.0
 12
1858.851014127787
 22
2996.584140669775
 32
0.0
 13
1858.851014127787
 23
2996.584140669775
 33
0.0
  0
SOLID
  5
15C3
330
1F
100
AcDbEntity
  8
SUNPO
 62
   144
100
AcDbTrace
 10
1907.851014127787
 20
3003.917474003109
 30
0.0
 11
1907.851014127787
 21
2989.250807336442
 31
0.0
 12
1863.851014127787
 22
2996.584140669775
 32
0.0
 13
1863.851014127787
 23
2996.584140669775
 33
0.0
  0
LINE
  5
15C5
330
1F
100
AcDbEntity
  8
SUNPO
 62
   144
100
AcDbLine
 10
1783.851014127787
 20
2853.515747133855
 30
0.0
 11
1783.851014127787
 21
3006.584140669775
 31
0.0
  0
LINE
  5
15C6
330
1F
100
AcDbEntity
  8
SUNPO
 62
   144
100
AcDbLine
 10
1788.851014127787
 20
2853.515747133855
 30
0.0
 11
1788.851014127787
 21
3006.584140669775
 31
0.0
  0
LINE
  5
15C7
330
1F
100
AcDbEntity
  8
SUNPO
 62
   144
100
AcDbLine
 10
1739.851014127787
 20
2996.584140669775
 30
0.0
 11
1695.851014127787
 21
2996.584140669775
 31
0.0
  0
LINE
  5
15C8
330
1F
100
AcDbEntity
  8
SUNPO
 62
   144
100
AcDbLine
 10
1832.851014127787
 20
2996.584140669775
 30
0.0
 11
1876.851014127787
 21
2996.584140669775
 31
0.0
  0
LINE
  5
15C9
330
1F
100
AcDbEntity
  8
SUNPO
 62
   144
100
AcDbLine
 10
1783.851014127787
 20
2996.584140669775
 30
0.0
 11
1788.851014127787
 21
2996.584140669775
 31
0.0
  0
SOLID
  5
15CA
330
1F
100
AcDbEntity
  8
SUNPO
 62
   144
100
AcDbTrace
 10
1739.851014127787
 20
3003.917474003109
 30
0.0
 11
1739.851014127787
 21
2989.250807336442
 31
0.0
 12
1783.851014127787
 22
2996.584140669775
 32
0.0
 13
1783.851014127787
 23
2996.584140669775
 33
0.0
  0
SOLID
  5
15CB
330
1F
100
AcDbEntity
  8
SUNPO
 62
   144
100
AcDbTrace
 10
1832.851014127787
 20
3003.917474003109
 30
0.0
 11
1832.851014127787
 21
2989.250807336442
 31
0.0
 12
1788.851014127787
 22
2996.584140669775
 32
0.0
 13
1788.851014127787
 23
2996.584140669775
 33
0.0
  0
LINE
  5
15CD
330
1F
100
AcDbEntity
  8
SUNPO
 62
   144
100
AcDbLine
 10
1788.851014127787
 20
2853.515747133855
 30
0.0
 11
1788.851014127787
 21
3139.652534205696
 31
0.0
  0
LINE
  5
15CE
330
1F
100
AcDbEntity
  8
SUNPO
 62
   144
100
AcDbLine
 10
1858.851014127787
 20
2853.515747133855
 30
0.0
 11
1858.851014127787
 21
3139.652534205696
 31
0.0
  0
LINE
  5
15CF
330
1F
100
AcDbEntity
  8
SUNPO
 62
   144
100
AcDbLine
 10
1744.851014127787
 20
3129.652534205695
 30
0.0
 11
1700.851014127787
 21
3129.652534205695
 31
0.0
  0
LINE
  5
15D0
330
1F
100
AcDbEntity
  8
SUNPO
 62
   144
100
AcDbLine
 10
1902.851014127787
 20
3129.652534205695
 30
0.0
 11
1946.851014127787
 21
3129.652534205695
 31
0.0
  0
LINE
  5
15D2
330
1F
100
AcDbEntity
  8
SUNPO
 62
   144
100
AcDbLine
 10
1788.851014127787
 20
3129.652534205695
 30
0.0
 11
1858.851014127787
 21
3129.652534205695
 31
0.0
  0
SOLID
  5
15D3
330
1F
100
AcDbEntity
  8
SUNPO
 62
   144
100
AcDbTrace
 10
1744.851014127787
 20
3136.985867539029
 30
0.0
 11
1744.851014127787
 21
3122.319200872362
 31
0.0
 12
1788.851014127787
 22
3129.652534205695
 32
0.0
 13
1788.851014127787
 23
3129.652534205695
 33
0.0
  0
SOLID
  5
15D4
330
1F
100
AcDbEntity
  8
SUNPO
 62
   144
100
AcDbTrace
 10
1902.851014127787
 20
3136.985867539029
 30
0.0
 11
1902.851014127787
 21
3122.319200872362
 31
0.0
 12
1858.851014127787
 22
3129.652534205695
 32
0.0
 13
1858.851014127787
 23
3129.652534205695
 33
0.0
  0
LINE
  5
15D5
330
1F
100
AcDbEntity
  8
SUNPO
 62
   144
100
AcDbLine
 10
1913.851014127787
 20
2853.515747133855
 30
0.0
 11
1913.851014127787
 21
3139.652534205696
 31
0.0
  0
LINE
  5
15D6
330
1F
100
AcDbEntity
  8
SUNPO
 62
   144
100
AcDbLine
 10
1863.851014127787
 20
2853.515747133855
 30
0.0
 11
1863.851014127787
 21
3139.652534205696
 31
0.0
  0
LINE
  5
15D7
330
1F
100
AcDbEntity
  8
SUNPO
 62
   144
100
AcDbLine
 10
1957.851014127787
 20
3129.652534205695
 30
0.0
 11
2001.851014127787
 21
3129.652534205695
 31
0.0
  0
LINE
  5
15D8
330
1F
100
AcDbEntity
  8
SUNPO
 62
   144
100
AcDbLine
 10
1819.851014127787
 20
3129.652534205695
 30
0.0
 11
1775.851014127787
 21
3129.652534205695
 31
0.0
  0
LINE
  5
15DA
330
1F
100
AcDbEntity
  8
SUNPO
 62
   144
100
AcDbLine
 10
1913.851014127787
 20
3129.652534205695
 30
0.0
 11
1863.851014127787
 21
3129.652534205695
 31
0.0
  0
SOLID
  5
15DB
330
1F
100
AcDbEntity
  8
SUNPO
 62
   144
100
AcDbTrace
 10
1957.851014127787
 20
3136.985867539029
 30
0.0
 11
1957.851014127787
 21
3122.319200872362
 31
0.0
 12
1913.851014127787
 22
3129.652534205695
 32
0.0
 13
1913.851014127787
 23
3129.652534205695
 33
0.0
  0
SOLID
  5
15DC
330
1F
100
AcDbEntity
  8
SUNPO
 62
   144
100
AcDbTrace
 10
1819.851014127787
 20
3136.985867539029
 30
0.0
 11
1819.851014127787
 21
3122.319200872362
 31
0.0
 12
1863.851014127787
 22
3129.652534205695
 32
0.0
 13
1863.851014127787
 23
3129.652534205695
 33
0.0
  0
LINE
  5
15DD
330
1F
100
AcDbEntity
  8
SUNPO
 62
   144
100
AcDbLine
 10
1733.851014127787
 20
2853.515747133855
 30
0.0
 11
1733.851014127787
 21
3139.652534205696
 31
0.0
  0
LINE
  5
15DE
330
1F
100
AcDbEntity
  8
SUNPO
 62
   144
100
AcDbLine
 10
1783.851014127787
 20
2853.515747133855
 30
0.0
 11
1783.851014127787
 21
3139.652534205696
 31
0.0
  0
LINE
  5
15DF
330
1F
100
AcDbEntity
  8
SUNPO
 62
   144
100
AcDbLine
 10
1827.851014127787
 20
3129.652534205695
 30
0.0
 11
1871.851014127787
 21
3129.652534205695
 31
0.0
  0
LINE
  5
15E0
330
1F
100
AcDbEntity
  8
SUNPO
 62
   144
100
AcDbLine
 10
1689.851014127787
 20
3129.652534205695
 30
0.0
 11
1645.851014127787
 21
3129.652534205695
 31
0.0
  0
LINE
  5
15E2
330
1F
100
AcDbEntity
  8
SUNPO
 62
   144
100
AcDbLine
 10
1783.851014127787
 20
3129.652534205695
 30
0.0
 11
1733.851014127787
 21
3129.652534205695
 31
0.0
  0
SOLID
  5
15E3
330
1F
100
AcDbEntity
  8
SUNPO
 62
   144
100
AcDbTrace
 10
1827.851014127787
 20
3136.985867539029
 30
0.0
 11
1827.851014127787
 21
3122.319200872362
 31
0.0
 12
1783.851014127787
 22
3129.652534205695
 32
0.0
 13
1783.851014127787
 23
3129.652534205695
 33
0.0
  0
SOLID
  5
15E4
330
1F
100
AcDbEntity
  8
SUNPO
 62
   144
100
AcDbTrace
 10
1689.851014127787
 20
3136.985867539029
 30
0.0
 11
1689.851014127787
 21
3122.319200872362
 31
0.0
 12
1733.851014127787
 22
3129.652534205695
 32
0.0
 13
1733.851014127787
 23
3129.652534205695
 33
0.0
  0
LINE
  5
15E5
330
1F
100
AcDbEntity
  8
SUNPO
 62
   144
100
AcDbLine
 10
1733.851014127787
 20
2853.515747133855
 30
0.0
 11
1733.851014127787
 21
3359.8932986298
 31
0.0
  0
LINE
  5
15E6
330
1F
100
AcDbEntity
  8
SUNPO
 62
   144
100
AcDbLine
 10
1913.851014127787
 20
2853.515747133855
 30
0.0
 11
1913.851014127787
 21
3359.8932986298
 31
0.0
  0
LINE
  5
15E7
330
1F
100
AcDbEntity
  8
SUNPO
 62
   144
100
AcDbLine
 10
1777.851014127787
 20
3349.893298629801
 30
0.0
 11
1869.851014127787
 21
3349.893298629801
 31
0.0
  0
SOLID
  5
15E8
330
1F
100
AcDbEntity
  8
SUNPO
 62
   144
100
AcDbTrace
 10
1777.851014127787
 20
3357.226631963134
 30
0.0
 11
1777.851014127787
 21
3342.559965296467
 31
0.0
 12
1733.851014127787
 22
3349.893298629801
 32
0.0
 13
1733.851014127787
 23
3349.893298629801
 33
0.0
  0
SOLID
  5
15E9
330
1F
100
AcDbEntity
  8
SUNPO
 62
   144
100
AcDbTrace
 10
1869.851014127787
 20
3357.226631963134
 30
0.0
 11
1869.851014127787
 21
3342.559965296467
 31
0.0
 12
1913.851014127787
 22
3349.893298629801
 32
0.0
 13
1913.851014127787
 23
3349.893298629801
 33
0.0
  0
TEXT
  5
15EB
330
1F
100
AcDbEntity
  8
SUNPO
100
AcDbText
 10
3246.680311730542
 20
359.2274732162223
 30
0.0
 40
70.0
  1
１／２０
  7
ADD
100
AcDbText
1001
ACAD
1000
MTEXTBEGIN
1070
    73
1070
     1
1070
    44
1040
1.0
1070
    74
1070
     0
1000
MTEXTEND
  0
TEXT
  5
15EC
330
1F
100
AcDbEntity
  8
SUNPO
100
AcDbText
 10
381.8862574011546
 20
488.6918916770627
 30
0.0
 40
50.0
  1
製品名
  7
ADD
100
AcDbText
1001
ACAD
1000
MTEXTBEGIN
1070
    73
1070
     1
1070
    44
1040
1.0
1070
    74
1070
     0
1000
MTEXTEND
  0
TEXT
  5
15ED
330
1F
100
AcDbEntity
  8
SUNPO
100
AcDbText
 10
2376.290169028722
 20
494.4531736811823
 30
0.0
 40
50.0
  1
型式
  7
ADD
100
AcDbText
1001
ACAD
1000
MTEXTBEGIN
1070
    73
1070
     1
1070
    44
1040
1.0
1070
    74
1070
     0
1000
MTEXTEND
  0
TEXT
  5
15EE
330
1F
100
AcDbEntity
  8
SUNPO
100
AcDbText
 10
3177.510249231658
 20
488.6918916770627
 30
0.0
 40
50.0
  1
縮尺
  7
ADD
100
AcDbText
1001
ACAD
1000
MTEXTBEGIN
1070
    73
1070
     1
1070
    44
1040
1.0
1070
    74
1070
     0
1000
MTEXTEND
  0
TEXT
  5
15EF
330
1F
100
AcDbEntity
  8
SUNPO
100
AcDbText
 10
3730.870883051572
 20
352.2726133092145
 30
0.0
 40
100.0
  1
千葉県コンクリート製品協同組合
  7
ADD
100
AcDbText
1001
ACAD
1000
MTEXTBEGIN
1070
    73
1070
     1
1070
    44
1040
1.0
1070
    74
1070
     0
1000
MTEXTEND
  0
LINE
  5
15F0
330
1F
100
AcDbEntity
  8
HOJO
100
AcDbLine
 10
360.0
 20
260.0
 30
0.0
 11
5580.0
 21
260.0
 31
0.0
  0
LINE
  5
15F1
330
1F
100
AcDbEntity
  8
HOJO
100
AcDbLine
 10
5580.0
 20
260.0
 30
0.0
 11
5580.0
 21
3940.0
 31
0.0
  0
LINE
  5
15F2
330
1F
100
AcDbEntity
  8
HOJO
100
AcDbLine
 10
5580.0
 20
3940.0
 30
0.0
 11
360.0
 21
3940.0
 31
0.0
  0
LINE
  5
15F3
330
1F
100
AcDbEntity
  8
HOJO
100
AcDbLine
 10
360.0
 20
3940.0
 30
0.0
 11
360.0
 21
260.0
 31
0.0
  0
LINE
  5
15F4
330
1F
100
AcDbEntity
  8
HOJO
100
AcDbLine
 10
0.0
 20
0.0
 30
0.0
 11
5940.0
 21
0.0
 31
0.0
  0
LINE
  5
15F5
330
1F
100
AcDbEntity
  8
HOJO
100
AcDbLine
 10
5940.0
 20
0.0
 30
0.0
 11
5940.0
 21
4200.0
 31
0.0
  0
LINE
  5
15F6
330
1F
100
AcDbEntity
  8
HOJO
100
AcDbLine
 10
5940.0
 20
4200.0
 30
0.0
 11
0.0
 21
4200.0
 31
0.0
  0
LINE
  5
15F7
330
1F
100
AcDbEntity
  8
HOJO
100
AcDbLine
 10
0.0
 20
4200.0
 30
0.0
 11
0.0
 21
0.0
 31
0.0
  0
TEXT
  5
15F8
330
1F
100
AcDbEntity
  8
SUNPO
 62
     7
100
AcDbText
 10
1748.851014127787
 20
3362.3932986298
 30
0.0
 40
50.0
  1
180
  7
ADD
100
AcDbText
1001
ACAD
1000
MTEXTBEGIN
1070
    73
1070
     1
1070
    44
1040
1.0
1070
    74
1070
     0
1000
MTEXTEND
  0
TEXT
  5
15F9
330
1F
100
AcDbEntity
  8
SUNPO
 62
     7
100
AcDbText
 10
1631.197760894423
 20
3141.06195020692
 30
0.0
 40
50.0
  1
50
  7
ADD
100
AcDbText
1001
ACAD
1000
MTEXTBEGIN
1070
    73
1070
     1
1070
    44
1040
1.0
1070
    74
1070
     0
1000
MTEXTEND
  0
TEXT
  5
15FA
330
1F
100
AcDbEntity
  8
SUNPO
 62
     7
100
AcDbText
 10
1913.628502474132
 20
3140.111431258288
 30
0.0
 40
50.0
  1
50
  7
ADD
100
AcDbText
1001
ACAD
1000
MTEXTBEGIN
1070
    73
1070
     1
1070
    44
1040
1.0
1070
    74
1070
     0
1000
MTEXTEND
  0
TEXT
  5
15FB
330
1F
100
AcDbEntity
  8
SUNPO
 62
     7
100
AcDbText
 10
1776.23196650874
 20
3142.152534205695
 30
0.0
 40
50.0
  1
70
  7
ADD
100
AcDbText
1001
ACAD
1000
MTEXTBEGIN
1070
    73
1070
     1
1070
    44
1040
1.0
1070
    74
1070
     0
1000
MTEXTEND
  0
TEXT
  5
15FC
330
1F
100
AcDbEntity
  8
SUNPO
 62
     7
100
AcDbText
 10
1762.541490318263
 20
3009.084140669775
 30
0.0
 40
50.0
  1
5
  7
ADD
100
AcDbText
1001
ACAD
1000
MTEXTBEGIN
1070
    73
1070
     1
1070
    44
1040
1.0
1070
    74
1070
     0
1000
MTEXTEND
  0
TEXT
  5
15FD
330
1F
100
AcDbEntity
  8
SUNPO
 62
     7
100
AcDbText
 10
1837.541490318263
 20
3009.084140669775
 30
0.0
 40
50.0
  1
5
  7
ADD
100
AcDbText
1001
ACAD
1000
MTEXTBEGIN
1070
    73
1070
     1
1070
    44
1040
1.0
1070
    74
1070
     0
1000
MTEXTEND
  0
TEXT
  5
15FE
330
1F
100
AcDbEntity
  8
SUNPO
 62
     7
100
AcDbText
 10
2393.851014127787
 20
3142.152534205695
 30
0.0
 40
50.0
  1
110
  7
ADD
100
AcDbText
1001
ACAD
1000
MTEXTBEGIN
1070
    73
1070
     1
1070
    44
1040
1.0
1070
    74
1070
     0
1000
MTEXTEND
  0
TEXT
  5
15FF
330
1F
100
AcDbEntity
  8
SUNPO
 62
     7
100
AcDbText
 10
3325.041490318263
 20
3142.152534205695
 30
0.0
 40
50.0
  1
1800
  7
ADD
100
AcDbText
1001
ACAD
1000
MTEXTBEGIN
1070
    73
1070
     1
1070
    44
1040
1.0
1070
    74
1070
     0
1000
MTEXTEND
  0
TEXT
  5
1600
330
1F
100
AcDbEntity
  8
SUNPO
 62
     7
100
AcDbText
 10
4303.851014127787
 20
3142.152534205695
 30
0.0
 40
50.0
  1
110
  7
ADD
100
AcDbText
1001
ACAD
1000
MTEXTBEGIN
1070
    73
1070
     1
1070
    44
1040
1.0
1070
    74
1070
     0
1000
MTEXTEND
  0
TEXT
  5
1601
330
1F
100
AcDbEntity
  8
SUNPO
 62
     7
100
AcDbText
 10
2445.071076124277
 20
3009.084140669775
 30
0.0
 40
50.0
  1
60
  7
ADD
100
AcDbText
1001
ACAD
1000
MTEXTBEGIN
1070
    73
1070
     1
1070
    44
1040
1.0
1070
    74
1070
     0
1000
MTEXTEND
  0
TEXT
  5
1602
330
1F
100
AcDbEntity
  8
SUNPO
 62
     7
100
AcDbText
 10
4305.01190451225
 20
3009.084140669775
 30
0.0
 40
50.0
  1
60
  7
ADD
100
AcDbText
1001
ACAD
1000
MTEXTBEGIN
1070
    73
1070
     1
1070
    44
1040
1.0
1070
    74
1070
     0
1000
MTEXTEND
  0
TEXT
  5
1603
330
1F
100
AcDbEntity
  8
SUNPO
 62
     7
100
AcDbText
 10
2077.895839392869
 20
2209.706223324331
 30
0.0
 40
50.0
  1
1050
 50
90.0
  7
ADD
100
AcDbText
1001
ACAD
1000
MTEXTBEGIN
1070
    73
1070
     1
1070
    44
1040
1.0
1070
    74
1070
     0
1000
MTEXTEND
  0
TEXT
  5
1604
330
1F
100
AcDbEntity
  8
SUNPO
 62
     7
100
AcDbText
 10
2244.161215995016
 20
1783.515747133855
 30
0.0
 40
50.0
  1
150
 50
90.0
  7
ADD
100
AcDbText
1001
ACAD
1000
MTEXTBEGIN
1070
    73
1070
     1
1070
    44
1040
1.0
1070
    74
1070
     0
1000
MTEXTEND
  0
TEXT
  5
1605
330
1F
100
AcDbEntity
  8
SUNPO
 62
     7
100
AcDbText
 10
2244.161215995016
 20
2312.087175705284
 30
0.0
 40
50.0
  1
900
 50
90.0
  7
ADD
100
AcDbText
1001
ACAD
1000
MTEXTBEGIN
1070
    73
1070
     1
1070
    44
1040
1.0
1070
    74
1070
     0
1000
MTEXTEND
  0
TEXT
  5
1606
330
1F
100
AcDbEntity
  8
SUNPO
 62
     7
100
AcDbText
 10
1748.851014127787
 20
1251.274390045935
 30
0.0
 40
50.0
  1
180
  7
ADD
100
AcDbText
1001
ACAD
1000
MTEXTBEGIN
1070
    73
1070
     1
1070
    44
1040
1.0
1070
    74
1070
     0
1000
MTEXTEND
  0
TEXT
  5
1607
330
1F
100
AcDbEntity
  8
SUNPO
 62
     7
100
AcDbText
 10
2595.526808893712
 20
2149.249979603863
 30
0.0
 40
50.0
  1
20
  7
ADD
100
AcDbText
1001
ACAD
1000
MTEXTBEGIN
1070
    73
1070
     1
1070
    44
1040
1.0
1070
    74
1070
     0
1000
MTEXTEND
  0
TEXT
  5
1608
330
1F
100
AcDbEntity
  8
SUNPO
 62
     7
100
AcDbText
 10
2806.667042655039
 20
1976.10205452642
 30
0.0
 40
50.0
  1
20
 50
90.0
  7
ADD
100
AcDbText
1001
ACAD
1000
MTEXTBEGIN
1070
    73
1070
     1
1070
    44
1040
1.0
1070
    74
1070
     0
1000
MTEXTEND
  0
TEXT
  5
1609
330
1F
100
AcDbEntity
  8
SUNPO
 62
     7
100
AcDbText
 10
3328.612918889692
 20
1241.274390045935
 30
0.0
 40
50.0
  1
2020
  7
ADD
100
AcDbText
1001
ACAD
1000
MTEXTBEGIN
1070
    73
1070
     1
1070
    44
1040
1.0
1070
    74
1070
     0
1000
MTEXTEND
  0
TEXT
  5
160A
330
1F
100
AcDbEntity
  8
SUNPO
 62
     7
100
AcDbText
 10
2413.851014127788
 20
1503.645068589895
 30
0.0
 40
50.0
  1
150
  7
ADD
100
AcDbText
1001
ACAD
1000
MTEXTBEGIN
1070
    73
1070
     1
1070
    44
1040
1.0
1070
    74
1070
     0
1000
MTEXTEND
  0
TEXT
  5
160B
330
1F
100
AcDbEntity
  8
SUNPO
 62
     7
100
AcDbText
 10
3325.041490318263
 20
1503.645068589895
 30
0.0
 40
50.0
  1
1720
  7
ADD
100
AcDbText
1001
ACAD
1000
MTEXTBEGIN
1070
    73
1070
     1
1070
    44
1040
1.0
1070
    74
1070
     0
1000
MTEXTEND
  0
TEXT
  5
160C
330
1F
100
AcDbEntity
  8
SUNPO
 62
     7
100
AcDbText
 10
4283.851014127787
 20
1503.645068589895
 30
0.0
 40
50.0
  1
150
  7
ADD
100
AcDbText
1001
ACAD
1000
MTEXTBEGIN
1070
    73
1070
     1
1070
    44
1040
1.0
1070
    74
1070
     0
1000
MTEXTEND
  0
VIEWPORT
  5
72
330
1B
100
AcDbEntity
 67
     1
  8
0
100
AcDbViewport
 10
429.8380103383459
 20
277.0
 30
0.0
 40
948.9782706766918
 41
628.4520000000001
 68
     1
 69
     1
1001
ACAD
1000
MVIEW
1002
{
1070
    16
1010
0.0
1020
0.0
1030
0.0
1010
0.0
1020
0.0
1030
1.0
1040
0.0
1040
628.4520000000001
1040
429.8380103383459
1040
277.0
1040
50.0
1040
0.0
1040
0.0
1070
     0
1070
   100
1070
     1
1070
     1
1070
     0
1070
     0
1070
     0
1070
     0
1040
0.0
1040
0.0
1040
0.0
1040
10.0
1040
10.0
1040
10.0
1040
10.0
1070
     0
1002
{
1002
}
1002
}
  0
VIEWPORT
  5
74
330
1B
100
AcDbEntity
 67
     1
  8
VIEWPORT
100
AcDbViewport
 10
414.3779638919211
 20
277.3177265058034
 30
0.0
 40
840.0353682728887
 41
567.2285469943826
 68
     2
 69
     2
1001
ACAD
1000
MVIEW
1002
{
1070
    16
1010
0.0
1020
0.0
1030
0.0
1010
0.0
1020
0.0
1030
1.0
1040
0.0
1040
579.5583043546323
1040
424.4938908624541
1040
286.1973242720074
1040
50.0
1040
0.0
1040
0.0
1070
     0
1070
   100
1070
     1
1070
     1
1070
     0
1070
     0
1070
     0
1070
     0
1040
0.0
1040
0.0
1040
0.0
1040
10.0
1040
10.0
1040
10.0
1040
10.0
1070
     0
1002
{
1002
}
1002
}
  0
ENDSEC
  0
SECTION
  2
OBJECTS
  0
DICTIONARY
  5
C
330
0
100
AcDbDictionary
  3
ACAD_GROUP
350
D
  3
ACAD_LAYOUT
350
1A
  3
ACAD_MLINESTYLE
350
17
  3
ACAD_PLOTSETTINGS
350
19
  3
DWGPROPS
350
4C7
1001
ACAD
1000
TREAT_AS_HARD
1070
     0
  0
DICTIONARY
  5
14DC
330
1F
100
AcDbDictionary
  3
ACAD_LAYOUTSELFREF
350
160F
1001
ACAD
1000
TREAT_AS_HARD
1070
     1
  0
DICTIONARY
  5
14DE
330
1B
100
AcDbDictionary
  3
ACAD_LAYOUTSELFREF
350
160E
1001
ACAD
1000
TREAT_AS_HARD
1070
     1
  0
DICTIONARY
  5
D
102
{ACAD_REACTORS
330
C
102
}
330
C
100
AcDbDictionary
1001
ACAD
1000
TREAT_AS_HARD
1070
     0
  0
DICTIONARY
  5
1A
102
{ACAD_REACTORS
330
C
102
}
330
C
100
AcDbDictionary
1001
ACAD
1000
TREAT_AS_HARD
1070
     0
  0
DICTIONARY
  5
17
102
{ACAD_REACTORS
330
C
102
}
330
C
100
AcDbDictionary
  3
STANDARD
350
18
1001
ACAD
1000
TREAT_AS_HARD
1070
     0
  0
DICTIONARY
  5
19
102
{ACAD_REACTORS
330
C
102
}
330
C
100
AcDbDictionary
1001
ACAD
1000
TREAT_AS_HARD
1070
     0
  0
XRECORD
  5
4C7
102
{ACAD_REACTORS
330
C
102
}
330
C
100
AcDbXrecord
  1
DWGPROPS COOKIE
  2
印刷用テスト
  3
AutoCAD2000による建築設計
  4
鈴木 裕二
  6

  7

  8
U2
  9

300
=
301
=
302
=
303
=
304
=
305
=
306
=
307
=
308
=
309
=
 40
0.7653446875
 41
2451285.4846114
 42
2451333.689743032
  1

 90
        0
  0
XRECORD
  5
160F
102
{ACAD_REACTORS
330
14DC
102
}
330
14DC
100
AcDbXrecord
340
1F
  0
XRECORD
  5
160E
102
{ACAD_REACTORS
330
14DE
102
}
330
14DE
100
AcDbXrecord
340
1B
  0
MLINESTYLE
  5
18
102
{ACAD_REACTORS
330
17
102
}
330
17
100
AcDbMlineStyle
  2
STANDARD
 70
     0
  3

 62
   256
 51
90.0
 52
90.0
 71
     2
 49
0.5
 62
   256
  6
BYLAYER
 49
-0.5
 62
   256
  6
BYLAYER
  0
ENDSEC
  0
EOF
