  0
SECTION
  2
HEADER
  9
$ACADVER
  1
AC1012
  9
$DWGCODEPAGE
  3
dos932
  9
$INSBASE
 10
0.0
 20
0.0
 30
0.0
  9
$EXTMIN
 10
0.0
 20
0.0
 30
0.0
  9
$EXTMAX
 10
5940.0
 20
4200.0
 30
0.0
  9
$LIMMIN
 10
0.0
 20
0.0
  9
$LIMMAX
 10
5940.0
 20
4200.0
  9
$ORTHOMODE
 70
     0
  9
$REGENMODE
 70
     1
  9
$FILLMODE
 70
     1
  9
$QTEXTMODE
 70
     0
  9
$MIRRTEXT
 70
     0
  9
$DRAGMODE
 70
     2
  9
$LTSCALE
 40
10.0
  9
$OSMODE
 70
    37
  9
$ATTMODE
 70
     1
  9
$TEXTSIZE
 40
50.0
  9
$TRACEWID
 40
1.0
  9
$TEXTSTYLE
  7
ADD
  9
$CLAYER
  8
SUNPO
  9
$CELTYPE
  6
BYLAYER
  9
$CECOLOR
 62
   256
  9
$CELTSCALE
 40
1.0
  9
$DELOBJ
 70
     1
  9
$DISPSILH
 70
     0
  9
$DIMSCALE
 40
20.0
  9
$DIMASZ
 40
2.5
  9
$DIMEXO
 40
1.0
  9
$DIMDLI
 40
7.0
  9
$DIMRND
 40
0.0
  9
$DIMDLE
 40
0.0
  9
$DIMEXE
 40
0.5
  9
$DIMTP
 40
0.0
  9
$DIMTM
 40
0.0
  9
$DIMTXT
 40
2.5
  9
$DIMCEN
 40
2.5
  9
$DIMTSZ
 40
0.0
  9
$DIMTOL
 70
     0
  9
$DIMLIM
 70
     0
  9
$DIMTIH
 70
     0
  9
$DIMTOH
 70
     0
  9
$DIMSE1
 70
     0
  9
$DIMSE2
 70
     0
  9
$DIMTAD
 70
     1
  9
$DIMZIN
 70
     8
  9
$DIMBLK
  1

  9
$DIMASO
 70
     1
  9
$DIMSHO
 70
     1
  9
$DIMPOST
  1

  9
$DIMAPOST
  1

  9
$DIMALT
 70
     0
  9
$DIMALTD
 70
     3
  9
$DIMALTF
 40
0.03937007874016
  9
$DIMLFAC
 40
1.0
  9
$DIMTOFL
 70
     1
  9
$DIMTVP
 40
0.7
  9
$DIMTIX
 70
     1
  9
$DIMSOXD
 70
     0
  9
$DIMSAH
 70
     0
  9
$DIMBLK1
  1

  9
$DIMBLK2
  1

  9
$DIMSTYLE
  2
ADD
  9
$DIMCLRD
 70
   144
  9
$DIMCLRE
 70
   144
  9
$DIMCLRT
 70
     7
  9
$DIMTFAC
 40
1.0
  9
$DIMGAP
 40
0.625
  9
$DIMJUST
 70
     0
  9
$DIMSD1
 70
     0
  9
$DIMSD2
 70
     0
  9
$DIMTOLJ
 70
     2
  9
$DIMTZIN
 70
     8
  9
$DIMALTZ
 70
     0
  9
$DIMALTTZ
 70
     0
  9
$DIMFIT
 70
     5
  9
$DIMUPT
 70
     0
  9
$DIMUNIT
 70
     2
  9
$DIMDEC
 70
     1
  9
$DIMTDEC
 70
     1
  9
$DIMALTU
 70
     2
  9
$DIMALTTD
 70
     3
  9
$DIMTXSTY
  7
ADD
  9
$DIMAUNIT
 70
     0
  9
$LUNITS
 70
     2
  9
$LUPREC
 70
     4
  9
$SKETCHINC
 40
1.0
  9
$FILLETRAD
 40
0.0
  9
$AUNITS
 70
     0
  9
$AUPREC
 70
     1
  9
$MENU
  1
.
  9
$ELEVATION
 40
0.0
  9
$PELEVATION
 40
0.0
  9
$THICKNESS
 40
0.0
  9
$LIMCHECK
 70
     0
  9
$BLIPMODE
 70
     0
  9
$CHAMFERA
 40
20.0
  9
$CHAMFERB
 40
20.0
  9
$CHAMFERC
 40
20.0
  9
$CHAMFERD
 40
0.0
  9
$SKPOLY
 70
     0
  9
$TDCREATE
 40
2451801.142532870
  9
$TDUPDATE
 40
2451865.578791932
  9
$TDINDWG
 40
0.1339768171
  9
$TDUSRTIMER
 40
0.1339768171
  9
$USRTIMER
 70
     1
  9
$ANGBASE
 50
0.0
  9
$ANGDIR
 70
     0
  9
$PDMODE
 70
     0
  9
$PDSIZE
 40
0.0
  9
$PLINEWID
 40
0.0
  9
$COORDS
 70
     2
  9
$SPLFRAME
 70
     0
  9
$SPLINETYPE
 70
     6
  9
$SPLINESEGS
 70
     8
  9
$ATTDIA
 70
     0
  9
$ATTREQ
 70
     1
  9
$HANDLING
 70
 10241
  9
$HANDSEED
  5
1839
  9
$SURFTAB1
 70
     6
  9
$SURFTAB2
 70
     6
  9
$SURFTYPE
 70
     6
  9
$SURFU
 70
     6
  9
$SURFV
 70
     6
  9
$UCSNAME
  2

  9
$UCSORG
 10
0.0
 20
0.0
 30
0.0
  9
$UCSXDIR
 10
1.0
 20
0.0
 30
0.0
  9
$UCSYDIR
 10
0.0
 20
1.0
 30
0.0
  9
$PUCSNAME
  2

  9
$PUCSORG
 10
0.0
 20
0.0
 30
0.0
  9
$PUCSXDIR
 10
1.0
 20
0.0
 30
0.0
  9
$PUCSYDIR
 10
0.0
 20
1.0
 30
0.0
  9
$USERI1
 70
     0
  9
$USERI2
 70
     0
  9
$USERI3
 70
     0
  9
$USERI4
 70
     0
  9
$USERI5
 70
     0
  9
$USERR1
 40
841.0
  9
$USERR2
 40
594.0
  9
$USERR3
 40
1.0
  9
$USERR4
 40
0.0
  9
$USERR5
 40
0.0
  9
$WORLDVIEW
 70
     1
  9
$SHADEDGE
 70
     3
  9
$SHADEDIF
 70
    70
  9
$TILEMODE
 70
     1
  9
$MAXACTVP
 70
    48
  9
$PINSBASE
 10
0.0
 20
0.0
 30
0.0
  9
$PLIMCHECK
 70
     0
  9
$PEXTMIN
 10
-5.662975978526674
 20
-6.331907780761866
 30
-0.0015258207003583
  9
$PEXTMAX
 10
834.4213426047982
 20
560.9663709967471
 30
0.0000000349246037
  9
$PLIMMIN
 10
-7.500000000000001
 20
-20.0
  9
$PLIMMAX
 10
833.5000000000002
 20
574.0000000000001
  9
$UNITMODE
 70
     0
  9
$VISRETAIN
 70
     1
  9
$PLINEGEN
 70
     0
  9
$PSLTSCALE
 70
     1
  9
$TREEDEPTH
 70
  3020
  9
$PICKSTYLE
 70
     1
  9
$CMLSTYLE
  2
STANDARD
  9
$CMLJUST
 70
     0
  9
$CMLSCALE
 40
20.0
  9
$SAVEIMAGES
 70
     1
  0
ENDSEC
  0
SECTION
  2
CLASSES
  0
CLASS
  1
ACDBDICTIONARYWDFLT
  2
AcDbDictionaryWithDefault
  3
AutoCAD 2000
 90
    32768
280
     0
281
     0
  0
CLASS
  1
ACDBPLACEHOLDER
  2
AcDbPlaceHolder
  3
AutoCAD 2000
 90
    32768
280
     0
281
     0
  0
CLASS
  1
LAYOUT
  2
AcDbLayout
  3
AutoCAD 2000
 90
    32768
280
     0
281
     0
  0
CLASS
  1
RTEXT
  2
RText
  3
RText|AutoCAD Express Tool|expresstools@autodesk.com
 90
    32768
280
     0
281
     1
  0
CLASS
  1
DICTIONARYVAR
  2
AcDbDictionaryVar
  3
AutoCAD 2000
 90
    32768
280
     0
281
     0
  0
CLASS
  1
LONG_TRANSACTION
  2
AcDbLongTransaction
  3
AutoCAD 2000
 90
    32768
280
     0
281
     0
  0
CLASS
  1
LWPOLYLINE
  2
AcDbPolyline
  3
AutoCAD 2000
 90
    32768
280
     0
281
     1
  0
CLASS
  1
HATCH
  2
AcDbHatch
  3
AutoCAD 2000
 90
    32768
280
     0
281
     1
  0
CLASS
  1
XRECORD
  2
AcDbXrecord
  3
AutoCAD 2000
 90
    32768
280
     0
281
     0
  0
CLASS
  1
LONG_TRANSACTION
  2
AcDbLongTransaction
  3
AutoCAD 2000
 90
    32768
280
     0
281
     0
  0
CLASS
  1
LWPOLYLINE
  2
AcDbPolyline
  3
AutoCAD 2000
 90
    32768
280
     0
281
     1
  0
CLASS
  1
HATCH
  2
AcDbHatch
  3
AutoCAD 2000
 90
    32768
280
     0
281
     1
  0
CLASS
  1
XRECORD
  2
AcDbXrecord
  3
AutoCAD 2000
 90
    32768
280
     0
281
     0
  0
ENDSEC
  0
SECTION
  2
TABLES
  0
TABLE
  2
VPORT
  5
8
330
0
100
AcDbSymbolTable
 70
     2
  0
VPORT
  5
1829
330
8
100
AcDbSymbolTableRecord
100
AcDbViewportTableRecord
  2
*ACTIVE
 70
     0
 10
0.0
 20
0.0
 11
1.0
 21
1.0
 12
3044.315819300189
 22
2100.000066011589
 13
0.0
 23
0.0
 14
10.0
 24
10.0
 15
10.0
 25
10.0
 16
0.0
 26
0.0
 36
1.0
 17
0.0
 27
0.0
 37
0.0
 40
4233.243944339456
 41
1.461638491547464
 42
50.0
 43
0.0
 44
0.0
 50
0.0
 51
0.0
 71
     0
 72
   100
 73
     1
 74
     1
 75
     0
 76
     0
 77
     0
 78
     0
  0
ENDTAB
  0
TABLE
  2
LTYPE
  5
5
330
0
100
AcDbSymbolTable
 70
     5
  0
LTYPE
  5
14
330
5
100
AcDbSymbolTableRecord
100
AcDbLinetypeTableRecord
  2
BYBLOCK
 70
     0
  3

 72
    65
 73
     0
 40
0.0
  0
LTYPE
  5
15
330
5
100
AcDbSymbolTableRecord
100
AcDbLinetypeTableRecord
  2
BYLAYER
 70
     0
  3

 72
    65
 73
     0
 40
0.0
  0
LTYPE
  5
16
330
5
100
AcDbSymbolTableRecord
100
AcDbLinetypeTableRecord
  2
CONTINUOUS
 70
     0
  3
Solid line
 72
    65
 73
     0
 40
0.0
  0
LTYPE
  5
555
330
5
100
AcDbSymbolTableRecord
100
AcDbLinetypeTableRecord
  2
CENTER
 70
     0
  3
Center ____ _ ____ _ ____ _ ____ _ ____ _ ____
 72
    65
 73
     4
 40
50.8
 49
31.75
 74
     0
 49
-6.349999999999999
 74
     0
 49
6.349999999999999
 74
     0
 49
-6.349999999999999
 74
     0
  0
LTYPE
  5
556
330
5
100
AcDbSymbolTableRecord
100
AcDbLinetypeTableRecord
  2
HIDDEN
 70
     0
  3
Hidden __ __ __ __ __ __ __ __ __ __ __ __ __ _
 72
    65
 73
     2
 40
9.524999999999998
 49
6.349999999999999
 74
     0
 49
-3.174999999999999
 74
     0
  0
LTYPE
  5
557
330
5
100
AcDbSymbolTableRecord
100
AcDbLinetypeTableRecord
  2
HIDDEN2
 70
     0
  3
Hidden (.5x) _ _ _ _ _ _ _ _ _ _ _ _ _ _ _ _ _
 72
    65
 73
     2
 40
4.762499999999999
 49
3.174999999999999
 74
     0
 49
-1.587499999999999
 74
     0
  0
LTYPE
  5
558
330
5
100
AcDbSymbolTableRecord
100
AcDbLinetypeTableRecord
  2
PHANTOM
 70
     0
  3
Phantom ______  __  __  ______  __  __  ______
 72
    65
 73
     6
 40
63.5
 49
31.75
 74
     0
 49
-6.349999999999999
 74
     0
 49
6.349999999999999
 74
     0
 49
-6.349999999999999
 74
     0
 49
6.349999999999999
 74
     0
 49
-6.349999999999999
 74
     0
  0
ENDTAB
  0
TABLE
  2
LAYER
  5
2
330
0
100
AcDbSymbolTable
 70
    22
  0
LAYER
  5
10
330
2
100
AcDbSymbolTableRecord
100
AcDbLayerTableRecord
  2
0
 70
     0
 62
     7
  6
CONTINUOUS
  0
LAYER
  5
75
330
2
100
AcDbSymbolTableRecord
100
AcDbLayerTableRecord
  2
VIEWPORT
 70
     0
 62
     1
  6
CONTINUOUS
  0
LAYER
  5
504
330
2
100
AcDbSymbolTableRecord
100
AcDbLayerTableRecord
  2
DEFPOINTS
 70
     0
 62
     7
  6
CONTINUOUS
  0
LAYER
  5
505
330
2
100
AcDbSymbolTableRecord
100
AcDbLayerTableRecord
  2
1C1
 70
     0
 62
   254
  6
CONTINUOUS
  0
LAYER
  5
506
330
2
100
AcDbSymbolTableRecord
100
AcDbLayerTableRecord
  2
1C2
 70
     0
 62
   254
  6
CONTINUOUS
  0
LAYER
  5
507
330
2
100
AcDbSymbolTableRecord
100
AcDbLayerTableRecord
  2
2C1
 70
     0
 62
   144
  6
CONTINUOUS
  0
LAYER
  5
508
330
2
100
AcDbSymbolTableRecord
100
AcDbLayerTableRecord
  2
2C2
 70
     0
 62
   144
  6
CONTINUOUS
  0
LAYER
  5
509
330
2
100
AcDbSymbolTableRecord
100
AcDbLayerTableRecord
  2
2H1
 70
     0
 62
   144
  6
HIDDEN
  0
LAYER
  5
50A
330
2
100
AcDbSymbolTableRecord
100
AcDbLayerTableRecord
  2
2H2
 70
     0
 62
   144
  6
HIDDEN2
  0
LAYER
  5
50B
330
2
100
AcDbSymbolTableRecord
100
AcDbLayerTableRecord
  2
2P1
 70
     0
 62
   144
  6
PHANTOM
  0
LAYER
  5
50C
330
2
100
AcDbSymbolTableRecord
100
AcDbLayerTableRecord
  2
3C1
 70
     0
 62
     7
  6
CONTINUOUS
  0
LAYER
  5
50D
330
2
100
AcDbSymbolTableRecord
100
AcDbLayerTableRecord
  2
3C2
 70
     0
 62
     7
  6
CONTINUOUS
  0
LAYER
  5
50E
330
2
100
AcDbSymbolTableRecord
100
AcDbLayerTableRecord
  2
3C3
 70
     0
 62
     7
  6
CONTINUOUS
  0
LAYER
  5
50F
330
2
100
AcDbSymbolTableRecord
100
AcDbLayerTableRecord
  2
4H1
 70
     0
 62
     6
  6
HIDDEN
  0
LAYER
  5
510
330
2
100
AcDbSymbolTableRecord
100
AcDbLayerTableRecord
  2
4H2
 70
     0
 62
     6
  6
HIDDEN2
  0
LAYER
  5
511
330
2
100
AcDbSymbolTableRecord
100
AcDbLayerTableRecord
  2
5C1
 70
     0
 62
    55
  6
CONTINUOUS
  0
LAYER
  5
512
330
2
100
AcDbSymbolTableRecord
100
AcDbLayerTableRecord
  2
5C2
 70
     0
 62
    55
  6
CONTINUOUS
  0
LAYER
  5
513
330
2
100
AcDbSymbolTableRecord
100
AcDbLayerTableRecord
  2
8C1
 70
     0
 62
    92
  6
CONTINUOUS
  0
LAYER
  5
514
330
2
100
AcDbSymbolTableRecord
100
AcDbLayerTableRecord
  2
HOJO
 70
     0
 62
     5
  6
CONTINUOUS
  0
LAYER
  5
515
330
2
100
AcDbSymbolTableRecord
100
AcDbLayerTableRecord
  2
KIJUN
 70
     0
 62
     1
  6
CENTER
  0
LAYER
  5
516
330
2
100
AcDbSymbolTableRecord
100
AcDbLayerTableRecord
  2
MOJI
 70
     0
 62
     7
  6
CONTINUOUS
  0
LAYER
  5
517
330
2
100
AcDbSymbolTableRecord
100
AcDbLayerTableRecord
  2
SUNPO
 70
     0
 62
   144
  6
CONTINUOUS
  0
ENDTAB
  0
TABLE
  2
STYLE
  5
3
330
0
100
AcDbSymbolTable
 70
     6
  0
STYLE
  5
11
330
3
100
AcDbSymbolTableRecord
100
AcDbTextStyleTableRecord
  2
STANDARD
 70
     0
 40
0.0
 41
1.0
 50
0.0
 71
     0
 42
2.5
  3
txt
  4

  0
STYLE
  5
2C
330
3
100
AcDbSymbolTableRecord
100
AcDbTextStyleTableRecord
  2

 70
     1
 40
0.0
 41
1.0
 50
0.0
 71
     0
 42
2.5
  3
ltypeshp.shx
  4

  0
STYLE
  5
18E
330
3
100
AcDbSymbolTableRecord
100
AcDbTextStyleTableRecord
  2
ADD
 70
     0
 40
0.0
 41
1.0
 50
0.0
 71
     0
 42
50.0
  3
romans.shx
  4
bigfont.shx
  0
STYLE
  5
191
330
3
100
AcDbSymbolTableRecord
100
AcDbTextStyleTableRecord
  2
MSG
 70
     0
 40
0.0
 41
1.0
 50
0.0
 71
     0
 42
2.5
  3
MS Gothic.ttf
  4

1001
ACAD
1000
MS Gothic
1071
    32817
  0
STYLE
  5
5C8
330
3
100
AcDbSymbolTableRecord
100
AcDbTextStyleTableRecord
  2
STANDARD15
 70
     0
 40
0.0
 41
1.0
 50
15.0
 71
     0
 42
2.5
  3
ROMANS
  4
bigfont
  0
STYLE
  5
5C9
330
3
100
AcDbSymbolTableRecord
100
AcDbTextStyleTableRecord
  2
ROMANS15
 70
     0
 40
0.0
 41
1.0
 50
15.0
 71
     0
 42
2.5
  3
romans
  4

  0
ENDTAB
  0
TABLE
  2
VIEW
  5
6
330
0
100
AcDbSymbolTable
 70
     1
  0
VIEW
  5
54D
330
6
100
AcDbSymbolTableRecord
100
AcDbViewTableRecord
  2
ALL
 70
     0
 40
594.0
 10
420.5
 20
297.0
 41
865.125
 11
0.0
 21
0.0
 31
1.0
 12
0.0
 22
0.0
 32
0.0
 42
50.0
 43
0.0
 44
0.0
 50
0.0
 71
     0
  0
ENDTAB
  0
TABLE
  2
UCS
  5
7
330
0
100
AcDbSymbolTable
 70
     0
  0
ENDTAB
  0
TABLE
  2
APPID
  5
9
330
0
100
AcDbSymbolTable
 70
     4
  0
APPID
  5
12
330
9
100
AcDbSymbolTableRecord
100
AcDbRegAppTableRecord
  2
ACAD
 70
     0
  0
APPID
  5
5CB
330
9
100
AcDbSymbolTableRecord
100
AcDbRegAppTableRecord
  2
ARAIGUMI_YOHEKI
 70
     0
  0
APPID
  5
5CC
330
9
100
AcDbSymbolTableRecord
100
AcDbRegAppTableRecord
  2
CONTENTTABDATA
 70
     0
  0
APPID
  5
5CD
330
9
100
AcDbSymbolTableRecord
100
AcDbRegAppTableRecord
  2
CONTENTCURRENTTAB
 70
     0
  0
ENDTAB
  0
TABLE
  2
DIMSTYLE
  5
A
330
0
100
AcDbSymbolTable
 70
    10
  0
DIMSTYLE
105
27
330
A
100
AcDbSymbolTableRecord
100
AcDbDimStyleTableRecord
  2
ISO-25
 70
     0
  3

  4

  5

  6

  7

 40
1.0
 41
2.5
 42
0.625
 43
3.75
 44
1.25
 45
0.0
 46
0.0
 47
0.0
 48
0.0
140
2.5
141
2.5
142
0.0
143
0.03937007874016
144
1.0
145
0.0
146
1.0
147
0.625
 71
     0
 72
     0
 73
     0
 74
     0
 75
     0
 76
     0
 77
     1
 78
     8
170
     0
171
     3
172
     1
173
     0
174
     0
175
     0
176
     0
177
     0
178
     0
270
     2
271
     2
272
     2
273
     2
274
     3
340
11
275
     0
280
     0
281
     0
282
     0
283
     0
284
     8
285
     0
286
     0
287
     3
288
     0
  0
DIMSTYLE
105
197
330
A
100
AcDbSymbolTableRecord
100
AcDbDimStyleTableRecord
  2
ADD
 70
     0
  3

  4

  5

  6

  7

 40
1.0
 41
2.5
 42
1.0
 43
7.0
 44
0.5
 45
0.0
 46
0.0
 47
0.0
 48
0.0
140
2.5
141
2.5
142
0.0
143
0.03937007874016
144
1.0
145
0.7
146
1.0
147
0.625
 71
     0
 72
     0
 73
     0
 74
     0
 75
     0
 76
     0
 77
     1
 78
     8
170
     0
171
     3
172
     1
173
     0
174
     1
175
     0
176
   144
177
   144
178
     7
270
     2
271
     1
272
     1
273
     2
274
     3
340
18E
275
     0
280
     0
281
     0
282
     0
283
     2
284
     8
285
     0
286
     0
287
     5
288
     0
  0
DIMSTYLE
105
3E6
330
A
100
AcDbSymbolTableRecord
100
AcDbDimStyleTableRecord
  2
ADD$2
 70
     0
  3

  4

  5

  6

  7

 40
1.0
 41
2.5
 42
1.0
 43
7.0
 44
0.5
 45
0.0
 46
0.0
 47
0.0
 48
0.0
140
2.5
141
2.5
142
0.0
143
0.03937007874016
144
1.0
145
0.7
146
1.0
147
0.625
 71
     0
 72
     0
 73
     0
 74
     0
 75
     0
 76
     0
 77
     1
 78
     8
170
     0
171
     3
172
     1
173
     0
174
     1
175
     0
176
   144
177
   144
178
     7
270
     2
271
     1
272
     1
273
     2
274
     3
340
18E
275
     0
280
     0
281
     0
282
     0
283
     2
284
     8
285
     0
286
     0
287
     5
288
     0
  0
DIMSTYLE
105
3E7
330
A
100
AcDbSymbolTableRecord
100
AcDbDimStyleTableRecord
  2
ADD$4
 70
     0
  3

  4

  5

  6

  7

 40
1.0
 41
2.5
 42
1.0
 43
7.0
 44
0.5
 45
0.0
 46
0.0
 47
0.0
 48
0.0
140
2.5
141
2.5
142
0.0
143
0.03937007874016
144
1.0
145
0.0
146
1.0
147
0.625
 71
     0
 72
     0
 73
     0
 74
     0
 75
     0
 76
     0
 77
     1
 78
     8
170
     0
171
     3
172
     1
173
     0
174
     1
175
     0
176
   144
177
   144
178
     7
270
     2
271
     1
272
     1
273
     2
274
     3
340
18E
275
     0
280
     0
281
     0
282
     0
283
     2
284
     8
285
     0
286
     0
287
     5
288
     0
  0
DIMSTYLE
105
3E8
330
A
100
AcDbSymbolTableRecord
100
AcDbDimStyleTableRecord
  2
ADD$3
 70
     0
  3

  4

  5

  6

  7

 40
1.0
 41
2.5
 42
1.0
 43
7.0
 44
0.5
 45
0.0
 46
0.0
 47
0.0
 48
0.0
140
2.5
141
2.5
142
0.0
143
0.03937007874016
144
1.0
145
0.0
146
1.0
147
0.625
 71
     0
 72
     0
 73
     0
 74
     0
 75
     0
 76
     0
 77
     1
 78
     8
170
     0
171
     3
172
     1
173
     0
174
     1
175
     0
176
   144
177
   144
178
     7
270
     2
271
     1
272
     1
273
     2
274
     3
340
18E
275
     0
280
     0
281
     0
282
     0
283
     2
284
     8
285
     0
286
     0
287
     5
288
     0
  0
DIMSTYLE
105
3E9
330
A
100
AcDbSymbolTableRecord
100
AcDbDimStyleTableRecord
  2
ADD$6
 70
     0
  3

  4

  5

  6

  7

 40
1.0
 41
2.5
 42
1.0
 43
7.0
 44
0.5
 45
0.0
 46
0.0
 47
0.0
 48
0.0
140
2.5
141
2.5
142
0.0
143
0.03937007874016
144
1.0
145
0.0
146
1.0
147
0.625
 71
     0
 72
     0
 73
     0
 74
     0
 75
     0
 76
     0
 77
     1
 78
     8
170
     0
171
     3
172
     1
173
     0
174
     1
175
     0
176
   144
177
   144
178
     7
270
     2
271
     1
272
     1
273
     2
274
     3
340
18E
275
     0
280
     0
281
     0
282
     0
283
     2
284
     8
285
     0
286
     0
287
     5
288
     0
  0
DIMSTYLE
105
3EA
330
A
100
AcDbSymbolTableRecord
100
AcDbDimStyleTableRecord
  2
ADD$7
 70
     0
  3

  4

  5

  6

  7

 40
1.0
 41
2.5
 42
1.0
 43
7.0
 44
0.5
 45
0.0
 46
0.0
 47
0.0
 48
0.0
140
2.5
141
2.5
142
0.0
143
0.03937007874016
144
1.0
145
0.0
146
1.0
147
0.625
 71
     0
 72
     0
 73
     0
 74
     0
 75
     0
 76
     0
 77
     0
 78
     8
170
     0
171
     3
172
     1
173
     0
174
     1
175
     0
176
   144
177
   144
178
     7
270
     2
271
     1
272
     1
273
     2
274
     3
340
18E
275
     0
280
     0
281
     0
282
     0
283
     2
284
     8
285
     0
286
     0
287
     5
288
     0
  0
DIMSTYLE
105
518
330
A
100
AcDbSymbolTableRecord
100
AcDbDimStyleTableRecord
  2
STANDARD
 70
     0
  3

  4

  5

  6

  7

 40
1.0
 41
0.18
 42
0.0625
 43
0.38
 44
0.18
 45
0.0
 46
0.0
 47
0.0
 48
0.0
140
0.18
141
0.09
142
0.0
143
25.4
144
1.0
145
0.0
146
1.0
147
0.09
 71
     0
 72
     0
 73
     1
 74
     1
 75
     0
 76
     0
 77
     0
 78
     0
170
     0
171
     2
172
     0
173
     0
174
     0
175
     0
176
     0
177
     0
178
     0
270
     2
271
     4
272
     4
273
     2
274
     2
340
11
275
     0
280
     0
281
     0
282
     0
283
     1
284
     0
285
     0
286
     0
287
     3
288
     0
  0
DIMSTYLE
105
550
102
{ACAD_REACTORS
330
10F6
330
10E9
330
10DC
330
10CD
330
10A0
330
108C
330
106D
330
100A
330
FFD
330
FF0
330
FB5
330
FA6
330
F97
330
F8A
330
F7B
330
F6C
330
F5D
330
F0C
330
EFD
330
EEE
330
E8F
102
}
330
A
100
AcDbSymbolTableRecord
100
AcDbDimStyleTableRecord
  2
ADD$0
 70
     0
  3

  4

  5

  6

  7

 40
1.0
 41
2.2
 42
1.0
 43
7.0
 44
0.5
 45
0.0
 46
0.0
 47
0.0
 48
0.0
140
2.5
141
2.5
142
0.0
143
0.03937007874016
144
1.0
145
0.7
146
1.0
147
0.625
 71
     0
 72
     0
 73
     0
 74
     0
 75
     0
 76
     0
 77
     1
 78
     8
170
     0
171
     3
172
     1
173
     0
174
     1
175
     0
176
   144
177
   144
178
     7
270
     2
271
     1
272
     1
273
     2
274
     3
340
18E
275
     0
280
     0
281
     0
282
     0
283
     2
284
     8
285
     0
286
     0
287
     5
288
     0
  0
DIMSTYLE
105
59B
330
A
100
AcDbSymbolTableRecord
100
AcDbDimStyleTableRecord
  2
ADD_M
 70
     0
  3

  4

  5

  6

  7

 40
1.0
 41
2.5
 42
1.0
 43
7.0
 44
0.5
 45
0.0
 46
0.0
 47
0.0
 48
0.0
140
2.5
141
2.5
142
0.0
143
0.03937007874016
144
1.0
145
0.7
146
1.0
147
0.625
 71
     0
 72
     0
 73
     0
 74
     0
 75
     0
 76
     0
 77
     1
 78
     8
170
     0
171
     3
172
     1
173
     0
174
     1
175
     0
176
   144
177
   144
178
     7
270
     2
271
     1
272
     1
273
     2
274
     3
340
18E
275
     0
280
     0
281
     0
282
     0
283
     2
284
     8
285
     0
286
     0
287
     5
288
     0
  0
ENDTAB
  0
TABLE
  2
BLOCK_RECORD
  5
1
330
0
100
AcDbSymbolTable
 70
    25
  0
BLOCK_RECORD
  5
1F
102
{ACAD_XDICTIONARY
360
16F8
102
}
330
1
100
AcDbSymbolTableRecord
100
AcDbBlockTableRecord
  2
*MODEL_SPACE
  0
BLOCK_RECORD
  5
1B
102
{ACAD_XDICTIONARY
360
16FA
102
}
330
1
100
AcDbSymbolTableRecord
100
AcDbBlockTableRecord
  2
*PAPER_SPACE
  0
BLOCK_RECORD
  5
192
330
1
100
AcDbSymbolTableRecord
100
AcDbBlockTableRecord
  2
_DOT
  0
BLOCK_RECORD
  5
5CE
330
1
100
AcDbSymbolTableRecord
100
AcDbBlockTableRecord
  2
A4
  0
BLOCK_RECORD
  5
636
330
1
100
AcDbSymbolTableRecord
100
AcDbBlockTableRecord
  2
_OPEN90
  0
BLOCK_RECORD
  5
63C
330
1
100
AcDbSymbolTableRecord
100
AcDbBlockTableRecord
  2
_OPEN30
  0
BLOCK_RECORD
  5
E90
330
1
100
AcDbSymbolTableRecord
100
AcDbBlockTableRecord
  2
*D4
  0
BLOCK_RECORD
  5
EEF
330
1
100
AcDbSymbolTableRecord
100
AcDbBlockTableRecord
  2
*D5
  0
BLOCK_RECORD
  5
EFE
330
1
100
AcDbSymbolTableRecord
100
AcDbBlockTableRecord
  2
*D6
  0
BLOCK_RECORD
  5
F0D
330
1
100
AcDbSymbolTableRecord
100
AcDbBlockTableRecord
  2
*D7
  0
BLOCK_RECORD
  5
F5E
330
1
100
AcDbSymbolTableRecord
100
AcDbBlockTableRecord
  2
*D8
  0
BLOCK_RECORD
  5
F6D
330
1
100
AcDbSymbolTableRecord
100
AcDbBlockTableRecord
  2
*D9
  0
BLOCK_RECORD
  5
F7C
330
1
100
AcDbSymbolTableRecord
100
AcDbBlockTableRecord
  2
*D10
  0
BLOCK_RECORD
  5
F8B
330
1
100
AcDbSymbolTableRecord
100
AcDbBlockTableRecord
  2
*D11
  0
BLOCK_RECORD
  5
F98
330
1
100
AcDbSymbolTableRecord
100
AcDbBlockTableRecord
  2
*D12
  0
BLOCK_RECORD
  5
FA7
330
1
100
AcDbSymbolTableRecord
100
AcDbBlockTableRecord
  2
*D13
  0
BLOCK_RECORD
  5
FB6
330
1
100
AcDbSymbolTableRecord
100
AcDbBlockTableRecord
  2
*D14
  0
BLOCK_RECORD
  5
FF1
330
1
100
AcDbSymbolTableRecord
100
AcDbBlockTableRecord
  2
*D15
  0
BLOCK_RECORD
  5
FFE
330
1
100
AcDbSymbolTableRecord
100
AcDbBlockTableRecord
  2
*D16
  0
BLOCK_RECORD
  5
100B
330
1
100
AcDbSymbolTableRecord
100
AcDbBlockTableRecord
  2
*D17
  0
BLOCK_RECORD
  5
106E
330
1
100
AcDbSymbolTableRecord
100
AcDbBlockTableRecord
  2
*D18
  0
BLOCK_RECORD
  5
108D
330
1
100
AcDbSymbolTableRecord
100
AcDbBlockTableRecord
  2
*D19
  0
BLOCK_RECORD
  5
10A1
330
1
100
AcDbSymbolTableRecord
100
AcDbBlockTableRecord
  2
*D20
  0
BLOCK_RECORD
  5
10CE
330
1
100
AcDbSymbolTableRecord
100
AcDbBlockTableRecord
  2
*D21
  0
BLOCK_RECORD
  5
10DD
330
1
100
AcDbSymbolTableRecord
100
AcDbBlockTableRecord
  2
*D22
  0
BLOCK_RECORD
  5
10EA
330
1
100
AcDbSymbolTableRecord
100
AcDbBlockTableRecord
  2
*D23
  0
BLOCK_RECORD
  5
10F7
330
1
100
AcDbSymbolTableRecord
100
AcDbBlockTableRecord
  2
*D24
  0
ENDTAB
  0
ENDSEC
  0
SECTION
  2
BLOCKS
  0
BLOCK
  5
20
330
1F
100
AcDbEntity
  8
0
100
AcDbBlockBegin
  2
*MODEL_SPACE
 70
     0
 10
0.0
 20
0.0
 30
0.0
  3
*MODEL_SPACE
  1

  0
ENDBLK
  5
21
330
1F
100
AcDbEntity
  8
0
100
AcDbBlockEnd
  0
BLOCK
  5
1C
330
1B
100
AcDbEntity
 67
     1
  8
0
100
AcDbBlockBegin
  2
*PAPER_SPACE
 70
     0
 10
0.0
 20
0.0
 30
0.0
  3
*PAPER_SPACE
  1

  0
ENDBLK
  5
1D
330
1B
100
AcDbEntity
 67
     1
  8
0
100
AcDbBlockEnd
  0
BLOCK
  5
195
330
192
100
AcDbEntity
  8
0
100
AcDbBlockBegin
  2
_DOT
 70
     0
 10
0.0
 20
0.0
 30
0.0
  3
_DOT
  1

  0
POLYLINE
  5
193
330
192
100
AcDbEntity
  8
0
 62
     0
100
AcDb2dPolyline
 66
     1
 10
0.0
 20
0.0
 30
0.0
 70
     1
 40
0.5
 41
0.5
  0
VERTEX
  5
182C
330
193
100
AcDbEntity
  8
0
 62
     0
100
AcDbVertex
100
AcDb2dVertex
 10
-0.25
 20
0.0
 30
0.0
 42
1.0
  0
VERTEX
  5
182D
330
193
100
AcDbEntity
  8
0
 62
     0
100
AcDbVertex
100
AcDb2dVertex
 10
0.25
 20
0.0
 30
0.0
 42
1.0
  0
SEQEND
  5
182E
330
193
100
AcDbEntity
  8
0
 62
     0
  0
LINE
  5
194
330
192
100
AcDbEntity
  8
0
 62
     0
100
AcDbLine
 10
-0.5
 20
0.0
 30
0.0
 11
-1.0
 21
0.0
 31
0.0
  0
ENDBLK
  5
196
330
192
100
AcDbEntity
  8
0
100
AcDbBlockEnd
  0
BLOCK
  5
5D1
330
5CE
100
AcDbEntity
  8
0
100
AcDbBlockBegin
  2
A4
 70
     0
 10
0.0
 20
0.0
 30
0.0
  3
A4
  1

  0
POLYLINE
  5
5CF
330
5CE
100
AcDbEntity
  8
HOJO
100
AcDb2dPolyline
 66
     1
 10
0.0
 20
0.0
 30
0.0
 70
     1
  0
VERTEX
  5
182F
330
5CF
100
AcDbEntity
  8
HOJO
100
AcDbVertex
100
AcDb2dVertex
 10
0.0
 20
0.0
 30
0.0
  0
VERTEX
  5
1830
330
5CF
100
AcDbEntity
  8
HOJO
100
AcDbVertex
100
AcDb2dVertex
 10
297.0
 20
0.0
 30
0.0
  0
VERTEX
  5
1831
330
5CF
100
AcDbEntity
  8
HOJO
100
AcDbVertex
100
AcDb2dVertex
 10
297.0
 20
210.0
 30
0.0
  0
VERTEX
  5
1832
330
5CF
100
AcDbEntity
  8
HOJO
100
AcDbVertex
100
AcDb2dVertex
 10
0.0
 20
210.0
 30
0.0
  0
SEQEND
  5
1833
330
5CF
100
AcDbEntity
  8
HOJO
  0
POLYLINE
  5
5D0
330
5CE
100
AcDbEntity
  8
HOJO
100
AcDb2dPolyline
 66
     1
 10
0.0
 20
0.0
 30
0.0
 70
     1
  0
VERTEX
  5
1834
330
5D0
100
AcDbEntity
  8
HOJO
100
AcDbVertex
100
AcDb2dVertex
 10
18.0
 20
13.0
 30
0.0
  0
VERTEX
  5
1835
330
5D0
100
AcDbEntity
  8
HOJO
100
AcDbVertex
100
AcDb2dVertex
 10
279.0
 20
13.0
 30
0.0
  0
VERTEX
  5
1836
330
5D0
100
AcDbEntity
  8
HOJO
100
AcDbVertex
100
AcDb2dVertex
 10
279.0
 20
197.0
 30
0.0
  0
VERTEX
  5
1837
330
5D0
100
AcDbEntity
  8
HOJO
100
AcDbVertex
100
AcDb2dVertex
 10
18.0
 20
197.0
 30
0.0
  0
SEQEND
  5
1838
330
5D0
100
AcDbEntity
  8
HOJO
  0
ENDBLK
  5
5D2
330
5CE
100
AcDbEntity
  8
0
100
AcDbBlockEnd
  0
BLOCK
  5
63A
330
636
100
AcDbEntity
  8
0
100
AcDbBlockBegin
  2
_OPEN90
 70
     0
 10
0.0
 20
0.0
 30
0.0
  3
_OPEN90
  1

  0
LINE
  5
637
330
636
100
AcDbEntity
  8
SUNPO
 62
     0
100
AcDbLine
 10
-0.5
 20
0.5
 30
0.0
 11
0.0
 21
0.0
 31
0.0
  0
LINE
  5
638
330
636
100
AcDbEntity
  8
SUNPO
 62
     0
100
AcDbLine
 10
0.0
 20
0.0
 30
0.0
 11
-0.5
 21
-0.5
 31
0.0
  0
LINE
  5
639
330
636
100
AcDbEntity
  8
SUNPO
 62
     0
100
AcDbLine
 10
0.0
 20
0.0
 30
0.0
 11
-1.0
 21
0.0
 31
0.0
  0
ENDBLK
  5
63B
330
636
100
AcDbEntity
  8
0
100
AcDbBlockEnd
  0
BLOCK
  5
640
330
63C
100
AcDbEntity
  8
0
100
AcDbBlockBegin
  2
_OPEN30
 70
     0
 10
0.0
 20
0.0
 30
0.0
  3
_OPEN30
  1

  0
LINE
  5
63D
330
63C
100
AcDbEntity
  8
SUNPO
 62
     0
100
AcDbLine
 10
-1.0
 20
0.26794919
 30
0.0
 11
0.0
 21
0.0
 31
0.0
  0
LINE
  5
63E
330
63C
100
AcDbEntity
  8
SUNPO
 62
     0
100
AcDbLine
 10
0.0
 20
0.0
 30
0.0
 11
-1.0
 21
-0.26794919
 31
0.0
  0
LINE
  5
63F
330
63C
100
AcDbEntity
  8
SUNPO
 62
     0
100
AcDbLine
 10
0.0
 20
0.0
 30
0.0
 11
-1.0
 21
0.0
 31
0.0
  0
ENDBLK
  5
641
330
63C
100
AcDbEntity
  8
0
100
AcDbBlockEnd
  0
BLOCK
  5
E9A
330
E90
100
AcDbEntity
  8
0
100
AcDbBlockBegin
  2
*D4
 70
     1
 10
0.0
 20
0.0
 30
0.0
  3
*D4
  1

  0
LINE
  5
16B6
330
E90
100
AcDbEntity
  8
SUNPO
 62
   144
100
AcDbLine
 10
1333.851014127787
 20
2853.515747133855
 30
0.0
 11
1333.851014127787
 21
3359.8932986298
 31
0.0
  0
LINE
  5
16B7
330
E90
100
AcDbEntity
  8
SUNPO
 62
   144
100
AcDbLine
 10
1513.851014127787
 20
2853.515747133855
 30
0.0
 11
1513.851014127787
 21
3359.8932986298
 31
0.0
  0
LINE
  5
16B8
330
E90
100
AcDbEntity
  8
SUNPO
 62
   144
100
AcDbLine
 10
1377.851014127787
 20
3349.893298629801
 30
0.0
 11
1469.851014127787
 21
3349.893298629801
 31
0.0
  0
SOLID
  5
16B9
330
E90
100
AcDbEntity
  8
SUNPO
 62
   144
100
AcDbTrace
 10
1377.851014127787
 20
3357.226631963134
 30
0.0
 11
1377.851014127787
 21
3342.559965296467
 31
0.0
 12
1333.851014127787
 22
3349.893298629801
 32
0.0
 13
1333.851014127787
 23
3349.893298629801
 33
0.0
  0
SOLID
  5
16BA
330
E90
100
AcDbEntity
  8
SUNPO
 62
   144
100
AcDbTrace
 10
1469.851014127787
 20
3357.226631963134
 30
0.0
 11
1469.851014127787
 21
3342.559965296467
 31
0.0
 12
1513.851014127787
 22
3349.893298629801
 32
0.0
 13
1513.851014127787
 23
3349.893298629801
 33
0.0
  0
MTEXT
  5
16BB
330
E90
100
AcDbEntity
  8
SUNPO
 62
     7
100
AcDbMText
 10
1423.851014127787
 20
3387.393298629801
 30
0.0
 40
50.0
 41
0.0
 71
     5
 72
     1
  1
\A2;180
  7
ADD
1001
ACAD
1000
MTEXTBEGIN
1070
    73
1070
     1
1070
    44
1040
1.0
1070
    74
1070
     0
1000
MTEXTEND
1000
MTEXTBEGIN
1070
    73
1070
     1
1070
    44
1040
1.0
1070
    74
1070
     0
1000
MTEXTEND
  0
POINT
  5
16BC
330
E90
100
AcDbEntity
  8
DEFPOINTS
 62
     0
100
AcDbPoint
 10
1333.851014127787
 20
2833.515747133855
 30
0.0
  0
POINT
  5
16BD
330
E90
100
AcDbEntity
  8
DEFPOINTS
 62
     0
100
AcDbPoint
 10
1513.851014127787
 20
2833.515747133855
 30
0.0
  0
POINT
  5
16BE
330
E90
100
AcDbEntity
  8
DEFPOINTS
 62
     0
100
AcDbPoint
 10
1513.851014127787
 20
3349.893298629801
 30
0.0
  0
ENDBLK
  5
E9B
330
E90
100
AcDbEntity
  8
0
100
AcDbBlockEnd
  0
BLOCK
  5
EFB
330
EEF
100
AcDbEntity
  8
0
100
AcDbBlockBegin
  2
*D5
 70
     1
 10
0.0
 20
0.0
 30
0.0
  3
*D5
  1

  0
LINE
  5
16AB
330
EEF
100
AcDbEntity
  8
SUNPO
 62
   144
100
AcDbLine
 10
1333.851014127787
 20
2853.515747133855
 30
0.0
 11
1333.851014127787
 21
3139.652534205696
 31
0.0
  0
LINE
  5
16AC
330
EEF
100
AcDbEntity
  8
SUNPO
 62
   144
100
AcDbLine
 10
1383.851014127787
 20
2853.515747133855
 30
0.0
 11
1383.851014127787
 21
3139.652534205696
 31
0.0
  0
LINE
  5
16AD
330
EEF
100
AcDbEntity
  8
SUNPO
 62
   144
100
AcDbLine
 10
1427.851014127787
 20
3129.652534205695
 30
0.0
 11
1471.851014127787
 21
3129.652534205695
 31
0.0
  0
LINE
  5
16AE
330
EEF
100
AcDbEntity
  8
SUNPO
 62
   144
100
AcDbLine
 10
1289.851014127787
 20
3129.652534205695
 30
0.0
 11
1245.851014127787
 21
3129.652534205695
 31
0.0
  0
MTEXT
  5
16AF
330
EEF
100
AcDbEntity
  8
SUNPO
 62
     7
100
AcDbMText
 10
1278.816808513471
 20
3166.06195020692
 30
0.0
 40
50.0
 41
0.0
 71
     5
 72
     1
  1
\A2;50
  7
ADD
1001
ACAD
1000
MTEXTBEGIN
1070
    73
1070
     1
1070
    44
1040
1.0
1070
    74
1070
     0
1000
MTEXTEND
1000
MTEXTBEGIN
1070
    73
1070
     1
1070
    44
1040
1.0
1070
    74
1070
     0
1000
MTEXTEND
  0
LINE
  5
16B0
330
EEF
100
AcDbEntity
  8
SUNPO
 62
   144
100
AcDbLine
 10
1383.851014127787
 20
3129.652534205695
 30
0.0
 11
1333.851014127787
 21
3129.652534205695
 31
0.0
  0
SOLID
  5
16B1
330
EEF
100
AcDbEntity
  8
SUNPO
 62
   144
100
AcDbTrace
 10
1427.851014127787
 20
3136.985867539029
 30
0.0
 11
1427.851014127787
 21
3122.319200872362
 31
0.0
 12
1383.851014127787
 22
3129.652534205695
 32
0.0
 13
1383.851014127787
 23
3129.652534205695
 33
0.0
  0
SOLID
  5
16B2
330
EEF
100
AcDbEntity
  8
SUNPO
 62
   144
100
AcDbTrace
 10
1289.851014127787
 20
3136.985867539029
 30
0.0
 11
1289.851014127787
 21
3122.319200872362
 31
0.0
 12
1333.851014127787
 22
3129.652534205695
 32
0.0
 13
1333.851014127787
 23
3129.652534205695
 33
0.0
  0
POINT
  5
16B3
330
EEF
100
AcDbEntity
  8
DEFPOINTS
 62
     0
100
AcDbPoint
 10
1333.851014127787
 20
2833.515747133855
 30
0.0
  0
POINT
  5
16B4
330
EEF
100
AcDbEntity
  8
DEFPOINTS
 62
     0
100
AcDbPoint
 10
1383.851014127787
 20
2833.515747133855
 30
0.0
  0
POINT
  5
16B5
330
EEF
100
AcDbEntity
  8
DEFPOINTS
 62
     0
100
AcDbPoint
 10
1383.851014127787
 20
3129.652534205695
 30
0.0
  0
ENDBLK
  5
EFC
330
EEF
100
AcDbEntity
  8
0
100
AcDbBlockEnd
  0
BLOCK
  5
F0A
330
EFE
100
AcDbEntity
  8
0
100
AcDbBlockBegin
  2
*D6
 70
     1
 10
0.0
 20
0.0
 30
0.0
  3
*D6
  1

  0
LINE
  5
16A0
330
EFE
100
AcDbEntity
  8
SUNPO
 62
   144
100
AcDbLine
 10
1513.851014127787
 20
2853.515747133855
 30
0.0
 11
1513.851014127787
 21
3139.652534205696
 31
0.0
  0
LINE
  5
16A1
330
EFE
100
AcDbEntity
  8
SUNPO
 62
   144
100
AcDbLine
 10
1463.851014127787
 20
2853.515747133855
 30
0.0
 11
1463.851014127787
 21
3139.652534205696
 31
0.0
  0
LINE
  5
16A2
330
EFE
100
AcDbEntity
  8
SUNPO
 62
   144
100
AcDbLine
 10
1557.851014127787
 20
3129.652534205695
 30
0.0
 11
1601.851014127787
 21
3129.652534205695
 31
0.0
  0
LINE
  5
16A3
330
EFE
100
AcDbEntity
  8
SUNPO
 62
   144
100
AcDbLine
 10
1419.851014127787
 20
3129.652534205695
 30
0.0
 11
1375.851014127787
 21
3129.652534205695
 31
0.0
  0
MTEXT
  5
16A4
330
EFE
100
AcDbEntity
  8
SUNPO
 62
     7
100
AcDbMText
 10
1561.247550093179
 20
3165.111431258289
 30
0.0
 40
50.0
 41
0.0
 71
     5
 72
     1
  1
\A2;50
  7
ADD
1001
ACAD
1000
MTEXTBEGIN
1070
    73
1070
     1
1070
    44
1040
1.0
1070
    74
1070
     0
1000
MTEXTEND
1000
MTEXTBEGIN
1070
    73
1070
     1
1070
    44
1040
1.0
1070
    74
1070
     0
1000
MTEXTEND
  0
LINE
  5
16A5
330
EFE
100
AcDbEntity
  8
SUNPO
 62
   144
100
AcDbLine
 10
1513.851014127787
 20
3129.652534205695
 30
0.0
 11
1463.851014127787
 21
3129.652534205695
 31
0.0
  0
SOLID
  5
16A6
330
EFE
100
AcDbEntity
  8
SUNPO
 62
   144
100
AcDbTrace
 10
1557.851014127787
 20
3136.985867539029
 30
0.0
 11
1557.851014127787
 21
3122.319200872362
 31
0.0
 12
1513.851014127787
 22
3129.652534205695
 32
0.0
 13
1513.851014127787
 23
3129.652534205695
 33
0.0
  0
SOLID
  5
16A7
330
EFE
100
AcDbEntity
  8
SUNPO
 62
   144
100
AcDbTrace
 10
1419.851014127787
 20
3136.985867539029
 30
0.0
 11
1419.851014127787
 21
3122.319200872362
 31
0.0
 12
1463.851014127787
 22
3129.652534205695
 32
0.0
 13
1463.851014127787
 23
3129.652534205695
 33
0.0
  0
POINT
  5
16A8
330
EFE
100
AcDbEntity
  8
DEFPOINTS
 62
     0
100
AcDbPoint
 10
1513.851014127787
 20
2833.515747133855
 30
0.0
  0
POINT
  5
16A9
330
EFE
100
AcDbEntity
  8
DEFPOINTS
 62
     0
100
AcDbPoint
 10
1463.851014127787
 20
2833.515747133855
 30
0.0
  0
POINT
  5
16AA
330
EFE
100
AcDbEntity
  8
DEFPOINTS
 62
     0
100
AcDbPoint
 10
1463.851014127787
 20
3129.652534205695
 30
0.0
  0
ENDBLK
  5
F0B
330
EFE
100
AcDbEntity
  8
0
100
AcDbBlockEnd
  0
BLOCK
  5
F19
330
F0D
100
AcDbEntity
  8
0
100
AcDbBlockBegin
  2
*D7
 70
     1
 10
0.0
 20
0.0
 30
0.0
  3
*D7
  1

  0
LINE
  5
1695
330
F0D
100
AcDbEntity
  8
SUNPO
 62
   144
100
AcDbLine
 10
1388.851014127787
 20
2853.515747133855
 30
0.0
 11
1388.851014127787
 21
3139.652534205696
 31
0.0
  0
LINE
  5
1696
330
F0D
100
AcDbEntity
  8
SUNPO
 62
   144
100
AcDbLine
 10
1458.851014127787
 20
2853.515747133855
 30
0.0
 11
1458.851014127787
 21
3139.652534205696
 31
0.0
  0
LINE
  5
1697
330
F0D
100
AcDbEntity
  8
SUNPO
 62
   144
100
AcDbLine
 10
1344.851014127787
 20
3129.652534205695
 30
0.0
 11
1300.851014127787
 21
3129.652534205695
 31
0.0
  0
LINE
  5
1698
330
F0D
100
AcDbEntity
  8
SUNPO
 62
   144
100
AcDbLine
 10
1502.851014127787
 20
3129.652534205695
 30
0.0
 11
1546.851014127787
 21
3129.652534205695
 31
0.0
  0
MTEXT
  5
1699
330
F0D
100
AcDbEntity
  8
SUNPO
 62
     7
100
AcDbMText
 10
1423.851014127787
 20
3167.152534205695
 30
0.0
 40
50.0
 41
0.0
 71
     5
 72
     1
  1
\A2;70
  7
ADD
1001
ACAD
1000
MTEXTBEGIN
1070
    73
1070
     1
1070
    44
1040
1.0
1070
    74
1070
     0
1000
MTEXTEND
1000
MTEXTBEGIN
1070
    73
1070
     1
1070
    44
1040
1.0
1070
    74
1070
     0
1000
MTEXTEND
  0
LINE
  5
169A
330
F0D
100
AcDbEntity
  8
SUNPO
 62
   144
100
AcDbLine
 10
1388.851014127787
 20
3129.652534205695
 30
0.0
 11
1458.851014127787
 21
3129.652534205695
 31
0.0
  0
SOLID
  5
169B
330
F0D
100
AcDbEntity
  8
SUNPO
 62
   144
100
AcDbTrace
 10
1344.851014127787
 20
3136.985867539029
 30
0.0
 11
1344.851014127787
 21
3122.319200872362
 31
0.0
 12
1388.851014127787
 22
3129.652534205695
 32
0.0
 13
1388.851014127787
 23
3129.652534205695
 33
0.0
  0
SOLID
  5
169C
330
F0D
100
AcDbEntity
  8
SUNPO
 62
   144
100
AcDbTrace
 10
1502.851014127787
 20
3136.985867539029
 30
0.0
 11
1502.851014127787
 21
3122.319200872362
 31
0.0
 12
1458.851014127787
 22
3129.652534205695
 32
0.0
 13
1458.851014127787
 23
3129.652534205695
 33
0.0
  0
POINT
  5
169D
330
F0D
100
AcDbEntity
  8
DEFPOINTS
 62
     0
100
AcDbPoint
 10
1388.851014127787
 20
2833.515747133855
 30
0.0
  0
POINT
  5
169E
330
F0D
100
AcDbEntity
  8
DEFPOINTS
 62
     0
100
AcDbPoint
 10
1458.851014127787
 20
2833.515747133855
 30
0.0
  0
POINT
  5
169F
330
F0D
100
AcDbEntity
  8
DEFPOINTS
 62
     0
100
AcDbPoint
 10
1458.851014127787
 20
3129.652534205695
 30
0.0
  0
ENDBLK
  5
F1A
330
F0D
100
AcDbEntity
  8
0
100
AcDbBlockEnd
  0
BLOCK
  5
F6A
330
F5E
100
AcDbEntity
  8
0
100
AcDbBlockBegin
  2
*D8
 70
     1
 10
0.0
 20
0.0
 30
0.0
  3
*D8
  1

  0
LINE
  5
168A
330
F5E
100
AcDbEntity
  8
SUNPO
 62
   144
100
AcDbLine
 10
1383.851014127787
 20
2853.515747133855
 30
0.0
 11
1383.851014127787
 21
3006.584140669775
 31
0.0
  0
LINE
  5
168B
330
F5E
100
AcDbEntity
  8
SUNPO
 62
   144
100
AcDbLine
 10
1388.851014127787
 20
2853.515747133855
 30
0.0
 11
1388.851014127787
 21
3006.584140669775
 31
0.0
  0
LINE
  5
168C
330
F5E
100
AcDbEntity
  8
SUNPO
 62
   144
100
AcDbLine
 10
1339.851014127787
 20
2996.584140669775
 30
0.0
 11
1295.851014127787
 21
2996.584140669775
 31
0.0
  0
LINE
  5
168D
330
F5E
100
AcDbEntity
  8
SUNPO
 62
   144
100
AcDbLine
 10
1432.851014127787
 20
2996.584140669775
 30
0.0
 11
1476.851014127787
 21
2996.584140669775
 31
0.0
  0
LINE
  5
168E
330
F5E
100
AcDbEntity
  8
SUNPO
 62
   144
100
AcDbLine
 10
1383.851014127787
 20
2996.584140669775
 30
0.0
 11
1388.851014127787
 21
2996.584140669775
 31
0.0
  0
SOLID
  5
168F
330
F5E
100
AcDbEntity
  8
SUNPO
 62
   144
100
AcDbTrace
 10
1339.851014127787
 20
3003.917474003109
 30
0.0
 11
1339.851014127787
 21
2989.250807336442
 31
0.0
 12
1383.851014127787
 22
2996.584140669775
 32
0.0
 13
1383.851014127787
 23
2996.584140669775
 33
0.0
  0
SOLID
  5
1690
330
F5E
100
AcDbEntity
  8
SUNPO
 62
   144
100
AcDbTrace
 10
1432.851014127787
 20
3003.917474003109
 30
0.0
 11
1432.851014127787
 21
2989.250807336442
 31
0.0
 12
1388.851014127787
 22
2996.584140669775
 32
0.0
 13
1388.851014127787
 23
2996.584140669775
 33
0.0
  0
MTEXT
  5
1691
330
F5E
100
AcDbEntity
  8
SUNPO
 62
     7
100
AcDbMText
 10
1386.351014127787
 20
3034.084140669775
 30
0.0
 40
50.0
 41
0.0
 71
     5
 72
     1
  1
\A2;5
  7
ADD
1001
ACAD
1000
MTEXTBEGIN
1070
    73
1070
     1
1070
    44
1040
1.0
1070
    74
1070
     0
1000
MTEXTEND
1000
MTEXTBEGIN
1070
    73
1070
     1
1070
    44
1040
1.0
1070
    74
1070
     0
1000
MTEXTEND
  0
POINT
  5
1692
330
F5E
100
AcDbEntity
  8
DEFPOINTS
 62
     0
100
AcDbPoint
 10
1383.851014127787
 20
2833.515747133855
 30
0.0
  0
POINT
  5
1693
330
F5E
100
AcDbEntity
  8
DEFPOINTS
 62
     0
100
AcDbPoint
 10
1388.851014127787
 20
2833.515747133855
 30
0.0
  0
POINT
  5
1694
330
F5E
100
AcDbEntity
  8
DEFPOINTS
 62
     0
100
AcDbPoint
 10
1388.851014127787
 20
2996.584140669775
 30
0.0
  0
ENDBLK
  5
F6B
330
F5E
100
AcDbEntity
  8
0
100
AcDbBlockEnd
  0
BLOCK
  5
F79
330
F6D
100
AcDbEntity
  8
0
100
AcDbBlockBegin
  2
*D9
 70
     1
 10
0.0
 20
0.0
 30
0.0
  3
*D9
  1

  0
LINE
  5
167F
330
F6D
100
AcDbEntity
  8
SUNPO
 62
   144
100
AcDbLine
 10
1458.851014127787
 20
2853.515747133855
 30
0.0
 11
1458.851014127787
 21
3006.584140669775
 31
0.0
  0
LINE
  5
1680
330
F6D
100
AcDbEntity
  8
SUNPO
 62
   144
100
AcDbLine
 10
1463.851014127787
 20
2853.515747133855
 30
0.0
 11
1463.851014127787
 21
3006.584140669775
 31
0.0
  0
LINE
  5
1681
330
F6D
100
AcDbEntity
  8
SUNPO
 62
   144
100
AcDbLine
 10
1414.851014127787
 20
2996.584140669775
 30
0.0
 11
1370.851014127787
 21
2996.584140669775
 31
0.0
  0
LINE
  5
1682
330
F6D
100
AcDbEntity
  8
SUNPO
 62
   144
100
AcDbLine
 10
1507.851014127787
 20
2996.584140669775
 30
0.0
 11
1551.851014127787
 21
2996.584140669775
 31
0.0
  0
LINE
  5
1683
330
F6D
100
AcDbEntity
  8
SUNPO
 62
   144
100
AcDbLine
 10
1458.851014127787
 20
2996.584140669775
 30
0.0
 11
1463.851014127787
 21
2996.584140669775
 31
0.0
  0
SOLID
  5
1684
330
F6D
100
AcDbEntity
  8
SUNPO
 62
   144
100
AcDbTrace
 10
1414.851014127787
 20
3003.917474003109
 30
0.0
 11
1414.851014127787
 21
2989.250807336442
 31
0.0
 12
1458.851014127787
 22
2996.584140669775
 32
0.0
 13
1458.851014127787
 23
2996.584140669775
 33
0.0
  0
SOLID
  5
1685
330
F6D
100
AcDbEntity
  8
SUNPO
 62
   144
100
AcDbTrace
 10
1507.851014127787
 20
3003.917474003109
 30
0.0
 11
1507.851014127787
 21
2989.250807336442
 31
0.0
 12
1463.851014127787
 22
2996.584140669775
 32
0.0
 13
1463.851014127787
 23
2996.584140669775
 33
0.0
  0
MTEXT
  5
1686
330
F6D
100
AcDbEntity
  8
SUNPO
 62
     7
100
AcDbMText
 10
1461.351014127787
 20
3034.084140669775
 30
0.0
 40
50.0
 41
0.0
 71
     5
 72
     1
  1
\A2;5
  7
ADD
1001
ACAD
1000
MTEXTBEGIN
1070
    73
1070
     1
1070
    44
1040
1.0
1070
    74
1070
     0
1000
MTEXTEND
1000
MTEXTBEGIN
1070
    73
1070
     1
1070
    44
1040
1.0
1070
    74
1070
     0
1000
MTEXTEND
  0
POINT
  5
1687
330
F6D
100
AcDbEntity
  8
DEFPOINTS
 62
     0
100
AcDbPoint
 10
1458.851014127787
 20
2833.515747133855
 30
0.0
  0
POINT
  5
1688
330
F6D
100
AcDbEntity
  8
DEFPOINTS
 62
     0
100
AcDbPoint
 10
1463.851014127787
 20
2833.515747133855
 30
0.0
  0
POINT
  5
1689
330
F6D
100
AcDbEntity
  8
DEFPOINTS
 62
     0
100
AcDbPoint
 10
1463.851014127787
 20
2996.584140669775
 30
0.0
  0
ENDBLK
  5
F7A
330
F6D
100
AcDbEntity
  8
0
100
AcDbBlockEnd
  0
BLOCK
  5
F88
330
F7C
100
AcDbEntity
  8
0
100
AcDbBlockBegin
  2
*D10
 70
     1
 10
0.0
 20
0.0
 30
0.0
  3
*D10
  1

  0
LINE
  5
16DD
330
F7C
100
AcDbEntity
  8
SUNPO
 62
   144
100
AcDbLine
 10
2013.851014127787
 20
2853.515747133855
 30
0.0
 11
2013.851014127787
 21
3139.652534205696
 31
0.0
  0
LINE
  5
16DE
330
F7C
100
AcDbEntity
  8
SUNPO
 62
   144
100
AcDbLine
 10
2123.851014127787
 20
2853.515747133855
 30
0.0
 11
2123.851014127787
 21
3139.652534205696
 31
0.0
  0
LINE
  5
16DF
330
F7C
100
AcDbEntity
  8
SUNPO
 62
   144
100
AcDbLine
 10
2043.851014127787
 20
3129.652534205695
 30
0.0
 11
2093.851014127787
 21
3129.652534205695
 31
0.0
  0
MTEXT
  5
16E0
330
F7C
100
AcDbEntity
  8
SUNPO
 62
     7
100
AcDbMText
 10
2068.851014127787
 20
3167.152534205695
 30
0.0
 40
50.0
 41
0.0
 71
     5
 72
     1
  1
\A2;110
  7
ADD
1001
ACAD
1000
MTEXTBEGIN
1070
    73
1070
     1
1070
    44
1040
1.0
1070
    74
1070
     0
1000
MTEXTEND
1000
MTEXTBEGIN
1070
    73
1070
     1
1070
    44
1040
1.0
1070
    74
1070
     0
1000
MTEXTEND
  0
SOLID
  5
16E1
330
F7C
100
AcDbEntity
  8
SUNPO
 62
   144
100
AcDbTrace
 10
2043.851014127787
 20
3134.652534205695
 30
0.0
 11
2043.851014127787
 21
3124.652534205695
 31
0.0
 12
2013.851014127787
 22
3129.652534205695
 32
0.0
 13
2013.851014127787
 23
3129.652534205695
 33
0.0
  0
SOLID
  5
16E2
330
F7C
100
AcDbEntity
  8
SUNPO
 62
   144
100
AcDbTrace
 10
2093.851014127787
 20
3134.652534205695
 30
0.0
 11
2093.851014127787
 21
3124.652534205695
 31
0.0
 12
2123.851014127787
 22
3129.652534205695
 32
0.0
 13
2123.851014127787
 23
3129.652534205695
 33
0.0
  0
POINT
  5
16E3
330
F7C
100
AcDbEntity
  8
DEFPOINTS
 62
     0
100
AcDbPoint
 10
2013.851014127787
 20
2833.515747133855
 30
0.0
  0
POINT
  5
16E4
330
F7C
100
AcDbEntity
  8
DEFPOINTS
 62
     0
100
AcDbPoint
 10
2123.851014127787
 20
2833.515747133855
 30
0.0
  0
POINT
  5
16E5
330
F7C
100
AcDbEntity
  8
DEFPOINTS
 62
     0
100
AcDbPoint
 10
2123.851014127787
 20
3129.652534205695
 30
0.0
  0
ENDBLK
  5
F89
330
F7C
100
AcDbEntity
  8
0
100
AcDbBlockEnd
  0
BLOCK
  5
F95
330
F8B
100
AcDbEntity
  8
0
100
AcDbBlockBegin
  2
*D11
 70
     1
 10
0.0
 20
0.0
 30
0.0
  3
*D11
  1

  0
LINE
  5
166B
330
F8B
100
AcDbEntity
  8
SUNPO
 62
   144
100
AcDbLine
 10
2123.851014127787
 20
2853.515747133855
 30
0.0
 11
2123.851014127787
 21
3139.652534205696
 31
0.0
  0
LINE
  5
166C
330
F8B
100
AcDbEntity
  8
SUNPO
 62
   144
100
AcDbLine
 10
4623.851014127787
 20
2853.515747133855
 30
0.0
 11
4623.851014127787
 21
3139.652534205696
 31
0.0
  0
LINE
  5
166D
330
F8B
100
AcDbEntity
  8
SUNPO
 62
   144
100
AcDbLine
 10
2167.851014127787
 20
3129.652534205695
 30
0.0
 11
4579.851014127787
 21
3129.652534205695
 31
0.0
  0
SOLID
  5
166E
330
F8B
100
AcDbEntity
  8
SUNPO
 62
   144
100
AcDbTrace
 10
2167.851014127787
 20
3136.985867539029
 30
0.0
 11
2167.851014127787
 21
3122.319200872362
 31
0.0
 12
2123.851014127787
 22
3129.652534205695
 32
0.0
 13
2123.851014127787
 23
3129.652534205695
 33
0.0
  0
SOLID
  5
166F
330
F8B
100
AcDbEntity
  8
SUNPO
 62
   144
100
AcDbTrace
 10
4579.851014127787
 20
3136.985867539029
 30
0.0
 11
4579.851014127787
 21
3122.319200872362
 31
0.0
 12
4623.851014127787
 22
3129.652534205695
 32
0.0
 13
4623.851014127787
 23
3129.652534205695
 33
0.0
  0
MTEXT
  5
1670
330
F8B
100
AcDbEntity
  8
SUNPO
 62
     7
100
AcDbMText
 10
3373.851014127787
 20
3167.152534205695
 30
0.0
 40
50.0
 41
0.0
 71
     5
 72
     1
  1
\A2;2500
  7
ADD
1001
ACAD
1000
MTEXTBEGIN
1070
    73
1070
     1
1070
    44
1040
1.0
1070
    74
1070
     0
1000
MTEXTEND
1000
MTEXTBEGIN
1070
    73
1070
     1
1070
    44
1040
1.0
1070
    74
1070
     0
1000
MTEXTEND
  0
POINT
  5
1671
330
F8B
100
AcDbEntity
  8
DEFPOINTS
 62
     0
100
AcDbPoint
 10
2123.851014127787
 20
2833.515747133855
 30
0.0
  0
POINT
  5
1672
330
F8B
100
AcDbEntity
  8
DEFPOINTS
 62
     0
100
AcDbPoint
 10
4623.851014127787
 20
2833.515747133855
 30
0.0
  0
POINT
  5
1673
330
F8B
100
AcDbEntity
  8
DEFPOINTS
 62
     0
100
AcDbPoint
 10
4623.851014127787
 20
3129.652534205695
 30
0.0
  0
ENDBLK
  5
F96
330
F8B
100
AcDbEntity
  8
0
100
AcDbBlockEnd
  0
BLOCK
  5
FA4
330
F98
100
AcDbEntity
  8
0
100
AcDbBlockBegin
  2
*D12
 70
     1
 10
0.0
 20
0.0
 30
0.0
  3
*D12
  1

  0
LINE
  5
16E6
330
F98
100
AcDbEntity
  8
SUNPO
 62
   144
100
AcDbLine
 10
4623.851014127787
 20
2853.515747133855
 30
0.0
 11
4623.851014127787
 21
3139.652534205696
 31
0.0
  0
LINE
  5
16E7
330
F98
100
AcDbEntity
  8
SUNPO
 62
   144
100
AcDbLine
 10
4733.851014127787
 20
2853.515747133855
 30
0.0
 11
4733.851014127787
 21
3139.652534205696
 31
0.0
  0
LINE
  5
16E8
330
F98
100
AcDbEntity
  8
SUNPO
 62
   144
100
AcDbLine
 10
4653.851014127787
 20
3129.652534205695
 30
0.0
 11
4703.851014127788
 21
3129.652534205695
 31
0.0
  0
MTEXT
  5
16E9
330
F98
100
AcDbEntity
  8
SUNPO
 62
     7
100
AcDbMText
 10
4678.851014127787
 20
3167.152534205695
 30
0.0
 40
50.0
 41
0.0
 71
     5
 72
     1
  1
\A2;110
  7
ADD
1001
ACAD
1000
MTEXTBEGIN
1070
    73
1070
     1
1070
    44
1040
1.0
1070
    74
1070
     0
1000
MTEXTEND
1000
MTEXTBEGIN
1070
    73
1070
     1
1070
    44
1040
1.0
1070
    74
1070
     0
1000
MTEXTEND
  0
SOLID
  5
16EA
330
F98
100
AcDbEntity
  8
SUNPO
 62
   144
100
AcDbTrace
 10
4653.851014127787
 20
3134.652534205695
 30
0.0
 11
4653.851014127787
 21
3124.652534205695
 31
0.0
 12
4623.851014127787
 22
3129.652534205695
 32
0.0
 13
4623.851014127787
 23
3129.652534205695
 33
0.0
  0
SOLID
  5
16EB
330
F98
100
AcDbEntity
  8
SUNPO
 62
   144
100
AcDbTrace
 10
4703.851014127788
 20
3134.652534205695
 30
0.0
 11
4703.851014127788
 21
3124.652534205695
 31
0.0
 12
4733.851014127787
 22
3129.652534205695
 32
0.0
 13
4733.851014127787
 23
3129.652534205695
 33
0.0
  0
POINT
  5
16EC
330
F98
100
AcDbEntity
  8
DEFPOINTS
 62
     0
100
AcDbPoint
 10
4623.851014127787
 20
2833.515747133855
 30
0.0
  0
POINT
  5
16ED
330
F98
100
AcDbEntity
  8
DEFPOINTS
 62
     0
100
AcDbPoint
 10
4733.851014127787
 20
2833.515747133855
 30
0.0
  0
POINT
  5
16EE
330
F98
100
AcDbEntity
  8
DEFPOINTS
 62
     0
100
AcDbPoint
 10
4733.851014127787
 20
3129.652534205695
 30
0.0
  0
ENDBLK
  5
FA5
330
F98
100
AcDbEntity
  8
0
100
AcDbBlockEnd
  0
BLOCK
  5
FB3
330
FA7
100
AcDbEntity
  8
0
100
AcDbBlockBegin
  2
*D13
 70
     1
 10
0.0
 20
0.0
 30
0.0
  3
*D13
  1

  0
LINE
  5
1655
330
FA7
100
AcDbEntity
  8
SUNPO
 62
   144
100
AcDbLine
 10
2063.910185739814
 20
2850.851710316612
 30
0.0
 11
2063.910185739814
 21
3006.584140669775
 31
0.0
  0
LINE
  5
1656
330
FA7
100
AcDbEntity
  8
SUNPO
 62
   144
100
AcDbLine
 10
2123.851014127787
 20
2853.515747133855
 30
0.0
 11
2123.851014127787
 21
3006.584140669775
 31
0.0
  0
LINE
  5
1657
330
FA7
100
AcDbEntity
  8
SUNPO
 62
   144
100
AcDbLine
 10
2019.910185739815
 20
2996.584140669775
 30
0.0
 11
1975.910185739815
 21
2996.584140669775
 31
0.0
  0
LINE
  5
1658
330
FA7
100
AcDbEntity
  8
SUNPO
 62
   144
100
AcDbLine
 10
2167.851014127787
 20
2996.584140669775
 30
0.0
 11
2211.851014127787
 21
2996.584140669775
 31
0.0
  0
MTEXT
  5
1659
330
FA7
100
AcDbEntity
  8
SUNPO
 62
     7
100
AcDbMText
 10
2093.880599933801
 20
3034.084140669775
 30
0.0
 40
50.0
 41
0.0
 71
     5
 72
     1
  1
\A2;60
  7
ADD
1001
ACAD
1000
MTEXTBEGIN
1070
    73
1070
     1
1070
    44
1040
1.0
1070
    74
1070
     0
1000
MTEXTEND
1000
MTEXTBEGIN
1070
    73
1070
     1
1070
    44
1040
1.0
1070
    74
1070
     0
1000
MTEXTEND
  0
LINE
  5
165A
330
FA7
100
AcDbEntity
  8
SUNPO
 62
   144
100
AcDbLine
 10
2063.910185739814
 20
2996.584140669775
 30
0.0
 11
2123.851014127787
 21
2996.584140669775
 31
0.0
  0
SOLID
  5
165B
330
FA7
100
AcDbEntity
  8
SUNPO
 62
   144
100
AcDbTrace
 10
2019.910185739815
 20
3003.917474003109
 30
0.0
 11
2019.910185739815
 21
2989.250807336442
 31
0.0
 12
2063.910185739814
 22
2996.584140669775
 32
0.0
 13
2063.910185739814
 23
2996.584140669775
 33
0.0
  0
SOLID
  5
165C
330
FA7
100
AcDbEntity
  8
SUNPO
 62
   144
100
AcDbTrace
 10
2167.851014127787
 20
3003.917474003109
 30
0.0
 11
2167.851014127787
 21
2989.250807336442
 31
0.0
 12
2123.851014127787
 22
2996.584140669775
 32
0.0
 13
2123.851014127787
 23
2996.584140669775
 33
0.0
  0
POINT
  5
165D
330
FA7
100
AcDbEntity
  8
DEFPOINTS
 62
     0
100
AcDbPoint
 10
2063.910185739814
 20
2830.851710316611
 30
0.0
  0
POINT
  5
165E
330
FA7
100
AcDbEntity
  8
DEFPOINTS
 62
     0
100
AcDbPoint
 10
2123.851014127787
 20
2833.515747133855
 30
0.0
  0
POINT
  5
165F
330
FA7
100
AcDbEntity
  8
DEFPOINTS
 62
     0
100
AcDbPoint
 10
2123.851014127787
 20
2996.584140669775
 30
0.0
  0
ENDBLK
  5
FB4
330
FA7
100
AcDbEntity
  8
0
100
AcDbBlockEnd
  0
BLOCK
  5
FC2
330
FB6
100
AcDbEntity
  8
0
100
AcDbBlockBegin
  2
*D14
 70
     1
 10
0.0
 20
0.0
 30
0.0
  3
*D14
  1

  0
LINE
  5
164A
330
FB6
100
AcDbEntity
  8
SUNPO
 62
   144
100
AcDbLine
 10
4623.851014127787
 20
2853.515747133855
 30
0.0
 11
4623.851014127787
 21
3006.584140669775
 31
0.0
  0
LINE
  5
164B
330
FB6
100
AcDbEntity
  8
SUNPO
 62
   144
100
AcDbLine
 10
4683.79184251576
 20
2850.851710316612
 30
0.0
 11
4683.79184251576
 21
3006.584140669775
 31
0.0
  0
LINE
  5
164C
330
FB6
100
AcDbEntity
  8
SUNPO
 62
   144
100
AcDbLine
 10
4579.851014127787
 20
2996.584140669775
 30
0.0
 11
4535.851014127787
 21
2996.584140669775
 31
0.0
  0
LINE
  5
164D
330
FB6
100
AcDbEntity
  8
SUNPO
 62
   144
100
AcDbLine
 10
4727.791842515761
 20
2996.584140669775
 30
0.0
 11
4771.79184251576
 21
2996.584140669775
 31
0.0
  0
LINE
  5
164E
330
FB6
100
AcDbEntity
  8
SUNPO
 62
   144
100
AcDbLine
 10
4623.851014127787
 20
2996.584140669775
 30
0.0
 11
4683.79184251576
 21
2996.584140669775
 31
0.0
  0
SOLID
  5
164F
330
FB6
100
AcDbEntity
  8
SUNPO
 62
   144
100
AcDbTrace
 10
4579.851014127787
 20
3003.917474003109
 30
0.0
 11
4579.851014127787
 21
2989.250807336442
 31
0.0
 12
4623.851014127787
 22
2996.584140669775
 32
0.0
 13
4623.851014127787
 23
2996.584140669775
 33
0.0
  0
SOLID
  5
1650
330
FB6
100
AcDbEntity
  8
SUNPO
 62
   144
100
AcDbTrace
 10
4727.791842515761
 20
3003.917474003109
 30
0.0
 11
4727.791842515761
 21
2989.250807336442
 31
0.0
 12
4683.79184251576
 22
2996.584140669775
 32
0.0
 13
4683.79184251576
 23
2996.584140669775
 33
0.0
  0
MTEXT
  5
1651
330
FB6
100
AcDbEntity
  8
SUNPO
 62
     7
100
AcDbMText
 10
4653.821428321774
 20
3034.084140669775
 30
0.0
 40
50.0
 41
0.0
 71
     5
 72
     1
  1
\A2;60
  7
ADD
1001
ACAD
1000
MTEXTBEGIN
1070
    73
1070
     1
1070
    44
1040
1.0
1070
    74
1070
     0
1000
MTEXTEND
1000
MTEXTBEGIN
1070
    73
1070
     1
1070
    44
1040
1.0
1070
    74
1070
     0
1000
MTEXTEND
  0
POINT
  5
1652
330
FB6
100
AcDbEntity
  8
DEFPOINTS
 62
     0
100
AcDbPoint
 10
4623.851014127787
 20
2833.515747133855
 30
0.0
  0
POINT
  5
1653
330
FB6
100
AcDbEntity
  8
DEFPOINTS
 62
     0
100
AcDbPoint
 10
4683.79184251576
 20
2830.851710316611
 30
0.0
  0
POINT
  5
1654
330
FB6
100
AcDbEntity
  8
DEFPOINTS
 62
     0
100
AcDbPoint
 10
4683.79184251576
 20
2996.584140669775
 30
0.0
  0
ENDBLK
  5
FC3
330
FB6
100
AcDbEntity
  8
0
100
AcDbBlockEnd
  0
BLOCK
  5
FFB
330
FF1
100
AcDbEntity
  8
0
100
AcDbBlockBegin
  2
*D15
 70
     1
 10
0.0
 20
0.0
 30
0.0
  3
*D15
  1

  0
LINE
  5
1641
330
FF1
100
AcDbEntity
  8
SUNPO
 62
   144
100
AcDbLine
 10
1993.851014127787
 20
2833.515747133855
 30
0.0
 11
1680.395839392869
 21
2833.515747133855
 31
0.0
  0
LINE
  5
1642
330
FF1
100
AcDbEntity
  8
SUNPO
 62
   144
100
AcDbLine
 10
1993.851014127787
 20
1783.515747133855
 30
0.0
 11
1680.395839392869
 21
1783.515747133855
 31
0.0
  0
LINE
  5
1643
330
FF1
100
AcDbEntity
  8
SUNPO
 62
   144
100
AcDbLine
 10
1690.39583939287
 20
2789.515747133855
 30
0.0
 11
1690.395839392869
 21
1827.515747133855
 31
0.0
  0
SOLID
  5
1644
330
FF1
100
AcDbEntity
  8
SUNPO
 62
   144
100
AcDbTrace
 10
1683.062506059536
 20
2789.515747133855
 30
0.0
 11
1697.729172726203
 21
2789.515747133855
 31
0.0
 12
1690.39583939287
 22
2833.515747133855
 32
0.0
 13
1690.39583939287
 23
2833.515747133855
 33
0.0
  0
SOLID
  5
1645
330
FF1
100
AcDbEntity
  8
SUNPO
 62
   144
100
AcDbTrace
 10
1683.062506059536
 20
1827.515747133855
 30
0.0
 11
1697.729172726203
 21
1827.515747133855
 31
0.0
 12
1690.395839392869
 22
1783.515747133855
 32
0.0
 13
1690.395839392869
 23
1783.515747133855
 33
0.0
  0
MTEXT
  5
1646
330
FF1
100
AcDbEntity
  8
SUNPO
 62
     7
100
AcDbMText
 10
1652.895839392869
 20
2308.515747133855
 30
0.0
 40
50.0
 41
0.0
 71
     5
 72
     1
  1
\A2;1050
  7
ADD
 11
0.0000000000000001
 21
1.0
 31
0.0
1001
ACAD
1000
MTEXTBEGIN
1070
    73
1070
     1
1070
    44
1040
1.0
1070
    74
1070
     0
1000
MTEXTEND
1000
MTEXTBEGIN
1070
    73
1070
     1
1070
    44
1040
1.0
1070
    74
1070
     0
1000
MTEXTEND
  0
POINT
  5
1647
330
FF1
100
AcDbEntity
  8
DEFPOINTS
 62
     0
100
AcDbPoint
 10
2013.851014127787
 20
2833.515747133855
 30
0.0
  0
POINT
  5
1648
330
FF1
100
AcDbEntity
  8
DEFPOINTS
 62
     0
100
AcDbPoint
 10
2013.851014127787
 20
1783.515747133855
 30
0.0
  0
POINT
  5
1649
330
FF1
100
AcDbEntity
  8
DEFPOINTS
 62
     0
100
AcDbPoint
 10
1690.395839392869
 20
1783.515747133855
 30
0.0
  0
ENDBLK
  5
FFC
330
FF1
100
AcDbEntity
  8
0
100
AcDbBlockEnd
  0
BLOCK
  5
1008
330
FFE
100
AcDbEntity
  8
0
100
AcDbBlockBegin
  2
*D16
 70
     1
 10
0.0
 20
0.0
 30
0.0
  3
*D16
  1

  0
LINE
  5
1638
330
FFE
100
AcDbEntity
  8
SUNPO
 62
   144
100
AcDbLine
 10
1993.851014127787
 20
1783.515747133855
 30
0.0
 11
1846.661215995016
 21
1783.515747133855
 31
0.0
  0
LINE
  5
1639
330
FFE
100
AcDbEntity
  8
SUNPO
 62
   144
100
AcDbLine
 10
1993.851014127788
 20
1933.515747133855
 30
0.0
 11
1846.661215995016
 21
1933.515747133855
 31
0.0
  0
LINE
  5
163A
330
FFE
100
AcDbEntity
  8
SUNPO
 62
   144
100
AcDbLine
 10
1856.661215995016
 20
1827.515747133855
 30
0.0
 11
1856.661215995016
 21
1889.515747133855
 31
0.0
  0
SOLID
  5
163B
330
FFE
100
AcDbEntity
  8
SUNPO
 62
   144
100
AcDbTrace
 10
1849.327882661683
 20
1827.515747133855
 30
0.0
 11
1863.994549328349
 21
1827.515747133855
 31
0.0
 12
1856.661215995016
 22
1783.515747133855
 32
0.0
 13
1856.661215995016
 23
1783.515747133855
 33
0.0
  0
SOLID
  5
163C
330
FFE
100
AcDbEntity
  8
SUNPO
 62
   144
100
AcDbTrace
 10
1849.327882661683
 20
1889.515747133855
 30
0.0
 11
1863.994549328349
 21
1889.515747133855
 31
0.0
 12
1856.661215995016
 22
1933.515747133855
 32
0.0
 13
1856.661215995016
 23
1933.515747133855
 33
0.0
  0
MTEXT
  5
163D
330
FFE
100
AcDbEntity
  8
SUNPO
 62
     7
100
AcDbMText
 10
1819.161215995016
 20
1858.515747133855
 30
0.0
 40
50.0
 41
0.0
 71
     5
 72
     1
  1
\A2;150
  7
ADD
 11
0.0000000000000001
 21
1.0
 31
0.0
1001
ACAD
1000
MTEXTBEGIN
1070
    73
1070
     1
1070
    44
1040
1.0
1070
    74
1070
     0
1000
MTEXTEND
1000
MTEXTBEGIN
1070
    73
1070
     1
1070
    44
1040
1.0
1070
    74
1070
     0
1000
MTEXTEND
  0
POINT
  5
163E
330
FFE
100
AcDbEntity
  8
DEFPOINTS
 62
     0
100
AcDbPoint
 10
2013.851014127787
 20
1783.515747133855
 30
0.0
  0
POINT
  5
163F
330
FFE
100
AcDbEntity
  8
DEFPOINTS
 62
     0
100
AcDbPoint
 10
2013.851014127788
 20
1933.515747133855
 30
0.0
  0
POINT
  5
1640
330
FFE
100
AcDbEntity
  8
DEFPOINTS
 62
     0
100
AcDbPoint
 10
1856.661215995016
 20
1933.515747133855
 30
0.0
  0
ENDBLK
  5
1009
330
FFE
100
AcDbEntity
  8
0
100
AcDbBlockEnd
  0
BLOCK
  5
1015
330
100B
100
AcDbEntity
  8
0
100
AcDbBlockBegin
  2
*D17
 70
     1
 10
0.0
 20
0.0
 30
0.0
  3
*D17
  1

  0
LINE
  5
162F
330
100B
100
AcDbEntity
  8
SUNPO
 62
   144
100
AcDbLine
 10
1993.851014127787
 20
1933.515747133855
 30
0.0
 11
1846.661215995016
 21
1933.515747133855
 31
0.0
  0
LINE
  5
1630
330
100B
100
AcDbEntity
  8
SUNPO
 62
   144
100
AcDbLine
 10
1993.851014127787
 20
2833.515747133855
 30
0.0
 11
1846.661215995016
 21
2833.515747133855
 31
0.0
  0
LINE
  5
1631
330
100B
100
AcDbEntity
  8
SUNPO
 62
   144
100
AcDbLine
 10
1856.661215995016
 20
1977.515747133855
 30
0.0
 11
1856.661215995016
 21
2789.515747133855
 31
0.0
  0
SOLID
  5
1632
330
100B
100
AcDbEntity
  8
SUNPO
 62
   144
100
AcDbTrace
 10
1849.327882661683
 20
1977.515747133855
 30
0.0
 11
1863.994549328349
 21
1977.515747133855
 31
0.0
 12
1856.661215995016
 22
1933.515747133855
 32
0.0
 13
1856.661215995016
 23
1933.515747133855
 33
0.0
  0
SOLID
  5
1633
330
100B
100
AcDbEntity
  8
SUNPO
 62
   144
100
AcDbTrace
 10
1849.327882661683
 20
2789.515747133855
 30
0.0
 11
1863.994549328349
 21
2789.515747133855
 31
0.0
 12
1856.661215995016
 22
2833.515747133855
 32
0.0
 13
1856.661215995016
 23
2833.515747133855
 33
0.0
  0
MTEXT
  5
1634
330
100B
100
AcDbEntity
  8
SUNPO
 62
     7
100
AcDbMText
 10
1819.161215995016
 20
2383.515747133855
 30
0.0
 40
50.0
 41
0.0
 71
     5
 72
     1
  1
\A2;900
  7
ADD
 11
0.0000000000000001
 21
1.0
 31
0.0
1001
ACAD
1000
MTEXTBEGIN
1070
    73
1070
     1
1070
    44
1040
1.0
1070
    74
1070
     0
1000
MTEXTEND
1000
MTEXTBEGIN
1070
    73
1070
     1
1070
    44
1040
1.0
1070
    74
1070
     0
1000
MTEXTEND
  0
POINT
  5
1635
330
100B
100
AcDbEntity
  8
DEFPOINTS
 62
     0
100
AcDbPoint
 10
2013.851014127787
 20
1933.515747133855
 30
0.0
  0
POINT
  5
1636
330
100B
100
AcDbEntity
  8
DEFPOINTS
 62
     0
100
AcDbPoint
 10
2013.851014127787
 20
2833.515747133855
 30
0.0
  0
POINT
  5
1637
330
100B
100
AcDbEntity
  8
DEFPOINTS
 62
     0
100
AcDbPoint
 10
1856.661215995016
 20
2833.515747133855
 30
0.0
  0
ENDBLK
  5
1016
330
100B
100
AcDbEntity
  8
0
100
AcDbBlockEnd
  0
BLOCK
  5
1078
330
106E
100
AcDbEntity
  8
0
100
AcDbBlockBegin
  2
*D18
 70
     1
 10
0.0
 20
0.0
 30
0.0
  3
*D18
  1

  0
LINE
  5
1626
330
106E
100
AcDbEntity
  8
SUNPO
 62
   144
100
AcDbLine
 10
1333.851014127787
 20
1763.515747133855
 30
0.0
 11
1333.851014127787
 21
1228.774390045935
 31
0.0
  0
LINE
  5
1627
330
106E
100
AcDbEntity
  8
SUNPO
 62
   144
100
AcDbLine
 10
1513.851014127787
 20
1763.515747133855
 30
0.0
 11
1513.851014127787
 21
1228.774390045935
 31
0.0
  0
LINE
  5
1628
330
106E
100
AcDbEntity
  8
SUNPO
 62
   144
100
AcDbLine
 10
1377.851014127787
 20
1238.774390045935
 30
0.0
 11
1469.851014127787
 21
1238.774390045935
 31
0.0
  0
SOLID
  5
1629
330
106E
100
AcDbEntity
  8
SUNPO
 62
   144
100
AcDbTrace
 10
1377.851014127787
 20
1246.107723379268
 30
0.0
 11
1377.851014127787
 21
1231.441056712602
 31
0.0
 12
1333.851014127787
 22
1238.774390045935
 32
0.0
 13
1333.851014127787
 23
1238.774390045935
 33
0.0
  0
SOLID
  5
162A
330
106E
100
AcDbEntity
  8
SUNPO
 62
   144
100
AcDbTrace
 10
1469.851014127787
 20
1246.107723379268
 30
0.0
 11
1469.851014127787
 21
1231.441056712602
 31
0.0
 12
1513.851014127787
 22
1238.774390045935
 32
0.0
 13
1513.851014127787
 23
1238.774390045935
 33
0.0
  0
MTEXT
  5
162B
330
106E
100
AcDbEntity
  8
SUNPO
 62
     7
100
AcDbMText
 10
1423.851014127787
 20
1276.274390045935
 30
0.0
 40
50.0
 41
0.0
 71
     5
 72
     1
  1
\A2;180
  7
ADD
1001
ACAD
1000
MTEXTBEGIN
1070
    73
1070
     1
1070
    44
1040
1.0
1070
    74
1070
     0
1000
MTEXTEND
1000
MTEXTBEGIN
1070
    73
1070
     1
1070
    44
1040
1.0
1070
    74
1070
     0
1000
MTEXTEND
  0
POINT
  5
162C
330
106E
100
AcDbEntity
  8
DEFPOINTS
 62
     0
100
AcDbPoint
 10
1333.851014127787
 20
1783.515747133855
 30
0.0
  0
POINT
  5
162D
330
106E
100
AcDbEntity
  8
DEFPOINTS
 62
     0
100
AcDbPoint
 10
1513.851014127787
 20
1783.515747133855
 30
0.0
  0
POINT
  5
162E
330
106E
100
AcDbEntity
  8
DEFPOINTS
 62
     0
100
AcDbPoint
 10
1513.851014127787
 20
1238.774390045935
 30
0.0
  0
ENDBLK
  5
1079
330
106E
100
AcDbEntity
  8
0
100
AcDbBlockEnd
  0
BLOCK
  5
1099
330
108D
100
AcDbEntity
  8
0
100
AcDbBlockBegin
  2
*D19
 70
     1
 10
0.0
 20
0.0
 30
0.0
  3
*D19
  1

  0
LINE
  5
161B
330
108D
100
AcDbEntity
  8
SUNPO
 62
   144
100
AcDbLine
 10
2163.851014127787
 20
1953.515747133855
 30
0.0
 11
2163.851014127787
 21
2146.749979603862
 31
0.0
  0
LINE
  5
161C
330
108D
100
AcDbEntity
  8
SUNPO
 62
   144
100
AcDbLine
 10
2183.851014127787
 20
1953.515747133855
 30
0.0
 11
2183.851014127787
 21
2146.749979603862
 31
0.0
  0
LINE
  5
161D
330
108D
100
AcDbEntity
  8
SUNPO
 62
   144
100
AcDbLine
 10
2119.851014127787
 20
2136.749979603862
 30
0.0
 11
2075.851014127787
 21
2136.749979603862
 31
0.0
  0
LINE
  5
161E
330
108D
100
AcDbEntity
  8
SUNPO
 62
   144
100
AcDbLine
 10
2227.851014127787
 20
2136.749979603862
 30
0.0
 11
2271.851014127787
 21
2136.749979603862
 31
0.0
  0
MTEXT
  5
161F
330
108D
100
AcDbEntity
  8
SUNPO
 62
     7
100
AcDbMText
 10
2243.145856512759
 20
2174.249979603863
 30
0.0
 40
50.0
 41
0.0
 71
     5
 72
     1
  1
\A2;20
  7
ADD
1001
ACAD
1000
MTEXTBEGIN
1070
    73
1070
     1
1070
    44
1040
1.0
1070
    74
1070
     0
1000
MTEXTEND
1000
MTEXTBEGIN
1070
    73
1070
     1
1070
    44
1040
1.0
1070
    74
1070
     0
1000
MTEXTEND
  0
LINE
  5
1620
330
108D
100
AcDbEntity
  8
SUNPO
 62
   144
100
AcDbLine
 10
2163.851014127787
 20
2136.749979603862
 30
0.0
 11
2183.851014127787
 21
2136.749979603862
 31
0.0
  0
SOLID
  5
1621
330
108D
100
AcDbEntity
  8
SUNPO
 62
   144
100
AcDbTrace
 10
2119.851014127787
 20
2144.083312937196
 30
0.0
 11
2119.851014127787
 21
2129.416646270529
 31
0.0
 12
2163.851014127787
 22
2136.749979603862
 32
0.0
 13
2163.851014127787
 23
2136.749979603862
 33
0.0
  0
SOLID
  5
1622
330
108D
100
AcDbEntity
  8
SUNPO
 62
   144
100
AcDbTrace
 10
2227.851014127787
 20
2144.083312937196
 30
0.0
 11
2227.851014127787
 21
2129.416646270529
 31
0.0
 12
2183.851014127787
 22
2136.749979603862
 32
0.0
 13
2183.851014127787
 23
2136.749979603862
 33
0.0
  0
POINT
  5
1623
330
108D
100
AcDbEntity
  8
DEFPOINTS
 62
     0
100
AcDbPoint
 10
2163.851014127787
 20
1933.515747133855
 30
0.0
  0
POINT
  5
1624
330
108D
100
AcDbEntity
  8
DEFPOINTS
 62
     0
100
AcDbPoint
 10
2183.851014127787
 20
1933.515747133855
 30
0.0
  0
POINT
  5
1625
330
108D
100
AcDbEntity
  8
DEFPOINTS
 62
     0
100
AcDbPoint
 10
2183.851014127787
 20
2136.749979603862
 30
0.0
  0
ENDBLK
  5
109A
330
108D
100
AcDbEntity
  8
0
100
AcDbBlockEnd
  0
BLOCK
  5
10AD
330
10A1
100
AcDbEntity
  8
0
100
AcDbBlockBegin
  2
*D20
 70
     1
 10
0.0
 20
0.0
 30
0.0
  3
*D20
  1

  0
LINE
  5
1610
330
10A1
100
AcDbEntity
  8
SUNPO
 62
   144
100
AcDbLine
 10
2182.963001855372
 20
1933.515747133855
 30
0.0
 11
2429.167042655039
 21
1933.515747133855
 31
0.0
  0
LINE
  5
1611
330
10A1
100
AcDbEntity
  8
SUNPO
 62
   144
100
AcDbLine
 10
2182.963001855372
 20
1953.49602326318
 30
0.0
 11
2429.167042655039
 21
1953.49602326318
 31
0.0
  0
LINE
  5
1612
330
10A1
100
AcDbEntity
  8
SUNPO
 62
   144
100
AcDbLine
 10
2419.167042655039
 20
1889.515747133856
 30
0.0
 11
2419.167042655039
 21
1845.515747133855
 31
0.0
  0
LINE
  5
1613
330
10A1
100
AcDbEntity
  8
SUNPO
 62
   144
100
AcDbLine
 10
2419.167042655039
 20
1997.49602326318
 30
0.0
 11
2419.167042655039
 21
2041.496023263179
 31
0.0
  0
MTEXT
  5
1614
330
10A1
100
AcDbEntity
  8
SUNPO
 62
     7
100
AcDbMText
 10
2381.667042655038
 20
2023.721102145467
 30
0.0
 40
50.0
 41
0.0
 71
     5
 72
     1
  1
\A2;20
  7
ADD
 11
0.0000000000000001
 21
1.0
 31
0.0
1001
ACAD
1000
MTEXTBEGIN
1070
    73
1070
     1
1070
    44
1040
1.0
1070
    74
1070
     0
1000
MTEXTEND
1000
MTEXTBEGIN
1070
    73
1070
     1
1070
    44
1040
1.0
1070
    74
1070
     0
1000
MTEXTEND
  0
LINE
  5
1615
330
10A1
100
AcDbEntity
  8
SUNPO
 62
   144
100
AcDbLine
 10
2419.167042655039
 20
1933.515747133855
 30
0.0
 11
2419.167042655039
 21
1953.49602326318
 31
0.0
  0
SOLID
  5
1616
330
10A1
100
AcDbEntity
  8
SUNPO
 62
   144
100
AcDbTrace
 10
2411.833709321705
 20
1889.515747133856
 30
0.0
 11
2426.500375988372
 21
1889.515747133856
 31
0.0
 12
2419.167042655039
 22
1933.515747133855
 32
0.0
 13
2419.167042655039
 23
1933.515747133855
 33
0.0
  0
SOLID
  5
1617
330
10A1
100
AcDbEntity
  8
SUNPO
 62
   144
100
AcDbTrace
 10
2411.833709321705
 20
1997.49602326318
 30
0.0
 11
2426.500375988372
 21
1997.49602326318
 31
0.0
 12
2419.167042655039
 22
1953.49602326318
 32
0.0
 13
2419.167042655039
 23
1953.49602326318
 33
0.0
  0
POINT
  5
1618
330
10A1
100
AcDbEntity
  8
DEFPOINTS
 62
     0
100
AcDbPoint
 10
2162.963001855372
 20
1933.515747133855
 30
0.0
  0
POINT
  5
1619
330
10A1
100
AcDbEntity
  8
DEFPOINTS
 62
     0
100
AcDbPoint
 10
2162.963001855372
 20
1953.49602326318
 30
0.0
  0
POINT
  5
161A
330
10A1
100
AcDbEntity
  8
DEFPOINTS
 62
     0
100
AcDbPoint
 10
2419.167042655039
 20
1953.49602326318
 30
0.0
  0
ENDBLK
  5
10AE
330
10A1
100
AcDbEntity
  8
0
100
AcDbBlockEnd
  0
BLOCK
  5
10D8
330
10CE
100
AcDbEntity
  8
0
100
AcDbBlockBegin
  2
*D21
 70
     1
 10
0.0
 20
0.0
 30
0.0
  3
*D21
  1

  0
LINE
  5
1607
330
10CE
100
AcDbEntity
  8
SUNPO
 62
   144
100
AcDbLine
 10
2013.851014127787
 20
1763.515747133855
 30
0.0
 11
2013.851014127787
 21
1218.774390045935
 31
0.0
  0
LINE
  5
1608
330
10CE
100
AcDbEntity
  8
SUNPO
 62
   144
100
AcDbLine
 10
4733.851014127787
 20
1763.515747133855
 30
0.0
 11
4733.851014127787
 21
1218.774390045935
 31
0.0
  0
LINE
  5
1609
330
10CE
100
AcDbEntity
  8
SUNPO
 62
   144
100
AcDbLine
 10
2057.851014127787
 20
1228.774390045935
 30
0.0
 11
4689.851014127787
 21
1228.774390045935
 31
0.0
  0
SOLID
  5
160A
330
10CE
100
AcDbEntity
  8
SUNPO
 62
   144
100
AcDbTrace
 10
2057.851014127787
 20
1236.107723379268
 30
0.0
 11
2057.851014127787
 21
1221.441056712602
 31
0.0
 12
2013.851014127787
 22
1228.774390045935
 32
0.0
 13
2013.851014127787
 23
1228.774390045935
 33
0.0
  0
SOLID
  5
160B
330
10CE
100
AcDbEntity
  8
SUNPO
 62
   144
100
AcDbTrace
 10
4689.851014127787
 20
1236.107723379268
 30
0.0
 11
4689.851014127787
 21
1221.441056712602
 31
0.0
 12
4733.851014127787
 22
1228.774390045935
 32
0.0
 13
4733.851014127787
 23
1228.774390045935
 33
0.0
  0
MTEXT
  5
160C
330
10CE
100
AcDbEntity
  8
SUNPO
 62
     7
100
AcDbMText
 10
3373.851014127787
 20
1266.274390045935
 30
0.0
 40
50.0
 41
0.0
 71
     5
 72
     1
  1
\A2;2720
  7
ADD
1001
ACAD
1000
MTEXTBEGIN
1070
    73
1070
     1
1070
    44
1040
1.0
1070
    74
1070
     0
1000
MTEXTEND
1000
MTEXTBEGIN
1070
    73
1070
     1
1070
    44
1040
1.0
1070
    74
1070
     0
1000
MTEXTEND
  0
POINT
  5
160D
330
10CE
100
AcDbEntity
  8
DEFPOINTS
 62
     0
100
AcDbPoint
 10
2013.851014127787
 20
1783.515747133855
 30
0.0
  0
POINT
  5
160E
330
10CE
100
AcDbEntity
  8
DEFPOINTS
 62
     0
100
AcDbPoint
 10
4733.851014127787
 20
1783.515747133855
 30
0.0
  0
POINT
  5
160F
330
10CE
100
AcDbEntity
  8
DEFPOINTS
 62
     0
100
AcDbPoint
 10
4733.851014127787
 20
1228.774390045935
 30
0.0
  0
ENDBLK
  5
10D9
330
10CE
100
AcDbEntity
  8
0
100
AcDbBlockEnd
  0
BLOCK
  5
10E7
330
10DD
100
AcDbEntity
  8
0
100
AcDbBlockBegin
  2
*D22
 70
     1
 10
0.0
 20
0.0
 30
0.0
  3
*D22
  1

  0
LINE
  5
15FE
330
10DD
100
AcDbEntity
  8
SUNPO
 62
   144
100
AcDbLine
 10
2013.851014127787
 20
1763.515747133855
 30
0.0
 11
2013.851014127787
 21
1481.145068589895
 31
0.0
  0
LINE
  5
15FF
330
10DD
100
AcDbEntity
  8
SUNPO
 62
   144
100
AcDbLine
 10
2163.851014127787
 20
1763.515747133855
 30
0.0
 11
2163.851014127787
 21
1481.145068589895
 31
0.0
  0
LINE
  5
1600
330
10DD
100
AcDbEntity
  8
SUNPO
 62
   144
100
AcDbLine
 10
2057.851014127787
 20
1491.145068589895
 30
0.0
 11
2119.851014127787
 21
1491.145068589895
 31
0.0
  0
SOLID
  5
1601
330
10DD
100
AcDbEntity
  8
SUNPO
 62
   144
100
AcDbTrace
 10
2057.851014127787
 20
1498.478401923228
 30
0.0
 11
2057.851014127787
 21
1483.811735256562
 31
0.0
 12
2013.851014127787
 22
1491.145068589895
 32
0.0
 13
2013.851014127787
 23
1491.145068589895
 33
0.0
  0
SOLID
  5
1602
330
10DD
100
AcDbEntity
  8
SUNPO
 62
   144
100
AcDbTrace
 10
2119.851014127787
 20
1498.478401923228
 30
0.0
 11
2119.851014127787
 21
1483.811735256562
 31
0.0
 12
2163.851014127787
 22
1491.145068589895
 32
0.0
 13
2163.851014127787
 23
1491.145068589895
 33
0.0
  0
MTEXT
  5
1603
330
10DD
100
AcDbEntity
  8
SUNPO
 62
     7
100
AcDbMText
 10
2088.851014127787
 20
1528.645068589895
 30
0.0
 40
50.0
 41
0.0
 71
     5
 72
     1
  1
\A2;150
  7
ADD
1001
ACAD
1000
MTEXTBEGIN
1070
    73
1070
     1
1070
    44
1040
1.0
1070
    74
1070
     0
1000
MTEXTEND
1000
MTEXTBEGIN
1070
    73
1070
     1
1070
    44
1040
1.0
1070
    74
1070
     0
1000
MTEXTEND
  0
POINT
  5
1604
330
10DD
100
AcDbEntity
  8
DEFPOINTS
 62
     0
100
AcDbPoint
 10
2013.851014127787
 20
1783.515747133855
 30
0.0
  0
POINT
  5
1605
330
10DD
100
AcDbEntity
  8
DEFPOINTS
 62
     0
100
AcDbPoint
 10
2163.851014127787
 20
1783.515747133855
 30
0.0
  0
POINT
  5
1606
330
10DD
100
AcDbEntity
  8
DEFPOINTS
 62
     0
100
AcDbPoint
 10
2163.851014127787
 20
1491.145068589895
 30
0.0
  0
ENDBLK
  5
10E8
330
10DD
100
AcDbEntity
  8
0
100
AcDbBlockEnd
  0
BLOCK
  5
10F4
330
10EA
100
AcDbEntity
  8
0
100
AcDbBlockBegin
  2
*D23
 70
     1
 10
0.0
 20
0.0
 30
0.0
  3
*D23
  1

  0
LINE
  5
15F5
330
10EA
100
AcDbEntity
  8
SUNPO
 62
   144
100
AcDbLine
 10
2163.851014127787
 20
1763.515747133855
 30
0.0
 11
2163.851014127787
 21
1481.145068589895
 31
0.0
  0
LINE
  5
15F6
330
10EA
100
AcDbEntity
  8
SUNPO
 62
   144
100
AcDbLine
 10
4583.851014127787
 20
1763.515747133855
 30
0.0
 11
4583.851014127787
 21
1481.145068589895
 31
0.0
  0
LINE
  5
15F7
330
10EA
100
AcDbEntity
  8
SUNPO
 62
   144
100
AcDbLine
 10
2207.851014127787
 20
1491.145068589895
 30
0.0
 11
4539.851014127787
 21
1491.145068589895
 31
0.0
  0
SOLID
  5
15F8
330
10EA
100
AcDbEntity
  8
SUNPO
 62
   144
100
AcDbTrace
 10
2207.851014127787
 20
1498.478401923228
 30
0.0
 11
2207.851014127787
 21
1483.811735256562
 31
0.0
 12
2163.851014127787
 22
1491.145068589895
 32
0.0
 13
2163.851014127787
 23
1491.145068589895
 33
0.0
  0
SOLID
  5
15F9
330
10EA
100
AcDbEntity
  8
SUNPO
 62
   144
100
AcDbTrace
 10
4539.851014127787
 20
1498.478401923228
 30
0.0
 11
4539.851014127787
 21
1483.811735256562
 31
0.0
 12
4583.851014127787
 22
1491.145068589895
 32
0.0
 13
4583.851014127787
 23
1491.145068589895
 33
0.0
  0
MTEXT
  5
15FA
330
10EA
100
AcDbEntity
  8
SUNPO
 62
     7
100
AcDbMText
 10
3373.851014127787
 20
1528.645068589895
 30
0.0
 40
50.0
 41
0.0
 71
     5
 72
     1
  1
\A2;2420
  7
ADD
1001
ACAD
1000
MTEXTBEGIN
1070
    73
1070
     1
1070
    44
1040
1.0
1070
    74
1070
     0
1000
MTEXTEND
1000
MTEXTBEGIN
1070
    73
1070
     1
1070
    44
1040
1.0
1070
    74
1070
     0
1000
MTEXTEND
  0
POINT
  5
15FB
330
10EA
100
AcDbEntity
  8
DEFPOINTS
 62
     0
100
AcDbPoint
 10
2163.851014127787
 20
1783.515747133855
 30
0.0
  0
POINT
  5
15FC
330
10EA
100
AcDbEntity
  8
DEFPOINTS
 62
     0
100
AcDbPoint
 10
4583.851014127787
 20
1783.515747133855
 30
0.0
  0
POINT
  5
15FD
330
10EA
100
AcDbEntity
  8
DEFPOINTS
 62
     0
100
AcDbPoint
 10
4583.851014127787
 20
1491.145068589895
 30
0.0
  0
ENDBLK
  5
10F5
330
10EA
100
AcDbEntity
  8
0
100
AcDbBlockEnd
  0
BLOCK
  5
1101
330
10F7
100
AcDbEntity
  8
0
100
AcDbBlockBegin
  2
*D24
 70
     1
 10
0.0
 20
0.0
 30
0.0
  3
*D24
  1

  0
LINE
  5
15EC
330
10F7
100
AcDbEntity
  8
SUNPO
 62
   144
100
AcDbLine
 10
4583.851014127787
 20
1763.515747133855
 30
0.0
 11
4583.851014127787
 21
1481.145068589895
 31
0.0
  0
LINE
  5
15ED
330
10F7
100
AcDbEntity
  8
SUNPO
 62
   144
100
AcDbLine
 10
4733.851014127787
 20
1763.515747133855
 30
0.0
 11
4733.851014127787
 21
1481.145068589895
 31
0.0
  0
LINE
  5
15EE
330
10F7
100
AcDbEntity
  8
SUNPO
 62
   144
100
AcDbLine
 10
4627.851014127787
 20
1491.145068589895
 30
0.0
 11
4689.851014127787
 21
1491.145068589895
 31
0.0
  0
SOLID
  5
15EF
330
10F7
100
AcDbEntity
  8
SUNPO
 62
   144
100
AcDbTrace
 10
4627.851014127787
 20
1498.478401923228
 30
0.0
 11
4627.851014127787
 21
1483.811735256562
 31
0.0
 12
4583.851014127787
 22
1491.145068589895
 32
0.0
 13
4583.851014127787
 23
1491.145068589895
 33
0.0
  0
SOLID
  5
15F0
330
10F7
100
AcDbEntity
  8
SUNPO
 62
   144
100
AcDbTrace
 10
4689.851014127787
 20
1498.478401923228
 30
0.0
 11
4689.851014127787
 21
1483.811735256562
 31
0.0
 12
4733.851014127787
 22
1491.145068589895
 32
0.0
 13
4733.851014127787
 23
1491.145068589895
 33
0.0
  0
MTEXT
  5
15F1
330
10F7
100
AcDbEntity
  8
SUNPO
 62
     7
100
AcDbMText
 10
4658.851014127787
 20
1528.645068589895
 30
0.0
 40
50.0
 41
0.0
 71
     5
 72
     1
  1
\A2;150
  7
ADD
1001
ACAD
1000
MTEXTBEGIN
1070
    73
1070
     1
1070
    44
1040
1.0
1070
    74
1070
     0
1000
MTEXTEND
1000
MTEXTBEGIN
1070
    73
1070
     1
1070
    44
1040
1.0
1070
    74
1070
     0
1000
MTEXTEND
  0
POINT
  5
15F2
330
10F7
100
AcDbEntity
  8
DEFPOINTS
 62
     0
100
AcDbPoint
 10
4583.851014127787
 20
1783.515747133855
 30
0.0
  0
POINT
  5
15F3
330
10F7
100
AcDbEntity
  8
DEFPOINTS
 62
     0
100
AcDbPoint
 10
4733.851014127787
 20
1783.515747133855
 30
0.0
  0
POINT
  5
15F4
330
10F7
100
AcDbEntity
  8
DEFPOINTS
 62
     0
100
AcDbPoint
 10
4733.851014127787
 20
1491.145068589895
 30
0.0
  0
ENDBLK
  5
1102
330
10F7
100
AcDbEntity
  8
0
100
AcDbBlockEnd
  0
ENDSEC
  0
SECTION
  2
ENTITIES
  0
LINE
  5
60A
330
1F
100
AcDbEntity
  8
HOJO
100
AcDbLine
 10
360.0
 20
260.0
 30
0.0
 11
5580.0
 21
260.0
 31
0.0
  0
LINE
  5
60B
330
1F
100
AcDbEntity
  8
HOJO
100
AcDbLine
 10
360.0
 20
560.0
 30
0.0
 11
5580.0
 21
560.0
 31
0.0
  0
LINE
  5
60C
330
1F
100
AcDbEntity
  8
HOJO
100
AcDbLine
 10
360.0
 20
260.0
 30
0.0
 11
360.0
 21
560.0
 31
0.0
  0
LINE
  5
60D
330
1F
100
AcDbEntity
  8
HOJO
100
AcDbLine
 10
2360.0
 20
260.0
 30
0.0
 11
2360.0
 21
560.0
 31
0.0
  0
LINE
  5
60F
330
1F
100
AcDbEntity
  8
HOJO
100
AcDbLine
 10
3160.0
 20
260.0
 30
0.0
 11
3160.0
 21
560.0
 31
0.0
  0
LINE
  5
610
330
1F
100
AcDbEntity
  8
HOJO
100
AcDbLine
 10
3660.0
 20
260.0
 30
0.0
 11
3660.0
 21
560.0
 31
0.0
  0
LINE
  5
E73
330
1F
100
AcDbEntity
  8
3C1
100
AcDbLine
 10
2013.851014127787
 20
1783.515747133855
 30
0.0
 11
2013.851014127787
 21
2833.515747133855
 31
0.0
  0
LINE
  5
E75
330
1F
100
AcDbEntity
  8
3C1
100
AcDbLine
 10
2013.851014127787
 20
1783.515747133855
 30
0.0
 11
4733.851014127787
 21
1783.515747133855
 31
0.0
  0
LINE
  5
E76
330
1F
100
AcDbEntity
  8
3C1
100
AcDbLine
 10
4733.851014127787
 20
1783.515747133855
 30
0.0
 11
4733.851014127787
 21
2833.515747133855
 31
0.0
  0
LINE
  5
E77
330
1F
100
AcDbEntity
  8
3C1
100
AcDbLine
 10
2013.851014127787
 20
2833.515747133855
 30
0.0
 11
2123.851014127787
 21
2833.515747133855
 31
0.0
  0
LINE
  5
E79
330
1F
100
AcDbEntity
  8
3C1
100
AcDbLine
 10
4733.851014127787
 20
2833.515747133855
 30
0.0
 11
4623.851014127787
 21
2833.515747133855
 31
0.0
  0
LINE
  5
E7C
330
1F
100
AcDbEntity
  8
3C1
100
AcDbLine
 10
2013.851014127788
 20
1933.515747133855
 30
0.0
 11
2103.791784103492
 21
1933.515747133855
 31
0.0
  0
LINE
  5
E83
330
1F
100
AcDbEntity
  8
3C1
100
AcDbLine
 10
2063.910185739814
 20
2830.851710316611
 30
0.0
 11
2103.791784103492
 21
1933.515747133855
 31
0.0
  0
LINE
  5
E84
330
1F
100
AcDbEntity
  8
3C1
100
AcDbLine
 10
4683.79184251576
 20
2830.851710316611
 30
0.0
 11
4643.910244152081
 21
1933.515747133855
 31
0.0
  0
LINE
  5
E85
330
1F
100
AcDbEntity
  8
3C1
100
AcDbLine
 10
1513.851014127787
 20
1783.515747133855
 30
0.0
 11
1513.851014127787
 21
2833.515747133855
 31
0.0
  0
LINE
  5
E86
330
1F
100
AcDbEntity
  8
3C1
100
AcDbLine
 10
1513.851014127787
 20
1783.515747133855
 30
0.0
 11
1333.851014127787
 21
1783.515747133855
 31
0.0
  0
LINE
  5
E87
330
1F
100
AcDbEntity
  8
3C1
100
AcDbLine
 10
1333.851014127787
 20
1783.515747133855
 30
0.0
 11
1333.851014127787
 21
2833.515747133855
 31
0.0
  0
LINE
  5
E88
330
1F
100
AcDbEntity
  8
3C1
100
AcDbLine
 10
1333.851014127787
 20
2833.515747133855
 30
0.0
 11
1513.851014127787
 21
2833.515747133855
 31
0.0
  0
LINE
  5
E89
330
1F
100
AcDbEntity
  8
3C1
100
AcDbLine
 10
1513.851014127787
 20
1933.515747133855
 30
0.0
 11
1463.851014127787
 21
1933.515747133855
 31
0.0
  0
LINE
  5
E8A
330
1F
100
AcDbEntity
  8
3C1
100
AcDbLine
 10
1383.851014127787
 20
1933.515747133855
 30
0.0
 11
1383.851014127787
 21
2833.515747133855
 31
0.0
  0
LINE
  5
E8B
330
1F
100
AcDbEntity
  8
3C1
100
AcDbLine
 10
1463.851014127788
 20
1933.515747133855
 30
0.0
 11
1463.851014127787
 21
2833.515747133855
 31
0.0
  0
LINE
  5
E8C
330
1F
100
AcDbEntity
  8
3C1
100
AcDbLine
 10
1388.851014127788
 20
1933.515747133855
 30
0.0
 11
1388.851014127787
 21
2833.515747133855
 31
0.0
  0
LINE
  5
E8D
330
1F
100
AcDbEntity
  8
3C1
100
AcDbLine
 10
1458.851014127787
 20
1933.515747133855
 30
0.0
 11
1458.851014127787
 21
2833.515747133855
 31
0.0
  0
LINE
  5
E8E
330
1F
100
AcDbEntity
  8
3C1
100
AcDbLine
 10
1383.851014127787
 20
1933.515747133855
 30
0.0
 11
1333.851014127787
 21
1933.515747133855
 31
0.0
  0
LINE
  5
104B
330
1F
100
AcDbEntity
  8
3C1
100
AcDbLine
 10
4643.91024415208
 20
1933.515747133855
 30
0.0
 11
4733.851014127787
 21
1933.515747133855
 31
0.0
  0
LINE
  5
104C
330
1F
100
AcDbEntity
  8
3C1
100
AcDbLine
 10
2183.851014127786
 20
1933.515747133855
 30
0.0
 11
4563.851014127787
 21
1933.515747133855
 31
0.0
  0
LINE
  5
109B
330
1F
100
AcDbEntity
  8
3C1
100
AcDbLine
 10
2123.851014127787
 20
2833.515747133855
 30
0.0
 11
2162.963001855372
 21
1953.49602326318
 31
0.0
  0
LINE
  5
109C
330
1F
100
AcDbEntity
  8
3C1
100
AcDbLine
 10
4623.851014127787
 20
2833.515747133855
 30
0.0
 11
4584.739026400202
 21
1953.496023263179
 31
0.0
  0
LINE
  5
109D
330
1F
100
AcDbEntity
  8
3C1
100
AcDbLine
 10
2162.963001855372
 20
1953.49602326318
 30
0.0
 11
2183.851014127786
 21
1933.515747133855
 31
0.0
  0
LINE
  5
109E
330
1F
100
AcDbEntity
  8
3C1
100
AcDbLine
 10
4584.739026400202
 20
1953.496023263179
 30
0.0
 11
4563.851014127787
 21
1933.515747133855
 31
0.0
  0
LINE
  5
1775
330
1F
100
AcDbEntity
  8
SUNPO
 62
   144
100
AcDbLine
 10
4583.851014127787
 20
1763.515747133855
 30
0.0
 11
4583.851014127787
 21
1481.145068589895
 31
0.0
  0
LINE
  5
1776
330
1F
100
AcDbEntity
  8
SUNPO
 62
   144
100
AcDbLine
 10
4733.851014127787
 20
1763.515747133855
 30
0.0
 11
4733.851014127787
 21
1481.145068589895
 31
0.0
  0
LINE
  5
1777
330
1F
100
AcDbEntity
  8
SUNPO
 62
   144
100
AcDbLine
 10
4627.851014127787
 20
1491.145068589895
 30
0.0
 11
4689.851014127787
 21
1491.145068589895
 31
0.0
  0
SOLID
  5
1778
330
1F
100
AcDbEntity
  8
SUNPO
 62
   144
100
AcDbTrace
 10
4627.851014127787
 20
1498.478401923228
 30
0.0
 11
4627.851014127787
 21
1483.811735256562
 31
0.0
 12
4583.851014127787
 22
1491.145068589895
 32
0.0
 13
4583.851014127787
 23
1491.145068589895
 33
0.0
  0
SOLID
  5
1779
330
1F
100
AcDbEntity
  8
SUNPO
 62
   144
100
AcDbTrace
 10
4689.851014127787
 20
1498.478401923228
 30
0.0
 11
4689.851014127787
 21
1483.811735256562
 31
0.0
 12
4733.851014127787
 22
1491.145068589895
 32
0.0
 13
4733.851014127787
 23
1491.145068589895
 33
0.0
  0
LINE
  5
177B
330
1F
100
AcDbEntity
  8
SUNPO
 62
   144
100
AcDbLine
 10
2163.851014127787
 20
1763.515747133855
 30
0.0
 11
2163.851014127787
 21
1481.145068589895
 31
0.0
  0
LINE
  5
177C
330
1F
100
AcDbEntity
  8
SUNPO
 62
   144
100
AcDbLine
 10
4583.851014127787
 20
1763.515747133855
 30
0.0
 11
4583.851014127787
 21
1481.145068589895
 31
0.0
  0
LINE
  5
177D
330
1F
100
AcDbEntity
  8
SUNPO
 62
   144
100
AcDbLine
 10
2207.851014127787
 20
1491.145068589895
 30
0.0
 11
4539.851014127787
 21
1491.145068589895
 31
0.0
  0
SOLID
  5
177E
330
1F
100
AcDbEntity
  8
SUNPO
 62
   144
100
AcDbTrace
 10
2207.851014127787
 20
1498.478401923228
 30
0.0
 11
2207.851014127787
 21
1483.811735256562
 31
0.0
 12
2163.851014127787
 22
1491.145068589895
 32
0.0
 13
2163.851014127787
 23
1491.145068589895
 33
0.0
  0
SOLID
  5
177F
330
1F
100
AcDbEntity
  8
SUNPO
 62
   144
100
AcDbTrace
 10
4539.851014127787
 20
1498.478401923228
 30
0.0
 11
4539.851014127787
 21
1483.811735256562
 31
0.0
 12
4583.851014127787
 22
1491.145068589895
 32
0.0
 13
4583.851014127787
 23
1491.145068589895
 33
0.0
  0
LINE
  5
1781
330
1F
100
AcDbEntity
  8
SUNPO
 62
   144
100
AcDbLine
 10
2013.851014127787
 20
1763.515747133855
 30
0.0
 11
2013.851014127787
 21
1481.145068589895
 31
0.0
  0
LINE
  5
1782
330
1F
100
AcDbEntity
  8
SUNPO
 62
   144
100
AcDbLine
 10
2163.851014127787
 20
1763.515747133855
 30
0.0
 11
2163.851014127787
 21
1481.145068589895
 31
0.0
  0
LINE
  5
1783
330
1F
100
AcDbEntity
  8
SUNPO
 62
   144
100
AcDbLine
 10
2057.851014127787
 20
1491.145068589895
 30
0.0
 11
2119.851014127787
 21
1491.145068589895
 31
0.0
  0
SOLID
  5
1784
330
1F
100
AcDbEntity
  8
SUNPO
 62
   144
100
AcDbTrace
 10
2057.851014127787
 20
1498.478401923228
 30
0.0
 11
2057.851014127787
 21
1483.811735256562
 31
0.0
 12
2013.851014127787
 22
1491.145068589895
 32
0.0
 13
2013.851014127787
 23
1491.145068589895
 33
0.0
  0
SOLID
  5
1785
330
1F
100
AcDbEntity
  8
SUNPO
 62
   144
100
AcDbTrace
 10
2119.851014127787
 20
1498.478401923228
 30
0.0
 11
2119.851014127787
 21
1483.811735256562
 31
0.0
 12
2163.851014127787
 22
1491.145068589895
 32
0.0
 13
2163.851014127787
 23
1491.145068589895
 33
0.0
  0
LINE
  5
1787
330
1F
100
AcDbEntity
  8
SUNPO
 62
   144
100
AcDbLine
 10
2013.851014127787
 20
1763.515747133855
 30
0.0
 11
2013.851014127787
 21
1218.774390045935
 31
0.0
  0
LINE
  5
1788
330
1F
100
AcDbEntity
  8
SUNPO
 62
   144
100
AcDbLine
 10
4733.851014127787
 20
1763.515747133855
 30
0.0
 11
4733.851014127787
 21
1218.774390045935
 31
0.0
  0
LINE
  5
1789
330
1F
100
AcDbEntity
  8
SUNPO
 62
   144
100
AcDbLine
 10
2057.851014127787
 20
1228.774390045935
 30
0.0
 11
4689.851014127787
 21
1228.774390045935
 31
0.0
  0
SOLID
  5
178A
330
1F
100
AcDbEntity
  8
SUNPO
 62
   144
100
AcDbTrace
 10
2057.851014127787
 20
1236.107723379268
 30
0.0
 11
2057.851014127787
 21
1221.441056712602
 31
0.0
 12
2013.851014127787
 22
1228.774390045935
 32
0.0
 13
2013.851014127787
 23
1228.774390045935
 33
0.0
  0
SOLID
  5
178B
330
1F
100
AcDbEntity
  8
SUNPO
 62
   144
100
AcDbTrace
 10
4689.851014127787
 20
1236.107723379268
 30
0.0
 11
4689.851014127787
 21
1221.441056712602
 31
0.0
 12
4733.851014127787
 22
1228.774390045935
 32
0.0
 13
4733.851014127787
 23
1228.774390045935
 33
0.0
  0
LINE
  5
178D
330
1F
100
AcDbEntity
  8
SUNPO
 62
   144
100
AcDbLine
 10
2182.963001855372
 20
1933.515747133855
 30
0.0
 11
2429.167042655039
 21
1933.515747133855
 31
0.0
  0
LINE
  5
178E
330
1F
100
AcDbEntity
  8
SUNPO
 62
   144
100
AcDbLine
 10
2182.963001855372
 20
1953.49602326318
 30
0.0
 11
2429.167042655039
 21
1953.49602326318
 31
0.0
  0
LINE
  5
178F
330
1F
100
AcDbEntity
  8
SUNPO
 62
   144
100
AcDbLine
 10
2419.167042655039
 20
1889.515747133856
 30
0.0
 11
2419.167042655039
 21
1845.515747133855
 31
0.0
  0
LINE
  5
1790
330
1F
100
AcDbEntity
  8
SUNPO
 62
   144
100
AcDbLine
 10
2419.167042655039
 20
1997.49602326318
 30
0.0
 11
2419.167042655039
 21
2041.496023263179
 31
0.0
  0
LINE
  5
1792
330
1F
100
AcDbEntity
  8
SUNPO
 62
   144
100
AcDbLine
 10
2419.167042655039
 20
1933.515747133855
 30
0.0
 11
2419.167042655039
 21
1953.49602326318
 31
0.0
  0
SOLID
  5
1793
330
1F
100
AcDbEntity
  8
SUNPO
 62
   144
100
AcDbTrace
 10
2411.833709321705
 20
1889.515747133856
 30
0.0
 11
2426.500375988372
 21
1889.515747133856
 31
0.0
 12
2419.167042655039
 22
1933.515747133855
 32
0.0
 13
2419.167042655039
 23
1933.515747133855
 33
0.0
  0
SOLID
  5
1794
330
1F
100
AcDbEntity
  8
SUNPO
 62
   144
100
AcDbTrace
 10
2411.833709321705
 20
1997.49602326318
 30
0.0
 11
2426.500375988372
 21
1997.49602326318
 31
0.0
 12
2419.167042655039
 22
1953.49602326318
 32
0.0
 13
2419.167042655039
 23
1953.49602326318
 33
0.0
  0
LINE
  5
1795
330
1F
100
AcDbEntity
  8
SUNPO
 62
   144
100
AcDbLine
 10
2163.851014127787
 20
1953.515747133855
 30
0.0
 11
2163.851014127787
 21
2146.749979603862
 31
0.0
  0
LINE
  5
1796
330
1F
100
AcDbEntity
  8
SUNPO
 62
   144
100
AcDbLine
 10
2183.851014127787
 20
1953.515747133855
 30
0.0
 11
2183.851014127787
 21
2146.749979603862
 31
0.0
  0
LINE
  5
1797
330
1F
100
AcDbEntity
  8
SUNPO
 62
   144
100
AcDbLine
 10
2119.851014127787
 20
2136.749979603862
 30
0.0
 11
2075.851014127787
 21
2136.749979603862
 31
0.0
  0
LINE
  5
1798
330
1F
100
AcDbEntity
  8
SUNPO
 62
   144
100
AcDbLine
 10
2227.851014127787
 20
2136.749979603862
 30
0.0
 11
2271.851014127787
 21
2136.749979603862
 31
0.0
  0
LINE
  5
179A
330
1F
100
AcDbEntity
  8
SUNPO
 62
   144
100
AcDbLine
 10
2163.851014127787
 20
2136.749979603862
 30
0.0
 11
2183.851014127787
 21
2136.749979603862
 31
0.0
  0
SOLID
  5
179B
330
1F
100
AcDbEntity
  8
SUNPO
 62
   144
100
AcDbTrace
 10
2119.851014127787
 20
2144.083312937196
 30
0.0
 11
2119.851014127787
 21
2129.416646270529
 31
0.0
 12
2163.851014127787
 22
2136.749979603862
 32
0.0
 13
2163.851014127787
 23
2136.749979603862
 33
0.0
  0
SOLID
  5
179C
330
1F
100
AcDbEntity
  8
SUNPO
 62
   144
100
AcDbTrace
 10
2227.851014127787
 20
2144.083312937196
 30
0.0
 11
2227.851014127787
 21
2129.416646270529
 31
0.0
 12
2183.851014127787
 22
2136.749979603862
 32
0.0
 13
2183.851014127787
 23
2136.749979603862
 33
0.0
  0
LINE
  5
179D
330
1F
100
AcDbEntity
  8
SUNPO
 62
   144
100
AcDbLine
 10
1333.851014127787
 20
1763.515747133855
 30
0.0
 11
1333.851014127787
 21
1228.774390045935
 31
0.0
  0
LINE
  5
179E
330
1F
100
AcDbEntity
  8
SUNPO
 62
   144
100
AcDbLine
 10
1513.851014127787
 20
1763.515747133855
 30
0.0
 11
1513.851014127787
 21
1228.774390045935
 31
0.0
  0
LINE
  5
179F
330
1F
100
AcDbEntity
  8
SUNPO
 62
   144
100
AcDbLine
 10
1377.851014127787
 20
1238.774390045935
 30
0.0
 11
1469.851014127787
 21
1238.774390045935
 31
0.0
  0
SOLID
  5
17A0
330
1F
100
AcDbEntity
  8
SUNPO
 62
   144
100
AcDbTrace
 10
1377.851014127787
 20
1246.107723379268
 30
0.0
 11
1377.851014127787
 21
1231.441056712602
 31
0.0
 12
1333.851014127787
 22
1238.774390045935
 32
0.0
 13
1333.851014127787
 23
1238.774390045935
 33
0.0
  0
SOLID
  5
17A1
330
1F
100
AcDbEntity
  8
SUNPO
 62
   144
100
AcDbTrace
 10
1469.851014127787
 20
1246.107723379268
 30
0.0
 11
1469.851014127787
 21
1231.441056712602
 31
0.0
 12
1513.851014127787
 22
1238.774390045935
 32
0.0
 13
1513.851014127787
 23
1238.774390045935
 33
0.0
  0
TEXT
  5
17A3
330
1F
100
AcDbEntity
  8
SUNPO
100
AcDbText
 10
2446.466767997013
 20
417.0451694377297
 30
0.0
 40
50.0
  1
900×2500
  7
ADD
100
AcDbText
1001
ACAD
1000
MTEXTBEGIN
1070
    73
1070
     1
1070
    44
1040
1.0
1070
    74
1070
     0
1000
MTEXTEND
  0
TEXT
  5
17A4
330
1F
100
AcDbEntity
  8
SUNPO
100
AcDbText
 10
620.9738466180584
 20
407.6357238281834
 30
0.0
 40
50.0
  1
B型柵渠 杭
  7
ADD
100
AcDbText
1001
ACAD
1000
MTEXTBEGIN
1070
    73
1070
     1
1070
    44
1040
1.0
1070
    74
1070
     0
1000
MTEXTEND
  0
LINE
  5
17A5
330
1F
100
AcDbEntity
  8
SUNPO
 62
   144
100
AcDbLine
 10
1993.851014127787
 20
1933.515747133855
 30
0.0
 11
1846.661215995016
 21
1933.515747133855
 31
0.0
  0
LINE
  5
17A6
330
1F
100
AcDbEntity
  8
SUNPO
 62
   144
100
AcDbLine
 10
1993.851014127787
 20
2833.515747133855
 30
0.0
 11
1846.661215995016
 21
2833.515747133855
 31
0.0
  0
LINE
  5
17A7
330
1F
100
AcDbEntity
  8
SUNPO
 62
   144
100
AcDbLine
 10
1856.661215995016
 20
1977.515747133855
 30
0.0
 11
1856.661215995016
 21
2789.515747133855
 31
0.0
  0
SOLID
  5
17A8
330
1F
100
AcDbEntity
  8
SUNPO
 62
   144
100
AcDbTrace
 10
1849.327882661683
 20
1977.515747133855
 30
0.0
 11
1863.994549328349
 21
1977.515747133855
 31
0.0
 12
1856.661215995016
 22
1933.515747133855
 32
0.0
 13
1856.661215995016
 23
1933.515747133855
 33
0.0
  0
SOLID
  5
17A9
330
1F
100
AcDbEntity
  8
SUNPO
 62
   144
100
AcDbTrace
 10
1849.327882661683
 20
2789.515747133855
 30
0.0
 11
1863.994549328349
 21
2789.515747133855
 31
0.0
 12
1856.661215995016
 22
2833.515747133855
 32
0.0
 13
1856.661215995016
 23
2833.515747133855
 33
0.0
  0
LINE
  5
17AB
330
1F
100
AcDbEntity
  8
SUNPO
 62
   144
100
AcDbLine
 10
1993.851014127787
 20
1783.515747133855
 30
0.0
 11
1846.661215995016
 21
1783.515747133855
 31
0.0
  0
LINE
  5
17AC
330
1F
100
AcDbEntity
  8
SUNPO
 62
   144
100
AcDbLine
 10
1993.851014127788
 20
1933.515747133855
 30
0.0
 11
1846.661215995016
 21
1933.515747133855
 31
0.0
  0
LINE
  5
17AD
330
1F
100
AcDbEntity
  8
SUNPO
 62
   144
100
AcDbLine
 10
1856.661215995016
 20
1827.515747133855
 30
0.0
 11
1856.661215995016
 21
1889.515747133855
 31
0.0
  0
SOLID
  5
17AE
330
1F
100
AcDbEntity
  8
SUNPO
 62
   144
100
AcDbTrace
 10
1849.327882661683
 20
1827.515747133855
 30
0.0
 11
1863.994549328349
 21
1827.515747133855
 31
0.0
 12
1856.661215995016
 22
1783.515747133855
 32
0.0
 13
1856.661215995016
 23
1783.515747133855
 33
0.0
  0
SOLID
  5
17AF
330
1F
100
AcDbEntity
  8
SUNPO
 62
   144
100
AcDbTrace
 10
1849.327882661683
 20
1889.515747133855
 30
0.0
 11
1863.994549328349
 21
1889.515747133855
 31
0.0
 12
1856.661215995016
 22
1933.515747133855
 32
0.0
 13
1856.661215995016
 23
1933.515747133855
 33
0.0
  0
LINE
  5
17B1
330
1F
100
AcDbEntity
  8
SUNPO
 62
   144
100
AcDbLine
 10
1993.851014127787
 20
2833.515747133855
 30
0.0
 11
1680.395839392869
 21
2833.515747133855
 31
0.0
  0
LINE
  5
17B2
330
1F
100
AcDbEntity
  8
SUNPO
 62
   144
100
AcDbLine
 10
1993.851014127787
 20
1783.515747133855
 30
0.0
 11
1680.395839392869
 21
1783.515747133855
 31
0.0
  0
LINE
  5
17B3
330
1F
100
AcDbEntity
  8
SUNPO
 62
   144
100
AcDbLine
 10
1690.39583939287
 20
2789.515747133855
 30
0.0
 11
1690.395839392869
 21
1827.515747133855
 31
0.0
  0
SOLID
  5
17B4
330
1F
100
AcDbEntity
  8
SUNPO
 62
   144
100
AcDbTrace
 10
1683.062506059536
 20
2789.515747133855
 30
0.0
 11
1697.729172726203
 21
2789.515747133855
 31
0.0
 12
1690.39583939287
 22
2833.515747133855
 32
0.0
 13
1690.39583939287
 23
2833.515747133855
 33
0.0
  0
SOLID
  5
17B5
330
1F
100
AcDbEntity
  8
SUNPO
 62
   144
100
AcDbTrace
 10
1683.062506059536
 20
1827.515747133855
 30
0.0
 11
1697.729172726203
 21
1827.515747133855
 31
0.0
 12
1690.395839392869
 22
1783.515747133855
 32
0.0
 13
1690.395839392869
 23
1783.515747133855
 33
0.0
  0
LINE
  5
17B7
330
1F
100
AcDbEntity
  8
SUNPO
 62
   144
100
AcDbLine
 10
4623.851014127787
 20
2853.515747133855
 30
0.0
 11
4623.851014127787
 21
3006.584140669775
 31
0.0
  0
LINE
  5
17B8
330
1F
100
AcDbEntity
  8
SUNPO
 62
   144
100
AcDbLine
 10
4683.79184251576
 20
2850.851710316612
 30
0.0
 11
4683.79184251576
 21
3006.584140669775
 31
0.0
  0
LINE
  5
17B9
330
1F
100
AcDbEntity
  8
SUNPO
 62
   144
100
AcDbLine
 10
4579.851014127787
 20
2996.584140669775
 30
0.0
 11
4535.851014127787
 21
2996.584140669775
 31
0.0
  0
LINE
  5
17BA
330
1F
100
AcDbEntity
  8
SUNPO
 62
   144
100
AcDbLine
 10
4727.791842515761
 20
2996.584140669775
 30
0.0
 11
4771.79184251576
 21
2996.584140669775
 31
0.0
  0
LINE
  5
17BB
330
1F
100
AcDbEntity
  8
SUNPO
 62
   144
100
AcDbLine
 10
4623.851014127787
 20
2996.584140669775
 30
0.0
 11
4683.79184251576
 21
2996.584140669775
 31
0.0
  0
SOLID
  5
17BC
330
1F
100
AcDbEntity
  8
SUNPO
 62
   144
100
AcDbTrace
 10
4579.851014127787
 20
3003.917474003109
 30
0.0
 11
4579.851014127787
 21
2989.250807336442
 31
0.0
 12
4623.851014127787
 22
2996.584140669775
 32
0.0
 13
4623.851014127787
 23
2996.584140669775
 33
0.0
  0
SOLID
  5
17BD
330
1F
100
AcDbEntity
  8
SUNPO
 62
   144
100
AcDbTrace
 10
4727.791842515761
 20
3003.917474003109
 30
0.0
 11
4727.791842515761
 21
2989.250807336442
 31
0.0
 12
4683.79184251576
 22
2996.584140669775
 32
0.0
 13
4683.79184251576
 23
2996.584140669775
 33
0.0
  0
LINE
  5
17BF
330
1F
100
AcDbEntity
  8
SUNPO
 62
   144
100
AcDbLine
 10
2063.910185739814
 20
2850.851710316612
 30
0.0
 11
2063.910185739814
 21
3006.584140669775
 31
0.0
  0
LINE
  5
17C0
330
1F
100
AcDbEntity
  8
SUNPO
 62
   144
100
AcDbLine
 10
2123.851014127787
 20
2853.515747133855
 30
0.0
 11
2123.851014127787
 21
3006.584140669775
 31
0.0
  0
LINE
  5
17C1
330
1F
100
AcDbEntity
  8
SUNPO
 62
   144
100
AcDbLine
 10
2019.910185739815
 20
2996.584140669775
 30
0.0
 11
1975.910185739815
 21
2996.584140669775
 31
0.0
  0
LINE
  5
17C2
330
1F
100
AcDbEntity
  8
SUNPO
 62
   144
100
AcDbLine
 10
2167.851014127787
 20
2996.584140669775
 30
0.0
 11
2211.851014127787
 21
2996.584140669775
 31
0.0
  0
LINE
  5
17C4
330
1F
100
AcDbEntity
  8
SUNPO
 62
   144
100
AcDbLine
 10
2063.910185739814
 20
2996.584140669775
 30
0.0
 11
2123.851014127787
 21
2996.584140669775
 31
0.0
  0
SOLID
  5
17C5
330
1F
100
AcDbEntity
  8
SUNPO
 62
   144
100
AcDbTrace
 10
2019.910185739815
 20
3003.917474003109
 30
0.0
 11
2019.910185739815
 21
2989.250807336442
 31
0.0
 12
2063.910185739814
 22
2996.584140669775
 32
0.0
 13
2063.910185739814
 23
2996.584140669775
 33
0.0
  0
SOLID
  5
17C6
330
1F
100
AcDbEntity
  8
SUNPO
 62
   144
100
AcDbTrace
 10
2167.851014127787
 20
3003.917474003109
 30
0.0
 11
2167.851014127787
 21
2989.250807336442
 31
0.0
 12
2123.851014127787
 22
2996.584140669775
 32
0.0
 13
2123.851014127787
 23
2996.584140669775
 33
0.0
  0
LINE
  5
17C7
330
1F
100
AcDbEntity
  8
SUNPO
 62
   144
100
AcDbLine
 10
4623.851014127787
 20
2853.515747133855
 30
0.0
 11
4623.851014127787
 21
3139.652534205696
 31
0.0
  0
LINE
  5
17C8
330
1F
100
AcDbEntity
  8
SUNPO
 62
   144
100
AcDbLine
 10
4733.851014127787
 20
2853.515747133855
 30
0.0
 11
4733.851014127787
 21
3139.652534205696
 31
0.0
  0
LINE
  5
17C9
330
1F
100
AcDbEntity
  8
SUNPO
 62
   144
100
AcDbLine
 10
4653.851014127787
 20
3129.652534205695
 30
0.0
 11
4703.851014127788
 21
3129.652534205695
 31
0.0
  0
SOLID
  5
17CB
330
1F
100
AcDbEntity
  8
SUNPO
 62
   144
100
AcDbTrace
 10
4653.851014127787
 20
3134.652534205695
 30
0.0
 11
4653.851014127787
 21
3124.652534205695
 31
0.0
 12
4623.851014127787
 22
3129.652534205695
 32
0.0
 13
4623.851014127787
 23
3129.652534205695
 33
0.0
  0
SOLID
  5
17CC
330
1F
100
AcDbEntity
  8
SUNPO
 62
   144
100
AcDbTrace
 10
4703.851014127788
 20
3134.652534205695
 30
0.0
 11
4703.851014127788
 21
3124.652534205695
 31
0.0
 12
4733.851014127787
 22
3129.652534205695
 32
0.0
 13
4733.851014127787
 23
3129.652534205695
 33
0.0
  0
LINE
  5
17CD
330
1F
100
AcDbEntity
  8
SUNPO
 62
   144
100
AcDbLine
 10
2123.851014127787
 20
2853.515747133855
 30
0.0
 11
2123.851014127787
 21
3139.652534205696
 31
0.0
  0
LINE
  5
17CE
330
1F
100
AcDbEntity
  8
SUNPO
 62
   144
100
AcDbLine
 10
4623.851014127787
 20
2853.515747133855
 30
0.0
 11
4623.851014127787
 21
3139.652534205696
 31
0.0
  0
LINE
  5
17CF
330
1F
100
AcDbEntity
  8
SUNPO
 62
   144
100
AcDbLine
 10
2167.851014127787
 20
3129.652534205695
 30
0.0
 11
4579.851014127787
 21
3129.652534205695
 31
0.0
  0
SOLID
  5
17D0
330
1F
100
AcDbEntity
  8
SUNPO
 62
   144
100
AcDbTrace
 10
2167.851014127787
 20
3136.985867539029
 30
0.0
 11
2167.851014127787
 21
3122.319200872362
 31
0.0
 12
2123.851014127787
 22
3129.652534205695
 32
0.0
 13
2123.851014127787
 23
3129.652534205695
 33
0.0
  0
SOLID
  5
17D1
330
1F
100
AcDbEntity
  8
SUNPO
 62
   144
100
AcDbTrace
 10
4579.851014127787
 20
3136.985867539029
 30
0.0
 11
4579.851014127787
 21
3122.319200872362
 31
0.0
 12
4623.851014127787
 22
3129.652534205695
 32
0.0
 13
4623.851014127787
 23
3129.652534205695
 33
0.0
  0
LINE
  5
17D3
330
1F
100
AcDbEntity
  8
SUNPO
 62
   144
100
AcDbLine
 10
2013.851014127787
 20
2853.515747133855
 30
0.0
 11
2013.851014127787
 21
3139.652534205696
 31
0.0
  0
LINE
  5
17D4
330
1F
100
AcDbEntity
  8
SUNPO
 62
   144
100
AcDbLine
 10
2123.851014127787
 20
2853.515747133855
 30
0.0
 11
2123.851014127787
 21
3139.652534205696
 31
0.0
  0
LINE
  5
17D5
330
1F
100
AcDbEntity
  8
SUNPO
 62
   144
100
AcDbLine
 10
2043.851014127787
 20
3129.652534205695
 30
0.0
 11
2093.851014127787
 21
3129.652534205695
 31
0.0
  0
SOLID
  5
17D7
330
1F
100
AcDbEntity
  8
SUNPO
 62
   144
100
AcDbTrace
 10
2043.851014127787
 20
3134.652534205695
 30
0.0
 11
2043.851014127787
 21
3124.652534205695
 31
0.0
 12
2013.851014127787
 22
3129.652534205695
 32
0.0
 13
2013.851014127787
 23
3129.652534205695
 33
0.0
  0
SOLID
  5
17D8
330
1F
100
AcDbEntity
  8
SUNPO
 62
   144
100
AcDbTrace
 10
2093.851014127787
 20
3134.652534205695
 30
0.0
 11
2093.851014127787
 21
3124.652534205695
 31
0.0
 12
2123.851014127787
 22
3129.652534205695
 32
0.0
 13
2123.851014127787
 23
3129.652534205695
 33
0.0
  0
LINE
  5
17D9
330
1F
100
AcDbEntity
  8
SUNPO
 62
   144
100
AcDbLine
 10
1458.851014127787
 20
2853.515747133855
 30
0.0
 11
1458.851014127787
 21
3006.584140669775
 31
0.0
  0
LINE
  5
17DA
330
1F
100
AcDbEntity
  8
SUNPO
 62
   144
100
AcDbLine
 10
1463.851014127787
 20
2853.515747133855
 30
0.0
 11
1463.851014127787
 21
3006.584140669775
 31
0.0
  0
LINE
  5
17DB
330
1F
100
AcDbEntity
  8
SUNPO
 62
   144
100
AcDbLine
 10
1414.851014127787
 20
2996.584140669775
 30
0.0
 11
1370.851014127787
 21
2996.584140669775
 31
0.0
  0
LINE
  5
17DC
330
1F
100
AcDbEntity
  8
SUNPO
 62
   144
100
AcDbLine
 10
1507.851014127787
 20
2996.584140669775
 30
0.0
 11
1551.851014127787
 21
2996.584140669775
 31
0.0
  0
LINE
  5
17DD
330
1F
100
AcDbEntity
  8
SUNPO
 62
   144
100
AcDbLine
 10
1458.851014127787
 20
2996.584140669775
 30
0.0
 11
1463.851014127787
 21
2996.584140669775
 31
0.0
  0
SOLID
  5
17DE
330
1F
100
AcDbEntity
  8
SUNPO
 62
   144
100
AcDbTrace
 10
1414.851014127787
 20
3003.917474003109
 30
0.0
 11
1414.851014127787
 21
2989.250807336442
 31
0.0
 12
1458.851014127787
 22
2996.584140669775
 32
0.0
 13
1458.851014127787
 23
2996.584140669775
 33
0.0
  0
SOLID
  5
17DF
330
1F
100
AcDbEntity
  8
SUNPO
 62
   144
100
AcDbTrace
 10
1507.851014127787
 20
3003.917474003109
 30
0.0
 11
1507.851014127787
 21
2989.250807336442
 31
0.0
 12
1463.851014127787
 22
2996.584140669775
 32
0.0
 13
1463.851014127787
 23
2996.584140669775
 33
0.0
  0
LINE
  5
17E1
330
1F
100
AcDbEntity
  8
SUNPO
 62
   144
100
AcDbLine
 10
1383.851014127787
 20
2853.515747133855
 30
0.0
 11
1383.851014127787
 21
3006.584140669775
 31
0.0
  0
LINE
  5
17E2
330
1F
100
AcDbEntity
  8
SUNPO
 62
   144
100
AcDbLine
 10
1388.851014127787
 20
2853.515747133855
 30
0.0
 11
1388.851014127787
 21
3006.584140669775
 31
0.0
  0
LINE
  5
17E3
330
1F
100
AcDbEntity
  8
SUNPO
 62
   144
100
AcDbLine
 10
1339.851014127787
 20
2996.584140669775
 30
0.0
 11
1295.851014127787
 21
2996.584140669775
 31
0.0
  0
LINE
  5
17E4
330
1F
100
AcDbEntity
  8
SUNPO
 62
   144
100
AcDbLine
 10
1432.851014127787
 20
2996.584140669775
 30
0.0
 11
1476.851014127787
 21
2996.584140669775
 31
0.0
  0
LINE
  5
17E5
330
1F
100
AcDbEntity
  8
SUNPO
 62
   144
100
AcDbLine
 10
1383.851014127787
 20
2996.584140669775
 30
0.0
 11
1388.851014127787
 21
2996.584140669775
 31
0.0
  0
SOLID
  5
17E6
330
1F
100
AcDbEntity
  8
SUNPO
 62
   144
100
AcDbTrace
 10
1339.851014127787
 20
3003.917474003109
 30
0.0
 11
1339.851014127787
 21
2989.250807336442
 31
0.0
 12
1383.851014127787
 22
2996.584140669775
 32
0.0
 13
1383.851014127787
 23
2996.584140669775
 33
0.0
  0
SOLID
  5
17E7
330
1F
100
AcDbEntity
  8
SUNPO
 62
   144
100
AcDbTrace
 10
1432.851014127787
 20
3003.917474003109
 30
0.0
 11
1432.851014127787
 21
2989.250807336442
 31
0.0
 12
1388.851014127787
 22
2996.584140669775
 32
0.0
 13
1388.851014127787
 23
2996.584140669775
 33
0.0
  0
LINE
  5
17E9
330
1F
100
AcDbEntity
  8
SUNPO
 62
   144
100
AcDbLine
 10
1388.851014127787
 20
2853.515747133855
 30
0.0
 11
1388.851014127787
 21
3139.652534205696
 31
0.0
  0
LINE
  5
17EA
330
1F
100
AcDbEntity
  8
SUNPO
 62
   144
100
AcDbLine
 10
1458.851014127787
 20
2853.515747133855
 30
0.0
 11
1458.851014127787
 21
3139.652534205696
 31
0.0
  0
LINE
  5
17EB
330
1F
100
AcDbEntity
  8
SUNPO
 62
   144
100
AcDbLine
 10
1344.851014127787
 20
3129.652534205695
 30
0.0
 11
1300.851014127787
 21
3129.652534205695
 31
0.0
  0
LINE
  5
17EC
330
1F
100
AcDbEntity
  8
SUNPO
 62
   144
100
AcDbLine
 10
1502.851014127787
 20
3129.652534205695
 30
0.0
 11
1546.851014127787
 21
3129.652534205695
 31
0.0
  0
LINE
  5
17EE
330
1F
100
AcDbEntity
  8
SUNPO
 62
   144
100
AcDbLine
 10
1388.851014127787
 20
3129.652534205695
 30
0.0
 11
1458.851014127787
 21
3129.652534205695
 31
0.0
  0
SOLID
  5
17EF
330
1F
100
AcDbEntity
  8
SUNPO
 62
   144
100
AcDbTrace
 10
1344.851014127787
 20
3136.985867539029
 30
0.0
 11
1344.851014127787
 21
3122.319200872362
 31
0.0
 12
1388.851014127787
 22
3129.652534205695
 32
0.0
 13
1388.851014127787
 23
3129.652534205695
 33
0.0
  0
SOLID
  5
17F0
330
1F
100
AcDbEntity
  8
SUNPO
 62
   144
100
AcDbTrace
 10
1502.851014127787
 20
3136.985867539029
 30
0.0
 11
1502.851014127787
 21
3122.319200872362
 31
0.0
 12
1458.851014127787
 22
3129.652534205695
 32
0.0
 13
1458.851014127787
 23
3129.652534205695
 33
0.0
  0
LINE
  5
17F1
330
1F
100
AcDbEntity
  8
SUNPO
 62
   144
100
AcDbLine
 10
1513.851014127787
 20
2853.515747133855
 30
0.0
 11
1513.851014127787
 21
3139.652534205696
 31
0.0
  0
LINE
  5
17F2
330
1F
100
AcDbEntity
  8
SUNPO
 62
   144
100
AcDbLine
 10
1463.851014127787
 20
2853.515747133855
 30
0.0
 11
1463.851014127787
 21
3139.652534205696
 31
0.0
  0
LINE
  5
17F3
330
1F
100
AcDbEntity
  8
SUNPO
 62
   144
100
AcDbLine
 10
1557.851014127787
 20
3129.652534205695
 30
0.0
 11
1601.851014127787
 21
3129.652534205695
 31
0.0
  0
LINE
  5
17F4
330
1F
100
AcDbEntity
  8
SUNPO
 62
   144
100
AcDbLine
 10
1419.851014127787
 20
3129.652534205695
 30
0.0
 11
1375.851014127787
 21
3129.652534205695
 31
0.0
  0
LINE
  5
17F6
330
1F
100
AcDbEntity
  8
SUNPO
 62
   144
100
AcDbLine
 10
1513.851014127787
 20
3129.652534205695
 30
0.0
 11
1463.851014127787
 21
3129.652534205695
 31
0.0
  0
SOLID
  5
17F7
330
1F
100
AcDbEntity
  8
SUNPO
 62
   144
100
AcDbTrace
 10
1557.851014127787
 20
3136.985867539029
 30
0.0
 11
1557.851014127787
 21
3122.319200872362
 31
0.0
 12
1513.851014127787
 22
3129.652534205695
 32
0.0
 13
1513.851014127787
 23
3129.652534205695
 33
0.0
  0
SOLID
  5
17F8
330
1F
100
AcDbEntity
  8
SUNPO
 62
   144
100
AcDbTrace
 10
1419.851014127787
 20
3136.985867539029
 30
0.0
 11
1419.851014127787
 21
3122.319200872362
 31
0.0
 12
1463.851014127787
 22
3129.652534205695
 32
0.0
 13
1463.851014127787
 23
3129.652534205695
 33
0.0
  0
LINE
  5
17F9
330
1F
100
AcDbEntity
  8
SUNPO
 62
   144
100
AcDbLine
 10
1333.851014127787
 20
2853.515747133855
 30
0.0
 11
1333.851014127787
 21
3139.652534205696
 31
0.0
  0
LINE
  5
17FA
330
1F
100
AcDbEntity
  8
SUNPO
 62
   144
100
AcDbLine
 10
1383.851014127787
 20
2853.515747133855
 30
0.0
 11
1383.851014127787
 21
3139.652534205696
 31
0.0
  0
LINE
  5
17FB
330
1F
100
AcDbEntity
  8
SUNPO
 62
   144
100
AcDbLine
 10
1427.851014127787
 20
3129.652534205695
 30
0.0
 11
1471.851014127787
 21
3129.652534205695
 31
0.0
  0
LINE
  5
17FC
330
1F
100
AcDbEntity
  8
SUNPO
 62
   144
100
AcDbLine
 10
1289.851014127787
 20
3129.652534205695
 30
0.0
 11
1245.851014127787
 21
3129.652534205695
 31
0.0
  0
LINE
  5
17FE
330
1F
100
AcDbEntity
  8
SUNPO
 62
   144
100
AcDbLine
 10
1383.851014127787
 20
3129.652534205695
 30
0.0
 11
1333.851014127787
 21
3129.652534205695
 31
0.0
  0
SOLID
  5
17FF
330
1F
100
AcDbEntity
  8
SUNPO
 62
   144
100
AcDbTrace
 10
1427.851014127787
 20
3136.985867539029
 30
0.0
 11
1427.851014127787
 21
3122.319200872362
 31
0.0
 12
1383.851014127787
 22
3129.652534205695
 32
0.0
 13
1383.851014127787
 23
3129.652534205695
 33
0.0
  0
SOLID
  5
1800
330
1F
100
AcDbEntity
  8
SUNPO
 62
   144
100
AcDbTrace
 10
1289.851014127787
 20
3136.985867539029
 30
0.0
 11
1289.851014127787
 21
3122.319200872362
 31
0.0
 12
1333.851014127787
 22
3129.652534205695
 32
0.0
 13
1333.851014127787
 23
3129.652534205695
 33
0.0
  0
LINE
  5
1801
330
1F
100
AcDbEntity
  8
SUNPO
 62
   144
100
AcDbLine
 10
1333.851014127787
 20
2853.515747133855
 30
0.0
 11
1333.851014127787
 21
3359.8932986298
 31
0.0
  0
LINE
  5
1802
330
1F
100
AcDbEntity
  8
SUNPO
 62
   144
100
AcDbLine
 10
1513.851014127787
 20
2853.515747133855
 30
0.0
 11
1513.851014127787
 21
3359.8932986298
 31
0.0
  0
LINE
  5
1803
330
1F
100
AcDbEntity
  8
SUNPO
 62
   144
100
AcDbLine
 10
1377.851014127787
 20
3349.893298629801
 30
0.0
 11
1469.851014127787
 21
3349.893298629801
 31
0.0
  0
SOLID
  5
1804
330
1F
100
AcDbEntity
  8
SUNPO
 62
   144
100
AcDbTrace
 10
1377.851014127787
 20
3357.226631963134
 30
0.0
 11
1377.851014127787
 21
3342.559965296467
 31
0.0
 12
1333.851014127787
 22
3349.893298629801
 32
0.0
 13
1333.851014127787
 23
3349.893298629801
 33
0.0
  0
SOLID
  5
1805
330
1F
100
AcDbEntity
  8
SUNPO
 62
   144
100
AcDbTrace
 10
1469.851014127787
 20
3357.226631963134
 30
0.0
 11
1469.851014127787
 21
3342.559965296467
 31
0.0
 12
1513.851014127787
 22
3349.893298629801
 32
0.0
 13
1513.851014127787
 23
3349.893298629801
 33
0.0
  0
TEXT
  5
1807
330
1F
100
AcDbEntity
  8
SUNPO
100
AcDbText
 10
3246.680311730542
 20
359.2274732162223
 30
0.0
 40
70.0
  1
１／２０
  7
ADD
100
AcDbText
1001
ACAD
1000
MTEXTBEGIN
1070
    73
1070
     1
1070
    44
1040
1.0
1070
    74
1070
     0
1000
MTEXTEND
  0
TEXT
  5
1808
330
1F
100
AcDbEntity
  8
SUNPO
100
AcDbText
 10
381.8862574011546
 20
488.6918916770627
 30
0.0
 40
50.0
  1
製品名
  7
ADD
100
AcDbText
1001
ACAD
1000
MTEXTBEGIN
1070
    73
1070
     1
1070
    44
1040
1.0
1070
    74
1070
     0
1000
MTEXTEND
  0
TEXT
  5
1809
330
1F
100
AcDbEntity
  8
SUNPO
100
AcDbText
 10
2376.290169028722
 20
494.4531736811823
 30
0.0
 40
50.0
  1
型式
  7
ADD
100
AcDbText
1001
ACAD
1000
MTEXTBEGIN
1070
    73
1070
     1
1070
    44
1040
1.0
1070
    74
1070
     0
1000
MTEXTEND
  0
TEXT
  5
180A
330
1F
100
AcDbEntity
  8
SUNPO
100
AcDbText
 10
3177.510249231658
 20
488.6918916770627
 30
0.0
 40
50.0
  1
縮尺
  7
ADD
100
AcDbText
1001
ACAD
1000
MTEXTBEGIN
1070
    73
1070
     1
1070
    44
1040
1.0
1070
    74
1070
     0
1000
MTEXTEND
  0
TEXT
  5
180B
330
1F
100
AcDbEntity
  8
SUNPO
100
AcDbText
 10
3730.870883051572
 20
352.2726133092145
 30
0.0
 40
100.0
  1
千葉県コンクリート製品協同組合
  7
ADD
100
AcDbText
1001
ACAD
1000
MTEXTBEGIN
1070
    73
1070
     1
1070
    44
1040
1.0
1070
    74
1070
     0
1000
MTEXTEND
  0
LINE
  5
180C
330
1F
100
AcDbEntity
  8
HOJO
100
AcDbLine
 10
360.0
 20
260.0
 30
0.0
 11
5580.0
 21
260.0
 31
0.0
  0
LINE
  5
180D
330
1F
100
AcDbEntity
  8
HOJO
100
AcDbLine
 10
5580.0
 20
260.0
 30
0.0
 11
5580.0
 21
3940.0
 31
0.0
  0
LINE
  5
180E
330
1F
100
AcDbEntity
  8
HOJO
100
AcDbLine
 10
5580.0
 20
3940.0
 30
0.0
 11
360.0
 21
3940.0
 31
0.0
  0
LINE
  5
180F
330
1F
100
AcDbEntity
  8
HOJO
100
AcDbLine
 10
360.0
 20
3940.0
 30
0.0
 11
360.0
 21
260.0
 31
0.0
  0
LINE
  5
1810
330
1F
100
AcDbEntity
  8
HOJO
100
AcDbLine
 10
0.0
 20
0.0
 30
0.0
 11
5940.0
 21
0.0
 31
0.0
  0
LINE
  5
1811
330
1F
100
AcDbEntity
  8
HOJO
100
AcDbLine
 10
5940.0
 20
0.0
 30
0.0
 11
5940.0
 21
4200.0
 31
0.0
  0
LINE
  5
1812
330
1F
100
AcDbEntity
  8
HOJO
100
AcDbLine
 10
5940.0
 20
4200.0
 30
0.0
 11
0.0
 21
4200.0
 31
0.0
  0
LINE
  5
1813
330
1F
100
AcDbEntity
  8
HOJO
100
AcDbLine
 10
0.0
 20
4200.0
 30
0.0
 11
0.0
 21
0.0
 31
0.0
  0
TEXT
  5
1814
330
1F
100
AcDbEntity
  8
SUNPO
 62
     7
100
AcDbText
 10
1348.851014127787
 20
3362.3932986298
 30
0.0
 40
50.0
  1
180
  7
ADD
100
AcDbText
1001
ACAD
1000
MTEXTBEGIN
1070
    73
1070
     1
1070
    44
1040
1.0
1070
    74
1070
     0
1000
MTEXTEND
  0
TEXT
  5
1815
330
1F
100
AcDbEntity
  8
SUNPO
 62
     7
100
AcDbText
 10
1231.197760894423
 20
3141.06195020692
 30
0.0
 40
50.0
  1
50
  7
ADD
100
AcDbText
1001
ACAD
1000
MTEXTBEGIN
1070
    73
1070
     1
1070
    44
1040
1.0
1070
    74
1070
     0
1000
MTEXTEND
  0
TEXT
  5
1816
330
1F
100
AcDbEntity
  8
SUNPO
 62
     7
100
AcDbText
 10
1513.628502474132
 20
3140.111431258288
 30
0.0
 40
50.0
  1
50
  7
ADD
100
AcDbText
1001
ACAD
1000
MTEXTBEGIN
1070
    73
1070
     1
1070
    44
1040
1.0
1070
    74
1070
     0
1000
MTEXTEND
  0
TEXT
  5
1817
330
1F
100
AcDbEntity
  8
SUNPO
 62
     7
100
AcDbText
 10
1376.23196650874
 20
3142.152534205695
 30
0.0
 40
50.0
  1
70
  7
ADD
100
AcDbText
1001
ACAD
1000
MTEXTBEGIN
1070
    73
1070
     1
1070
    44
1040
1.0
1070
    74
1070
     0
1000
MTEXTEND
  0
TEXT
  5
1818
330
1F
100
AcDbEntity
  8
SUNPO
 62
     7
100
AcDbText
 10
1362.541490318263
 20
3009.084140669775
 30
0.0
 40
50.0
  1
5
  7
ADD
100
AcDbText
1001
ACAD
1000
MTEXTBEGIN
1070
    73
1070
     1
1070
    44
1040
1.0
1070
    74
1070
     0
1000
MTEXTEND
  0
TEXT
  5
1819
330
1F
100
AcDbEntity
  8
SUNPO
 62
     7
100
AcDbText
 10
1437.541490318263
 20
3009.084140669775
 30
0.0
 40
50.0
  1
5
  7
ADD
100
AcDbText
1001
ACAD
1000
MTEXTBEGIN
1070
    73
1070
     1
1070
    44
1040
1.0
1070
    74
1070
     0
1000
MTEXTEND
  0
TEXT
  5
181A
330
1F
100
AcDbEntity
  8
SUNPO
 62
     7
100
AcDbText
 10
1993.851014127787
 20
3142.152534205695
 30
0.0
 40
50.0
  1
110
  7
ADD
100
AcDbText
1001
ACAD
1000
MTEXTBEGIN
1070
    73
1070
     1
1070
    44
1040
1.0
1070
    74
1070
     0
1000
MTEXTEND
  0
TEXT
  5
181B
330
1F
100
AcDbEntity
  8
SUNPO
 62
     7
100
AcDbText
 10
3278.612918889692
 20
3142.152534205695
 30
0.0
 40
50.0
  1
2500
  7
ADD
100
AcDbText
1001
ACAD
1000
MTEXTBEGIN
1070
    73
1070
     1
1070
    44
1040
1.0
1070
    74
1070
     0
1000
MTEXTEND
  0
TEXT
  5
181C
330
1F
100
AcDbEntity
  8
SUNPO
 62
     7
100
AcDbText
 10
4603.851014127787
 20
3142.152534205695
 30
0.0
 40
50.0
  1
110
  7
ADD
100
AcDbText
1001
ACAD
1000
MTEXTBEGIN
1070
    73
1070
     1
1070
    44
1040
1.0
1070
    74
1070
     0
1000
MTEXTEND
  0
TEXT
  5
181D
330
1F
100
AcDbEntity
  8
SUNPO
 62
     7
100
AcDbText
 10
2045.071076124277
 20
3009.084140669775
 30
0.0
 40
50.0
  1
60
  7
ADD
100
AcDbText
1001
ACAD
1000
MTEXTBEGIN
1070
    73
1070
     1
1070
    44
1040
1.0
1070
    74
1070
     0
1000
MTEXTEND
  0
TEXT
  5
181E
330
1F
100
AcDbEntity
  8
SUNPO
 62
     7
100
AcDbText
 10
4605.01190451225
 20
3009.084140669775
 30
0.0
 40
50.0
  1
60
  7
ADD
100
AcDbText
1001
ACAD
1000
MTEXTBEGIN
1070
    73
1070
     1
1070
    44
1040
1.0
1070
    74
1070
     0
1000
MTEXTEND
  0
TEXT
  5
181F
330
1F
100
AcDbEntity
  8
SUNPO
 62
     7
100
AcDbText
 10
1677.895839392869
 20
2209.706223324331
 30
0.0
 40
50.0
  1
1050
 50
90.0
  7
ADD
100
AcDbText
1001
ACAD
1000
MTEXTBEGIN
1070
    73
1070
     1
1070
    44
1040
1.0
1070
    74
1070
     0
1000
MTEXTEND
  0
TEXT
  5
1820
330
1F
100
AcDbEntity
  8
SUNPO
 62
     7
100
AcDbText
 10
1844.161215995016
 20
1783.515747133855
 30
0.0
 40
50.0
  1
150
 50
90.0
  7
ADD
100
AcDbText
1001
ACAD
1000
MTEXTBEGIN
1070
    73
1070
     1
1070
    44
1040
1.0
1070
    74
1070
     0
1000
MTEXTEND
  0
TEXT
  5
1821
330
1F
100
AcDbEntity
  8
SUNPO
 62
     7
100
AcDbText
 10
1844.161215995016
 20
2312.087175705284
 30
0.0
 40
50.0
  1
900
 50
90.0
  7
ADD
100
AcDbText
1001
ACAD
1000
MTEXTBEGIN
1070
    73
1070
     1
1070
    44
1040
1.0
1070
    74
1070
     0
1000
MTEXTEND
  0
TEXT
  5
1822
330
1F
100
AcDbEntity
  8
SUNPO
 62
     7
100
AcDbText
 10
1348.851014127787
 20
1251.274390045935
 30
0.0
 40
50.0
  1
180
  7
ADD
100
AcDbText
1001
ACAD
1000
MTEXTBEGIN
1070
    73
1070
     1
1070
    44
1040
1.0
1070
    74
1070
     0
1000
MTEXTEND
  0
TEXT
  5
1823
330
1F
100
AcDbEntity
  8
SUNPO
 62
     7
100
AcDbText
 10
2195.526808893711
 20
2149.249979603863
 30
0.0
 40
50.0
  1
20
  7
ADD
100
AcDbText
1001
ACAD
1000
MTEXTBEGIN
1070
    73
1070
     1
1070
    44
1040
1.0
1070
    74
1070
     0
1000
MTEXTEND
  0
TEXT
  5
1824
330
1F
100
AcDbEntity
  8
SUNPO
 62
     7
100
AcDbText
 10
2406.667042655039
 20
1976.10205452642
 30
0.0
 40
50.0
  1
20
 50
90.0
  7
ADD
100
AcDbText
1001
ACAD
1000
MTEXTBEGIN
1070
    73
1070
     1
1070
    44
1040
1.0
1070
    74
1070
     0
1000
MTEXTEND
  0
TEXT
  5
1825
330
1F
100
AcDbEntity
  8
SUNPO
 62
     7
100
AcDbText
 10
3278.612918889692
 20
1241.274390045935
 30
0.0
 40
50.0
  1
2720
  7
ADD
100
AcDbText
1001
ACAD
1000
MTEXTBEGIN
1070
    73
1070
     1
1070
    44
1040
1.0
1070
    74
1070
     0
1000
MTEXTEND
  0
TEXT
  5
1826
330
1F
100
AcDbEntity
  8
SUNPO
 62
     7
100
AcDbText
 10
2013.851014127787
 20
1503.645068589895
 30
0.0
 40
50.0
  1
150
  7
ADD
100
AcDbText
1001
ACAD
1000
MTEXTBEGIN
1070
    73
1070
     1
1070
    44
1040
1.0
1070
    74
1070
     0
1000
MTEXTEND
  0
TEXT
  5
1827
330
1F
100
AcDbEntity
  8
SUNPO
 62
     7
100
AcDbText
 10
3278.612918889692
 20
1503.645068589895
 30
0.0
 40
50.0
  1
2420
  7
ADD
100
AcDbText
1001
ACAD
1000
MTEXTBEGIN
1070
    73
1070
     1
1070
    44
1040
1.0
1070
    74
1070
     0
1000
MTEXTEND
  0
TEXT
  5
1828
330
1F
100
AcDbEntity
  8
SUNPO
 62
     7
100
AcDbText
 10
4583.851014127787
 20
1503.645068589895
 30
0.0
 40
50.0
  1
150
  7
ADD
100
AcDbText
1001
ACAD
1000
MTEXTBEGIN
1070
    73
1070
     1
1070
    44
1040
1.0
1070
    74
1070
     0
1000
MTEXTEND
  0
VIEWPORT
  5
72
330
1B
100
AcDbEntity
 67
     1
  8
0
100
AcDbViewport
 10
429.8380103383459
 20
277.0
 30
0.0
 40
948.9782706766918
 41
628.4520000000001
 68
     1
 69
     1
1001
ACAD
1000
MVIEW
1002
{
1070
    16
1010
0.0
1020
0.0
1030
0.0
1010
0.0
1020
0.0
1030
1.0
1040
0.0
1040
628.4520000000001
1040
429.8380103383459
1040
277.0
1040
50.0
1040
0.0
1040
0.0
1070
     0
1070
   100
1070
     1
1070
     1
1070
     0
1070
     0
1070
     0
1070
     0
1040
0.0
1040
0.0
1040
0.0
1040
10.0
1040
10.0
1040
10.0
1040
10.0
1070
     0
1002
{
1002
}
1002
}
  0
VIEWPORT
  5
74
330
1B
100
AcDbEntity
 67
     1
  8
VIEWPORT
100
AcDbViewport
 10
414.3779638919211
 20
277.3177265058034
 30
0.0
 40
840.0353682728887
 41
567.2285469943826
 68
     2
 69
     2
1001
ACAD
1000
MVIEW
1002
{
1070
    16
1010
0.0
1020
0.0
1030
0.0
1010
0.0
1020
0.0
1030
1.0
1040
0.0
1040
579.5583043546323
1040
424.4938908624541
1040
286.1973242720074
1040
50.0
1040
0.0
1040
0.0
1070
     0
1070
   100
1070
     1
1070
     1
1070
     0
1070
     0
1070
     0
1070
     0
1040
0.0
1040
0.0
1040
0.0
1040
10.0
1040
10.0
1040
10.0
1040
10.0
1070
     0
1002
{
1002
}
1002
}
  0
ENDSEC
  0
SECTION
  2
OBJECTS
  0
DICTIONARY
  5
C
330
0
100
AcDbDictionary
  3
ACAD_GROUP
350
D
  3
ACAD_LAYOUT
350
1A
  3
ACAD_MLINESTYLE
350
17
  3
ACAD_PLOTSETTINGS
350
19
  3
DWGPROPS
350
4C7
1001
ACAD
1000
TREAT_AS_HARD
1070
     0
  0
DICTIONARY
  5
16F8
330
1F
100
AcDbDictionary
  3
ACAD_LAYOUTSELFREF
350
182B
1001
ACAD
1000
TREAT_AS_HARD
1070
     1
  0
DICTIONARY
  5
16FA
330
1B
100
AcDbDictionary
  3
ACAD_LAYOUTSELFREF
350
182A
1001
ACAD
1000
TREAT_AS_HARD
1070
     1
  0
DICTIONARY
  5
D
102
{ACAD_REACTORS
330
C
102
}
330
C
100
AcDbDictionary
1001
ACAD
1000
TREAT_AS_HARD
1070
     0
  0
DICTIONARY
  5
1A
102
{ACAD_REACTORS
330
C
102
}
330
C
100
AcDbDictionary
1001
ACAD
1000
TREAT_AS_HARD
1070
     0
  0
DICTIONARY
  5
17
102
{ACAD_REACTORS
330
C
102
}
330
C
100
AcDbDictionary
  3
STANDARD
350
18
1001
ACAD
1000
TREAT_AS_HARD
1070
     0
  0
DICTIONARY
  5
19
102
{ACAD_REACTORS
330
C
102
}
330
C
100
AcDbDictionary
1001
ACAD
1000
TREAT_AS_HARD
1070
     0
  0
XRECORD
  5
4C7
102
{ACAD_REACTORS
330
C
102
}
330
C
100
AcDbXrecord
  1
DWGPROPS COOKIE
  2
印刷用テスト
  3
AutoCAD2000による建築設計
  4
鈴木 裕二
  6

  7

  8
U2
  9

300
=
301
=
302
=
303
=
304
=
305
=
306
=
307
=
308
=
309
=
 40
0.7653446875
 41
2451285.4846114
 42
2451333.689743032
  1

 90
        0
  0
XRECORD
  5
182B
102
{ACAD_REACTORS
330
16F8
102
}
330
16F8
100
AcDbXrecord
340
1F
  0
XRECORD
  5
182A
102
{ACAD_REACTORS
330
16FA
102
}
330
16FA
100
AcDbXrecord
340
1B
  0
MLINESTYLE
  5
18
102
{ACAD_REACTORS
330
17
102
}
330
17
100
AcDbMlineStyle
  2
STANDARD
 70
     0
  3

 62
   256
 51
90.0
 52
90.0
 71
     2
 49
0.5
 62
   256
  6
BYLAYER
 49
-0.5
 62
   256
  6
BYLAYER
  0
ENDSEC
  0
EOF
