  0
SECTION
  2
HEADER
  9
$ACADVER
  1
AC1018
  9
$ACADMAINTVER
 70
     0
  9
$DWGCODEPAGE
  3
ANSI_932
  9
$INSBASE
 10
0.0
 20
0.0
 30
0.0
  9
$EXTMIN
 10
-870.0
 20
-615.0
 30
0.0
  9
$EXTMAX
 10
5070.0
 20
3585.0
 30
0.0
  9
$LIMMIN
 10
0.0
 20
0.0
  9
$LIMMAX
 10
4200.0
 20
2970.0
  9
$ORTHOMODE
 70
     0
  9
$REGENMODE
 70
     1
  9
$FILLMODE
 70
     1
  9
$QTEXTMODE
 70
     0
  9
$MIRRTEXT
 70
     0
  9
$LTSCALE
 40
10.0
  9
$ATTMODE
 70
     1
  9
$TEXTSIZE
 40
0.2
  9
$TRACEWID
 40
0.05
  9
$TEXTSTYLE
  7
STANDARD
  9
$CLAYER
  8
0
  9
$CELTYPE
  6
CONTINUOUS
  9
$CECOLOR
 62
   256
  9
$CELTSCALE
 40
1.0
  9
$DISPSILH
 70
     0
  9
$DIMSCALE
 40
1.0
  9
$DIMASZ
 40
0.18
  9
$DIMEXO
 40
0.0625
  9
$DIMDLI
 40
0.38
  9
$DIMRND
 40
0.0
  9
$DIMDLE
 40
0.0
  9
$DIMEXE
 40
0.18
  9
$DIMTP
 40
0.0
  9
$DIMTM
 40
0.0
  9
$DIMTXT
 40
0.18
  9
$DIMCEN
 40
0.09
  9
$DIMTSZ
 40
0.0
  9
$DIMTOL
 70
     0
  9
$DIMLIM
 70
     0
  9
$DIMTIH
 70
     1
  9
$DIMTOH
 70
     1
  9
$DIMSE1
 70
     0
  9
$DIMSE2
 70
     0
  9
$DIMTAD
 70
     0
  9
$DIMZIN
 70
     0
  9
$DIMBLK
  1

  9
$DIMASO
 70
     1
  9
$DIMSHO
 70
     1
  9
$DIMPOST
  1

  9
$DIMAPOST
  1

  9
$DIMALT
 70
     0
  9
$DIMALTD
 70
     2
  9
$DIMALTF
 40
25.4
  9
$DIMLFAC
 40
1.0
  9
$DIMTOFL
 70
     0
  9
$DIMTVP
 40
0.0
  9
$DIMTIX
 70
     0
  9
$DIMSOXD
 70
     0
  9
$DIMSAH
 70
     0
  9
$DIMBLK1
  1

  9
$DIMBLK2
  1

  9
$DIMSTYLE
  2
Standard
  9
$DIMCLRD
 70
     0
  9
$DIMCLRE
 70
     0
  9
$DIMCLRT
 70
     0
  9
$DIMTFAC
 40
1.0
  9
$DIMGAP
 40
0.09
  9
$DIMJUST
 70
     0
  9
$DIMSD1
 70
     0
  9
$DIMSD2
 70
     0
  9
$DIMTOLJ
 70
     1
  9
$DIMTZIN
 70
     0
  9
$DIMALTZ
 70
     0
  9
$DIMALTTZ
 70
     0
  9
$DIMUPT
 70
     0
  9
$DIMDEC
 70
     4
  9
$DIMTDEC
 70
     4
  9
$DIMALTU
 70
     2
  9
$DIMALTTD
 70
     2
  9
$DIMTXSTY
  7
STANDARD
  9
$DIMAUNIT
 70
     0
  9
$DIMADEC
 70
     0
  9
$DIMALTRND
 40
0.0
  9
$DIMAZIN
 70
     0
  9
$DIMDSEP
 70
    46
  9
$DIMATFIT
 70
     3
  9
$DIMFRAC
 70
     0
  9
$DIMLDRBLK
  1

  9
$DIMLUNIT
 70
     2
  9
$DIMLWD
 70
    -2
  9
$DIMLWE
 70
    -2
  9
$DIMTMOVE
 70
     0
  9
$LUNITS
 70
     2
  9
$LUPREC
 70
     4
  9
$SKETCHINC
 40
0.1
  9
$FILLETRAD
 40
0.0
  9
$AUNITS
 70
     0
  9
$AUPREC
 70
     0
  9
$MENU
  1
.
  9
$ELEVATION
 40
0.0
  9
$PELEVATION
 40
0.0
  9
$THICKNESS
 40
0.0
  9
$LIMCHECK
 70
     0
  9
$CHAMFERA
 40
0.0
  9
$CHAMFERB
 40
0.0
  9
$CHAMFERC
 40
0.0
  9
$CHAMFERD
 40
0.0
  9
$SKPOLY
 70
     0
  9
$TDCREATE
 40
2455044.655203449
  9
$TDUCREATE
 40
2455044.280203449
  9
$TDUPDATE
 40
2455044.657192199
  9
$TDUUPDATE
 40
2455044.282192199
  9
$TDINDWG
 40
0.0016458565
  9
$TDUSRTIMER
 40
0.0016458565
  9
$USRTIMER
 70
     1
  9
$ANGBASE
 50
0.0
  9
$ANGDIR
 70
     0
  9
$PDMODE
 70
     0
  9
$PDSIZE
 40
0.0
  9
$PLINEWID
 40
0.0
  9
$SPLFRAME
 70
     0
  9
$SPLINETYPE
 70
     6
  9
$SPLINESEGS
 70
     8
  9
$HANDSEED
  5
1B3
  9
$SURFTAB1
 70
     6
  9
$SURFTAB2
 70
     6
  9
$SURFTYPE
 70
     6
  9
$SURFU
 70
     6
  9
$SURFV
 70
     6
  9
$UCSBASE
  2

  9
$UCSNAME
  2

  9
$UCSORG
 10
0.0
 20
0.0
 30
0.0
  9
$UCSXDIR
 10
1.0
 20
0.0
 30
0.0
  9
$UCSYDIR
 10
0.0
 20
1.0
 30
0.0
  9
$UCSORTHOREF
  2

  9
$UCSORTHOVIEW
 70
     0
  9
$UCSORGTOP
 10
0.0
 20
0.0
 30
0.0
  9
$UCSORGBOTTOM
 10
0.0
 20
0.0
 30
0.0
  9
$UCSORGLEFT
 10
0.0
 20
0.0
 30
0.0
  9
$UCSORGRIGHT
 10
0.0
 20
0.0
 30
0.0
  9
$UCSORGFRONT
 10
0.0
 20
0.0
 30
0.0
  9
$UCSORGBACK
 10
0.0
 20
0.0
 30
0.0
  9
$PUCSBASE
  2

  9
$PUCSNAME
  2

  9
$PUCSORG
 10
0.0
 20
0.0
 30
0.0
  9
$PUCSXDIR
 10
1.0
 20
0.0
 30
0.0
  9
$PUCSYDIR
 10
0.0
 20
1.0
 30
0.0
  9
$PUCSORTHOREF
  2

  9
$PUCSORTHOVIEW
 70
     0
  9
$PUCSORGTOP
 10
0.0
 20
0.0
 30
0.0
  9
$PUCSORGBOTTOM
 10
0.0
 20
0.0
 30
0.0
  9
$PUCSORGLEFT
 10
0.0
 20
0.0
 30
0.0
  9
$PUCSORGRIGHT
 10
0.0
 20
0.0
 30
0.0
  9
$PUCSORGFRONT
 10
0.0
 20
0.0
 30
0.0
  9
$PUCSORGBACK
 10
0.0
 20
0.0
 30
0.0
  9
$USERI1
 70
     0
  9
$USERI2
 70
     0
  9
$USERI3
 70
     0
  9
$USERI4
 70
     0
  9
$USERI5
 70
     0
  9
$USERR1
 40
0.0
  9
$USERR2
 40
0.0
  9
$USERR3
 40
0.0
  9
$USERR4
 40
0.0
  9
$USERR5
 40
0.0
  9
$WORLDVIEW
 70
     1
  9
$SHADEDGE
 70
     3
  9
$SHADEDIF
 70
    70
  9
$TILEMODE
 70
     1
  9
$MAXACTVP
 70
    64
  9
$PINSBASE
 10
0.0
 20
0.0
 30
0.0
  9
$PLIMCHECK
 70
     0
  9
$PEXTMIN
 10
1.122749993181603
 20
0.7804166500962629
 30
0.0
  9
$PEXTMAX
 10
10.10474993863444
 20
7.023749850866362
 30
0.0
  9
$PLIMMIN
 10
-0.2312499519408218
 20
-0.2312499894870548
  9
$PLIMMAX
 10
11.45874984621063
 20
8.035416452903447
  9
$UNITMODE
 70
     0
  9
$VISRETAIN
 70
     1
  9
$PLINEGEN
 70
     0
  9
$PSLTSCALE
 70
     1
  9
$TREEDEPTH
 70
  3020
  9
$CMLSTYLE
  2
Standard
  9
$CMLJUST
 70
     0
  9
$CMLSCALE
 40
1.0
  9
$PROXYGRAPHICS
 70
     1
  9
$MEASUREMENT
 70
     0
  9
$CELWEIGHT
370
    -1
  9
$ENDCAPS
280
     0
  9
$JOINSTYLE
280
     0
  9
$LWDISPLAY
290
     0
  9
$INSUNITS
 70
     0
  9
$HYPERLINKBASE
  1

  9
$STYLESHEET
  1

  9
$XEDIT
290
     1
  9
$CEPSNTYPE
380
     0
  9
$PSTYLEMODE
290
     1
  9
$FINGERPRINTGUID
  2
{DD3E16E6-EAD3-4318-8E0E-CB9A79EF3C08}
  9
$VERSIONGUID
  2
{E260A836-140E-45FB-B52D-E73A37C424D1}
  9
$EXTNAMES
290
     1
  9
$PSVPSCALE
 40
0.0
  9
$OLESTARTUP
290
     0
  9
$SORTENTS
280
   127
  9
$INDEXCTL
280
     0
  9
$HIDETEXT
280
     0
  9
$XCLIPFRAME
290
     0
  9
$HALOGAP
280
     0
  9
$OBSCOLOR
 70
   257
  9
$OBSLTYPE
280
     0
  9
$INTERSECTIONDISPLAY
280
     0
  9
$INTERSECTIONCOLOR
 70
   257
  9
$DIMASSOC
280
     1
  9
$PROJECTNAME
  1

  0
ENDSEC
  0
SECTION
  2
CLASSES
  0
CLASS
  1
ACDBDICTIONARYWDFLT
  2
AcDbDictionaryWithDefault
  3
ObjectDBX Classes
 90
        0
 91
        1
280
     0
281
     0
  0
ENDSEC
  0
SECTION
  2
TABLES
  0
TABLE
  2
VPORT
  5
8
330
0
100
AcDbSymbolTable
 70
     3
  0
VPORT
  5
1B2
330
8
100
AcDbSymbolTableRecord
100
AcDbViewportTableRecord
  2
*Active
 70
     0
 10
0.0
 20
0.0
 11
1.0
 21
1.0
 12
2739.69845305805
 22
1386.464872444342
 13
0.0
 23
0.0
 14
1.0
 24
1.0
 15
0.0
 25
0.0
 16
0.0
 26
0.0
 36
1.0
 17
0.0
 27
0.0
 37
0.0
 40
5147.12485267574
 41
1.535121328224776
 42
50.0
 43
0.0
 44
0.0
 50
0.0
 51
0.0
 71
     0
 72
   100
 73
     1
 74
     1
 75
     0
 76
     0
 77
     0
 78
     0
281
     0
 65
     1
110
0.0
120
0.0
130
0.0
111
1.0
121
0.0
131
0.0
112
0.0
122
1.0
132
0.0
 79
     0
146
0.0
  0
ENDTAB
  0
TABLE
  2
LTYPE
  5
5
330
0
100
AcDbSymbolTable
 70
    39
  0
LTYPE
  5
13
330
5
100
AcDbSymbolTableRecord
100
AcDbLinetypeTableRecord
  2
ByBlock
 70
     0
  3

 72
    65
 73
     0
 40
0.0
  0
LTYPE
  5
14
330
5
100
AcDbSymbolTableRecord
100
AcDbLinetypeTableRecord
  2
ByLayer
 70
     0
  3

 72
    65
 73
     0
 40
0.0
  0
LTYPE
  5
15
330
5
100
AcDbSymbolTableRecord
100
AcDbLinetypeTableRecord
  2
CONTINUOUS
 70
     0
  3
実線
 72
    65
 73
     0
 40
0.0
  0
LTYPE
  5
24
330
5
100
AcDbSymbolTableRecord
100
AcDbLinetypeTableRecord
  2
DASHED1
 70
     0
  3
--  --  --  --  --  --  --  --  
 72
    65
 73
     2
 40
2.5
 49
1.25
 74
     0
 49
-1.25
 74
     0
  0
LTYPE
  5
25
330
5
100
AcDbSymbolTableRecord
100
AcDbLinetypeTableRecord
  2
DASHED2
 70
     0
  3
----    ----    ----    ----    
 72
    65
 73
     2
 40
5.0
 49
2.5
 74
     0
 49
-2.5
 74
     0
  0
LTYPE
  5
26
330
5
100
AcDbSymbolTableRecord
100
AcDbLinetypeTableRecord
  2
DASHED3
 70
     0
  3
------  ------  ------  ------  
 72
    65
 73
     2
 40
5.0
 49
3.75
 74
     0
 49
-1.25
 74
     0
  0
LTYPE
  5
27
330
5
100
AcDbSymbolTableRecord
100
AcDbLinetypeTableRecord
  2
CENTER1
 70
     0
  3
----- - ----- - ----- - ----- - 
 72
    65
 73
     4
 40
10.0
 49
6.25
 74
     0
 49
-1.25
 74
     0
 49
1.25
 74
     0
 49
-1.25
 74
     0
  0
LTYPE
  5
28
330
5
100
AcDbSymbolTableRecord
100
AcDbLinetypeTableRecord
  2
CENTER2
 70
     0
  3
----------  --  ----------  --  
 72
    65
 73
     4
 40
20.0
 49
12.5
 74
     0
 49
-2.5
 74
     0
 49
2.5
 74
     0
 49
-2.5
 74
     0
  0
LTYPE
  5
29
330
5
100
AcDbSymbolTableRecord
100
AcDbLinetypeTableRecord
  2
PHANTOM1
 70
     0
  3
--- - - --- - - --- - - --- - - 
 72
    65
 73
     6
 40
10.0
 49
3.25
 74
     0
 49
-1.25
 74
     0
 49
1.25
 74
     0
 49
-1.25
 74
     0
 49
1.25
 74
     0
 49
-1.25
 74
     0
  0
LTYPE
  5
2A
330
5
100
AcDbSymbolTableRecord
100
AcDbLinetypeTableRecord
  2
PHANTOM2
 70
     0
  3
--------  -  -  --------  -  -  
 72
    65
 73
     6
 40
20.0
 49
10.0
 74
     0
 49
-2.5
 74
     0
 49
1.25
 74
     0
 49
-2.5
 74
     0
 49
1.25
 74
     0
 49
-2.5
 74
     0
  0
LTYPE
  5
2B
330
5
100
AcDbSymbolTableRecord
100
AcDbLinetypeTableRecord
  2
DOT
 70
     0
  3
-   -   -   -   -   -   -   -   
 72
    65
 73
     2
 40
2.5
 49
0.625
 74
     0
 49
-1.875
 74
     0
  0
LTYPE
  5
2C
330
5
100
AcDbSymbolTableRecord
100
AcDbLinetypeTableRecord
  2
DUMMY
 70
     0
  3
ダミー
 72
    65
 73
     0
 40
0.0
  0
LTYPE
  5
2D
330
5
100
AcDbSymbolTableRecord
100
AcDbLinetypeTableRecord
  2
RAND1
 70
     0
  3
ランダム線1
 72
    65
 73
     4
 40
10.0
 49
1.0
 74
     0
 49
-2.0
 74
     0
 49
3.0
 74
     0
 49
-4.0
 74
     0
  0
LTYPE
  5
2E
330
5
100
AcDbSymbolTableRecord
100
AcDbLinetypeTableRecord
  2
RAND2
 70
     0
  3
ランダム線2
 72
    65
 73
     4
 40
14.0
 49
2.0
 74
     0
 49
-3.0
 74
     0
 49
4.0
 74
     0
 49
-5.0
 74
     0
  0
LTYPE
  5
2F
330
5
100
AcDbSymbolTableRecord
100
AcDbLinetypeTableRecord
  2
RAND3
 70
     0
  3
ランダム線3
 72
    65
 73
     4
 40
18.0
 49
3.0
 74
     0
 49
-4.0
 74
     0
 49
5.0
 74
     0
 49
-6.0
 74
     0
  0
LTYPE
  5
30
330
5
100
AcDbSymbolTableRecord
100
AcDbLinetypeTableRecord
  2
RAND4
 70
     0
  3
ランダム線4
 72
    65
 73
     4
 40
22.0
 49
4.0
 74
     0
 49
-5.0
 74
     0
 49
6.0
 74
     0
 49
-7.0
 74
     0
  0
LTYPE
  5
31
330
5
100
AcDbSymbolTableRecord
100
AcDbLinetypeTableRecord
  2
RAND5
 70
     0
  3
ランダム線5
 72
    65
 73
     4
 40
26.0
 49
5.0
 74
     0
 49
-6.0
 74
     0
 49
7.0
 74
     0
 49
-8.0
 74
     0
  0
LTYPE
  5
32
330
5
100
AcDbSymbolTableRecord
100
AcDbLinetypeTableRecord
  2
LONG1
 70
     0
  3
----------  --  ----------  --  
 72
    65
 73
     4
 40
40.0
 49
32.5
 74
     0
 49
-2.5
 74
     0
 49
2.5
 74
     0
 49
-2.5
 74
     0
  0
LTYPE
  5
33
330
5
100
AcDbSymbolTableRecord
100
AcDbLinetypeTableRecord
  2
LONG2
 70
     0
  3
--------  -  -  --------  -  -  
 72
    65
 73
     6
 40
40.0
 49
30.0
 74
     0
 49
-2.5
 74
     0
 49
1.25
 74
     0
 49
-2.5
 74
     0
 49
1.25
 74
     0
 49
-2.5
 74
     0
  0
LTYPE
  5
34
330
5
100
AcDbSymbolTableRecord
100
AcDbLinetypeTableRecord
  2
LONG3
 70
     0
  3
+++++++++++++++..+++++++++++++++
 72
    65
 73
     2
 40
40.0
 49
37.5
 74
     0
 49
-2.5
 74
     0
  0
LTYPE
  5
35
330
5
100
AcDbSymbolTableRecord
100
AcDbLinetypeTableRecord
  2
LONG4
 70
     0
  3
+++++++++++++++..+++++++++++++++
 72
    65
 73
     2
 40
80.0
 49
75.0
 74
     0
 49
-5.0
 74
     0
  0
LTYPE
  5
36
330
5
100
AcDbSymbolTableRecord
100
AcDbLinetypeTableRecord
  2
LONG5
 70
     0
  3
----------  --  ----------  --  
 72
    65
 73
     4
 40
60.0
 49
37.5
 74
     0
 49
-7.5
 74
     0
 49
7.5
 74
     0
 49
-7.5
 74
     0
  0
LTYPE
  5
37
330
5
100
AcDbSymbolTableRecord
100
AcDbLinetypeTableRecord
  2
DASHED
 70
     0
  3
-------   -------------   ------
 72
    65
 73
     2
 40
7.5
 49
6.0
 74
     0
 49
-1.5
 74
     0
  0
LTYPE
  5
38
330
5
100
AcDbSymbolTableRecord
100
AcDbLinetypeTableRecord
  2
DASHED_SPACED
 70
     0
  3
----        --------        ----
 72
    65
 73
     2
 40
12.0
 49
6.0
 74
     0
 49
-6.0
 74
     0
  0
LTYPE
  5
39
330
5
100
AcDbSymbolTableRecord
100
AcDbLinetypeTableRecord
  2
LONG_DASHED_DOTTED
 70
     0
  3
------------- --- --------------
 72
    65
 73
     4
 40
15.25
 49
12.0
 74
     0
 49
-1.5
 74
     0
 49
0.25
 74
     0
 49
-1.5
 74
     0
  0
LTYPE
  5
3A
330
5
100
AcDbSymbolTableRecord
100
AcDbLinetypeTableRecord
  2
LONG_DASHED_DOUBLE-DOTTED
 70
     0
  3
----------- --- --- ------------
 72
    65
 73
     6
 40
17.0
 49
12.0
 74
     0
 49
-1.5
 74
     0
 49
0.25
 74
     0
 49
-1.5
 74
     0
 49
0.25
 74
     0
 49
-1.5
 74
     0
  0
LTYPE
  5
3B
330
5
100
AcDbSymbolTableRecord
100
AcDbLinetypeTableRecord
  2
LONG_DASHED_TRIPLICATE-DOTTED
 70
     0
  3
--------- --- --- --- ----------
 72
    65
 73
     8
 40
18.75
 49
12.0
 74
     0
 49
-1.5
 74
     0
 49
0.25
 74
     0
 49
-1.5
 74
     0
 49
0.25
 74
     0
 49
-1.5
 74
     0
 49
0.25
 74
     0
 49
-1.5
 74
     0
  0
LTYPE
  5
3C
330
5
100
AcDbSymbolTableRecord
100
AcDbLinetypeTableRecord
  2
DOTTED
 70
     0
  3
   -       -       -       -    
 72
    65
 73
     2
 40
1.75
 49
0.25
 74
     0
 49
-1.5
 74
     0
  0
LTYPE
  5
3D
330
5
100
AcDbSymbolTableRecord
100
AcDbLinetypeTableRecord
  2
CHAIN
 70
     0
  3
-------------- -- --------------
 72
    65
 73
     4
 40
18.5
 49
12.0
 74
     0
 49
-1.5
 74
     0
 49
3.5
 74
     0
 49
-1.5
 74
     0
  0
LTYPE
  5
3E
330
5
100
AcDbSymbolTableRecord
100
AcDbLinetypeTableRecord
  2
CHAIN_DOUBLE_DASH
 70
     0
  3
------------ -- -- -------------
 72
    65
 73
     6
 40
23.5
 49
12.0
 74
     0
 49
-1.5
 74
     0
 49
3.5
 74
     0
 49
-1.5
 74
     0
 49
3.5
 74
     0
 49
-1.5
 74
     0
  0
LTYPE
  5
3F
330
5
100
AcDbSymbolTableRecord
100
AcDbLinetypeTableRecord
  2
DASHED_DOTTED
 70
     0
  3
-----------     -     ----------
 72
    65
 73
     4
 40
9.25
 49
6.0
 74
     0
 49
-1.5
 74
     0
 49
0.25
 74
     0
 49
-1.5
 74
     0
  0
LTYPE
  5
40
330
5
100
AcDbSymbolTableRecord
100
AcDbLinetypeTableRecord
  2
DOUBLE-DASHED_DOTTED
 70
     0
  3
------   -----------   -   -----
 72
    65
 73
     6
 40
16.75
 49
6.0
 74
     0
 49
-1.5
 74
     0
 49
6.0
 74
     0
 49
-1.5
 74
     0
 49
0.25
 74
     0
 49
-1.5
 74
     0
  0
LTYPE
  5
41
330
5
100
AcDbSymbolTableRecord
100
AcDbLinetypeTableRecord
  2
DASHED_DOUBLE-DOTTED
 70
     0
  3
---------    -    -    ---------
 72
    65
 73
     6
 40
11.0
 49
6.0
 74
     0
 49
-1.5
 74
     0
 49
0.25
 74
     0
 49
-1.5
 74
     0
 49
0.25
 74
     0
 49
-1.5
 74
     0
  0
LTYPE
  5
42
330
5
100
AcDbSymbolTableRecord
100
AcDbLinetypeTableRecord
  2
DOUBLE-DASHED_DOUBLE-DOTTED
 70
     0
  3
-----   ---------   -   -   ----
 72
    65
 73
     8
 40
18.5
 49
6.0
 74
     0
 49
-1.5
 74
     0
 49
6.0
 74
     0
 49
-1.5
 74
     0
 49
0.25
 74
     0
 49
-1.5
 74
     0
 49
0.25
 74
     0
 49
-1.5
 74
     0
  0
LTYPE
  5
43
330
5
100
AcDbSymbolTableRecord
100
AcDbLinetypeTableRecord
  2
DASHED_TRIPLICATE-DOTTED
 70
     0
  3
-------    -    -    -    ------
 72
    65
 73
     8
 40
12.75
 49
6.0
 74
     0
 49
-1.5
 74
     0
 49
0.25
 74
     0
 49
-1.5
 74
     0
 49
0.25
 74
     0
 49
-1.5
 74
     0
 49
0.25
 74
     0
 49
-1.5
 74
     0
  0
LTYPE
  5
44
330
5
100
AcDbSymbolTableRecord
100
AcDbLinetypeTableRecord
  2
DOUBLE-DASHED_TRIPLICATE-DOTTED
 70
     0
  3
-----  ---------  -  -  -  -----
 72
    65
 73
    10
 40
20.25
 49
6.0
 74
     0
 49
-1.5
 74
     0
 49
6.0
 74
     0
 49
-1.5
 74
     0
 49
0.25
 74
     0
 49
-1.5
 74
     0
 49
0.25
 74
     0
 49
-1.5
 74
     0
 49
0.25
 74
     0
 49
-1.5
 74
     0
  0
LTYPE
  5
45
330
5
100
AcDbSymbolTableRecord
100
AcDbLinetypeTableRecord
  2
UNDEFINED
 70
     0
  3
--------------------------------
 72
    65
 73
     0
 40
0.0
  0
LTYPE
  5
46
330
5
100
AcDbSymbolTableRecord
100
AcDbLinetypeTableRecord
  2
CENTER
 70
     0
  3
----------    ----    ----------
 72
    65
 73
     4
 40
50.8
 49
31.75
 74
     0
 49
-6.349999999999998
 74
     0
 49
6.349999999999998
 74
     0
 49
-6.349999999999998
 74
     0
  0
LTYPE
  5
47
330
5
100
AcDbSymbolTableRecord
100
AcDbLinetypeTableRecord
  2
HIDDEN
 70
     0
  3
------     -----------     -----
 72
    65
 73
     2
 40
9.524999999999998
 49
6.349999999999998
 74
     0
 49
-3.174999999999998
 74
     0
  0
LTYPE
  5
48
330
5
100
AcDbSymbolTableRecord
100
AcDbLinetypeTableRecord
  2
HIDDEN2
 70
     0
  3
------     -----------     -----
 72
    65
 73
     2
 40
4.762499999999997
 49
3.174999999999998
 74
     0
 49
-1.587499999999999
 74
     0
  0
LTYPE
  5
49
330
5
100
AcDbSymbolTableRecord
100
AcDbLinetypeTableRecord
  2
PHANTOM
 70
     0
  3
---------   ---   ---   --------
 72
    65
 73
     6
 40
63.50000000000001
 49
31.75
 74
     0
 49
-6.349999999999998
 74
     0
 49
6.349999999999998
 74
     0
 49
-6.349999999999998
 74
     0
 49
6.349999999999998
 74
     0
 49
-6.349999999999998
 74
     0
  0
ENDTAB
  0
TABLE
  2
LAYER
  5
2
330
0
100
AcDbSymbolTable
 70
     7
  0
LAYER
  5
10
330
2
100
AcDbSymbolTableRecord
100
AcDbLayerTableRecord
  2
0
 70
     0
 62
     7
  6
CONTINUOUS
370
    -3
390
F
  0
LAYER
  5
4B
330
2
100
AcDbSymbolTableRecord
100
AcDbLayerTableRecord
  2
_0-A_3C1
 70
     0
 62
     7
  6
CONTINUOUS
370
    -3
390
F
  0
LAYER
  5
4C
330
2
100
AcDbSymbolTableRecord
100
AcDbLayerTableRecord
  2
_1-2_HOJO
 70
     0
 62
     7
  6
CONTINUOUS
370
    -3
390
F
  0
LAYER
  5
4D
330
2
100
AcDbSymbolTableRecord
100
AcDbLayerTableRecord
  2
_1-4_MOJI
 70
     0
 62
     7
  6
CONTINUOUS
370
    -3
390
F
  0
LAYER
  5
4E
330
2
100
AcDbSymbolTableRecord
100
AcDbLayerTableRecord
  2
_1-5_SUNPO
 70
     0
 62
     7
  6
CONTINUOUS
370
    -3
390
F
  0
LAYER
  5
4F
330
2
100
AcDbSymbolTableRecord
100
AcDbLayerTableRecord
  2
ADD_LINE
 70
     0
 62
     7
  6
CONTINUOUS
370
    -3
390
F
  0
LAYER
  5
5B
330
2
100
AcDbSymbolTableRecord
100
AcDbLayerTableRecord
  2
_0-2_Defpoints
 70
     0
 62
     7
  6
CONTINUOUS
370
    -3
390
F
  0
ENDTAB
  0
TABLE
  2
STYLE
  5
3
330
0
100
AcDbSymbolTable
 70
     2
  0
STYLE
  5
11
330
3
100
AcDbSymbolTableRecord
100
AcDbTextStyleTableRecord
  2
STANDARD
 70
     0
 40
0.0
 41
1.0
 50
0.0
 71
     0
 42
0.2
  3
txt
  4
bigfont.shx
  0
STYLE
  5
4A
330
3
100
AcDbSymbolTableRecord
100
AcDbTextStyleTableRecord
  2
TATEGAKI
 70
     4
 40
0.0
 41
1.0
 50
0.0
 71
     0
 42
1.0
  3
txt
  4
bigfont.shx
  0
ENDTAB
  0
TABLE
  2
VIEW
  5
6
330
0
100
AcDbSymbolTable
 70
     0
  0
ENDTAB
  0
TABLE
  2
UCS
  5
7
330
0
100
AcDbSymbolTable
 70
     0
  0
ENDTAB
  0
TABLE
  2
APPID
  5
9
330
0
100
AcDbSymbolTable
 70
     1
  0
APPID
  5
12
330
9
100
AcDbSymbolTableRecord
100
AcDbRegAppTableRecord
  2
ACAD
 70
     0
  0
ENDTAB
  0
TABLE
  2
DIMSTYLE
  5
A
330
0
100
AcDbSymbolTable
 70
     1
100
AcDbDimStyleTable
 71
     0
  0
DIMSTYLE
105
1A4
330
A
100
AcDbSymbolTableRecord
100
AcDbDimStyleTableRecord
  2
Standard
 70
     0
340
11
  0
ENDTAB
  0
TABLE
  2
BLOCK_RECORD
  5
1
330
0
100
AcDbSymbolTable
 70
    21
  0
BLOCK_RECORD
  5
20
330
1
100
AcDbSymbolTableRecord
100
AcDbBlockTableRecord
  2
*Model_Space
340
23
  0
BLOCK_RECORD
  5
1C
330
1
100
AcDbSymbolTableRecord
100
AcDbBlockTableRecord
  2
*Paper_Space
340
1F
  0
BLOCK_RECORD
  5
53
330
1
100
AcDbSymbolTableRecord
100
AcDbBlockTableRecord
  2
-000-_D4
340
0
102
{BLKREFS
331
181
102
}
  0
BLOCK_RECORD
  5
60
330
1
100
AcDbSymbolTableRecord
100
AcDbBlockTableRecord
  2
-001-_D5
340
0
102
{BLKREFS
331
182
102
}
  0
BLOCK_RECORD
  5
6E
330
1
100
AcDbSymbolTableRecord
100
AcDbBlockTableRecord
  2
-002-_D6
340
0
102
{BLKREFS
331
183
102
}
  0
BLOCK_RECORD
  5
7C
330
1
100
AcDbSymbolTableRecord
100
AcDbBlockTableRecord
  2
-003-_D7
340
0
102
{BLKREFS
331
184
102
}
  0
BLOCK_RECORD
  5
8A
330
1
100
AcDbSymbolTableRecord
100
AcDbBlockTableRecord
  2
-004-_D8
340
0
102
{BLKREFS
331
185
102
}
  0
BLOCK_RECORD
  5
98
330
1
100
AcDbSymbolTableRecord
100
AcDbBlockTableRecord
  2
-005-_D9
340
0
102
{BLKREFS
331
186
102
}
  0
BLOCK_RECORD
  5
A6
330
1
100
AcDbSymbolTableRecord
100
AcDbBlockTableRecord
  2
-006-_D10
340
0
102
{BLKREFS
331
187
102
}
  0
BLOCK_RECORD
  5
B2
330
1
100
AcDbSymbolTableRecord
100
AcDbBlockTableRecord
  2
-007-_D11
340
0
102
{BLKREFS
331
188
102
}
  0
BLOCK_RECORD
  5
BE
330
1
100
AcDbSymbolTableRecord
100
AcDbBlockTableRecord
  2
-008-_D12
340
0
102
{BLKREFS
331
189
102
}
  0
BLOCK_RECORD
  5
CC
330
1
100
AcDbSymbolTableRecord
100
AcDbBlockTableRecord
  2
-009-_D13
340
0
102
{BLKREFS
331
18A
102
}
  0
BLOCK_RECORD
  5
DA
330
1
100
AcDbSymbolTableRecord
100
AcDbBlockTableRecord
  2
-010-_D14
340
0
102
{BLKREFS
331
18B
102
}
  0
BLOCK_RECORD
  5
E6
330
1
100
AcDbSymbolTableRecord
100
AcDbBlockTableRecord
  2
-011-_D15
340
0
102
{BLKREFS
331
18C
102
}
  0
BLOCK_RECORD
  5
F2
330
1
100
AcDbSymbolTableRecord
100
AcDbBlockTableRecord
  2
-012-_D16
340
0
102
{BLKREFS
331
18D
102
}
  0
BLOCK_RECORD
  5
FE
330
1
100
AcDbSymbolTableRecord
100
AcDbBlockTableRecord
  2
-013-_D17
340
0
102
{BLKREFS
331
18F
102
}
  0
BLOCK_RECORD
  5
10A
330
1
100
AcDbSymbolTableRecord
100
AcDbBlockTableRecord
  2
-014-_D18
340
0
102
{BLKREFS
331
190
102
}
  0
BLOCK_RECORD
  5
118
330
1
100
AcDbSymbolTableRecord
100
AcDbBlockTableRecord
  2
-015-_D19
340
0
102
{BLKREFS
331
195
102
}
  0
BLOCK_RECORD
  5
126
330
1
100
AcDbSymbolTableRecord
100
AcDbBlockTableRecord
  2
-016-_D21
340
0
102
{BLKREFS
331
196
102
}
  0
BLOCK_RECORD
  5
132
330
1
100
AcDbSymbolTableRecord
100
AcDbBlockTableRecord
  2
-017-_D23
340
0
102
{BLKREFS
331
197
102
}
  0
BLOCK_RECORD
  5
13E
330
1
100
AcDbSymbolTableRecord
100
AcDbBlockTableRecord
  2
-018-_D24
340
0
102
{BLKREFS
331
19A
102
}
  0
BLOCK_RECORD
  5
14A
330
1
100
AcDbSymbolTableRecord
100
AcDbBlockTableRecord
  2
-019-_D27
340
0
102
{BLKREFS
331
19B
102
}
  0
BLOCK_RECORD
  5
156
330
1
100
AcDbSymbolTableRecord
100
AcDbBlockTableRecord
  2
-020-_D28
340
0
102
{BLKREFS
331
19C
102
}
  0
ENDTAB
  0
ENDSEC
  0
SECTION
  2
BLOCKS
  0
BLOCK
  5
21
330
20
100
AcDbEntity
  8
0
100
AcDbBlockBegin
  2
*Model_Space
 70
     0
 10
0.0
 20
0.0
 30
0.0
  3
*Model_Space
  1

  0
ENDBLK
  5
22
330
20
100
AcDbEntity
  8
0
100
AcDbBlockEnd
  0
BLOCK
  5
1D
330
1C
100
AcDbEntity
 67
     1
  8
0
100
AcDbBlockBegin
  2
*Paper_Space
 70
     0
 10
0.0
 20
0.0
 30
0.0
  3
*Paper_Space
  1

  0
ENDBLK
  5
1E
330
1C
100
AcDbEntity
 67
     1
  8
0
100
AcDbBlockEnd
  0
BLOCK
  5
54
330
53
100
AcDbEntity
  8
0
100
AcDbBlockBegin
  2
-000-_D4
 70
     0
 10
0.0
 20
0.0
 30
0.0
  3
-000-_D4
  1

  0
LINE
  5
55
330
53
100
AcDbEntity
  8
_1-5_SUNPO
  6
Continuous
 62
     7
100
AcDbLine
 10
2233.851014127788
 20
2853.515747133856
 30
0.0
 11
2233.851014127788
 21
3359.8932986298
 31
0.0
  0
LINE
  5
56
330
53
100
AcDbEntity
  8
_1-5_SUNPO
  6
Continuous
 62
     7
100
AcDbLine
 10
2413.851014127788
 20
2853.515747133856
 30
0.0
 11
2413.851014127788
 21
3359.8932986298
 31
0.0
  0
LINE
  5
57
330
53
100
AcDbEntity
  8
_1-5_SUNPO
  6
Continuous
 62
     7
100
AcDbLine
 10
2277.851014127787
 20
3349.893298629801
 30
0.0
 11
2369.851014127787
 21
3349.893298629801
 31
0.0
  0
SOLID
  5
58
330
53
100
AcDbEntity
  8
_1-5_SUNPO
  6
Continuous
 62
     7
100
AcDbTrace
 10
2277.851014127787
 20
3357.226631963135
 30
0.0
 11
2277.851014127787
 21
3342.559965296468
 31
0.0
 12
2233.851014127788
 22
3349.893298629801
 32
0.0
 13
2233.851014127788
 23
3349.893298629801
 33
0.0
  0
SOLID
  5
59
330
53
100
AcDbEntity
  8
_1-5_SUNPO
  6
Continuous
 62
     7
100
AcDbTrace
 10
2369.851014127787
 20
3357.226631963135
 30
0.0
 11
2369.851014127787
 21
3342.559965296468
 31
0.0
 12
2413.851014127788
 22
3349.893298629801
 32
0.0
 13
2413.851014127788
 23
3349.893298629801
 33
0.0
  0
TEXT
  5
5A
330
53
100
AcDbEntity
  8
_1-5_SUNPO
 62
     7
100
AcDbText
 10
2286.351014127788
 20
3362.393298629801
 30
0.0
 40
50.0
  1
180
100
AcDbText
  0
POINT
  5
5C
330
53
100
AcDbEntity
  8
_0-2_Defpoints
 62
     7
100
AcDbPoint
 10
2233.851014127788
 20
2833.515747133856
 30
0.0
  0
POINT
  5
5D
330
53
100
AcDbEntity
  8
_0-2_Defpoints
 62
     7
100
AcDbPoint
 10
2413.851014127788
 20
2833.515747133856
 30
0.0
  0
POINT
  5
5E
330
53
100
AcDbEntity
  8
_0-2_Defpoints
 62
     7
100
AcDbPoint
 10
2413.851014127788
 20
3349.893298629801
 30
0.0
  0
ENDBLK
  5
5F
330
53
100
AcDbEntity
  8
0
100
AcDbBlockEnd
  0
BLOCK
  5
61
330
60
100
AcDbEntity
  8
0
100
AcDbBlockBegin
  2
-001-_D5
 70
     0
 10
0.0
 20
0.0
 30
0.0
  3
-001-_D5
  1

  0
LINE
  5
62
330
60
100
AcDbEntity
  8
_1-5_SUNPO
  6
Continuous
 62
     7
100
AcDbLine
 10
2233.851014127788
 20
2853.515747133856
 30
0.0
 11
2233.851014127788
 21
3139.652534205697
 31
0.0
  0
LINE
  5
63
330
60
100
AcDbEntity
  8
_1-5_SUNPO
  6
Continuous
 62
     7
100
AcDbLine
 10
2283.851014127788
 20
2853.515747133856
 30
0.0
 11
2283.851014127788
 21
3139.652534205697
 31
0.0
  0
LINE
  5
64
330
60
100
AcDbEntity
  8
_1-5_SUNPO
  6
Continuous
 62
     7
100
AcDbLine
 10
2327.851014127787
 20
3129.652534205697
 30
0.0
 11
2371.851014127788
 21
3129.652534205697
 31
0.0
  0
LINE
  5
65
330
60
100
AcDbEntity
  8
_1-5_SUNPO
  6
Continuous
 62
     7
100
AcDbLine
 10
2189.851014127787
 20
3129.652534205697
 30
0.0
 11
2145.851014127788
 21
3129.652534205697
 31
0.0
  0
TEXT
  5
66
330
60
100
AcDbEntity
  8
_1-5_SUNPO
 62
     7
100
AcDbText
 10
2153.816808513471
 20
3141.06195020692
 30
0.0
 40
50.0
  1
50
100
AcDbText
  0
LINE
  5
67
330
60
100
AcDbEntity
  8
_1-5_SUNPO
  6
Continuous
 62
     7
100
AcDbLine
 10
2283.851014127788
 20
3129.652534205697
 30
0.0
 11
2233.851014127788
 21
3129.652534205697
 31
0.0
  0
SOLID
  5
68
330
60
100
AcDbEntity
  8
_1-5_SUNPO
  6
Continuous
 62
     7
100
AcDbTrace
 10
2327.851014127787
 20
3136.98586753903
 30
0.0
 11
2327.851014127787
 21
3122.319200872363
 31
0.0
 12
2283.851014127788
 22
3129.652534205697
 32
0.0
 13
2283.851014127788
 23
3129.652534205697
 33
0.0
  0
SOLID
  5
69
330
60
100
AcDbEntity
  8
_1-5_SUNPO
  6
Continuous
 62
     7
100
AcDbTrace
 10
2189.851014127787
 20
3136.98586753903
 30
0.0
 11
2189.851014127787
 21
3122.319200872363
 31
0.0
 12
2233.851014127788
 22
3129.652534205697
 32
0.0
 13
2233.851014127788
 23
3129.652534205697
 33
0.0
  0
POINT
  5
6A
330
60
100
AcDbEntity
  8
_0-2_Defpoints
 62
     7
100
AcDbPoint
 10
2233.851014127788
 20
2833.515747133856
 30
0.0
  0
POINT
  5
6B
330
60
100
AcDbEntity
  8
_0-2_Defpoints
 62
     7
100
AcDbPoint
 10
2283.851014127788
 20
2833.515747133856
 30
0.0
  0
POINT
  5
6C
330
60
100
AcDbEntity
  8
_0-2_Defpoints
 62
     7
100
AcDbPoint
 10
2283.851014127788
 20
3129.652534205697
 30
0.0
  0
ENDBLK
  5
6D
330
60
100
AcDbEntity
  8
0
100
AcDbBlockEnd
  0
BLOCK
  5
6F
330
6E
100
AcDbEntity
  8
0
100
AcDbBlockBegin
  2
-002-_D6
 70
     0
 10
0.0
 20
0.0
 30
0.0
  3
-002-_D6
  1

  0
LINE
  5
70
330
6E
100
AcDbEntity
  8
_1-5_SUNPO
  6
Continuous
 62
     7
100
AcDbLine
 10
2413.851014127788
 20
2853.515747133856
 30
0.0
 11
2413.851014127788
 21
3139.652534205697
 31
0.0
  0
LINE
  5
71
330
6E
100
AcDbEntity
  8
_1-5_SUNPO
  6
Continuous
 62
     7
100
AcDbLine
 10
2363.851014127788
 20
2853.515747133856
 30
0.0
 11
2363.851014127788
 21
3139.652534205697
 31
0.0
  0
LINE
  5
72
330
6E
100
AcDbEntity
  8
_1-5_SUNPO
  6
Continuous
 62
     7
100
AcDbLine
 10
2457.851014127788
 20
3129.652534205697
 30
0.0
 11
2501.851014127788
 21
3129.652534205697
 31
0.0
  0
LINE
  5
73
330
6E
100
AcDbEntity
  8
_1-5_SUNPO
  6
Continuous
 62
     7
100
AcDbLine
 10
2319.851014127788
 20
3129.652534205697
 30
0.0
 11
2275.851014127788
 21
3129.652534205697
 31
0.0
  0
TEXT
  5
74
330
6E
100
AcDbEntity
  8
_1-5_SUNPO
 62
     7
100
AcDbText
 10
2436.24755009318
 20
3140.111431258289
 30
0.0
 40
50.0
  1
50
100
AcDbText
  0
LINE
  5
75
330
6E
100
AcDbEntity
  8
_1-5_SUNPO
  6
Continuous
 62
     7
100
AcDbLine
 10
2413.851014127788
 20
3129.652534205697
 30
0.0
 11
2363.851014127788
 21
3129.652534205697
 31
0.0
  0
SOLID
  5
76
330
6E
100
AcDbEntity
  8
_1-5_SUNPO
  6
Continuous
 62
     7
100
AcDbTrace
 10
2457.851014127788
 20
3136.98586753903
 30
0.0
 11
2457.851014127788
 21
3122.319200872363
 31
0.0
 12
2413.851014127788
 22
3129.652534205697
 32
0.0
 13
2413.851014127788
 23
3129.652534205697
 33
0.0
  0
SOLID
  5
77
330
6E
100
AcDbEntity
  8
_1-5_SUNPO
  6
Continuous
 62
     7
100
AcDbTrace
 10
2319.851014127788
 20
3136.98586753903
 30
0.0
 11
2319.851014127788
 21
3122.319200872363
 31
0.0
 12
2363.851014127788
 22
3129.652534205697
 32
0.0
 13
2363.851014127788
 23
3129.652534205697
 33
0.0
  0
POINT
  5
78
330
6E
100
AcDbEntity
  8
_0-2_Defpoints
 62
     7
100
AcDbPoint
 10
2413.851014127788
 20
2833.515747133856
 30
0.0
  0
POINT
  5
79
330
6E
100
AcDbEntity
  8
_0-2_Defpoints
 62
     7
100
AcDbPoint
 10
2363.851014127788
 20
2833.515747133856
 30
0.0
  0
POINT
  5
7A
330
6E
100
AcDbEntity
  8
_0-2_Defpoints
 62
     7
100
AcDbPoint
 10
2363.851014127788
 20
3129.652534205697
 30
0.0
  0
ENDBLK
  5
7B
330
6E
100
AcDbEntity
  8
0
100
AcDbBlockEnd
  0
BLOCK
  5
7D
330
7C
100
AcDbEntity
  8
0
100
AcDbBlockBegin
  2
-003-_D7
 70
     0
 10
0.0
 20
0.0
 30
0.0
  3
-003-_D7
  1

  0
LINE
  5
7E
330
7C
100
AcDbEntity
  8
_1-5_SUNPO
  6
Continuous
 62
     7
100
AcDbLine
 10
2288.851014127788
 20
2853.515747133856
 30
0.0
 11
2288.851014127788
 21
3139.652534205697
 31
0.0
  0
LINE
  5
7F
330
7C
100
AcDbEntity
  8
_1-5_SUNPO
  6
Continuous
 62
     7
100
AcDbLine
 10
2358.851014127788
 20
2853.515747133856
 30
0.0
 11
2358.851014127788
 21
3139.652534205697
 31
0.0
  0
LINE
  5
80
330
7C
100
AcDbEntity
  8
_1-5_SUNPO
  6
Continuous
 62
     7
100
AcDbLine
 10
2244.851014127787
 20
3129.652534205697
 30
0.0
 11
2200.851014127787
 21
3129.652534205697
 31
0.0
  0
LINE
  5
81
330
7C
100
AcDbEntity
  8
_1-5_SUNPO
  6
Continuous
 62
     7
100
AcDbLine
 10
2402.851014127788
 20
3129.652534205697
 30
0.0
 11
2446.851014127787
 21
3129.652534205697
 31
0.0
  0
TEXT
  5
82
330
7C
100
AcDbEntity
  8
_1-5_SUNPO
 62
     7
100
AcDbText
 10
2298.851014127788
 20
3142.152534205697
 30
0.0
 40
50.0
  1
70
100
AcDbText
  0
LINE
  5
83
330
7C
100
AcDbEntity
  8
_1-5_SUNPO
  6
Continuous
 62
     7
100
AcDbLine
 10
2288.851014127788
 20
3129.652534205697
 30
0.0
 11
2358.851014127788
 21
3129.652534205697
 31
0.0
  0
SOLID
  5
84
330
7C
100
AcDbEntity
  8
_1-5_SUNPO
  6
Continuous
 62
     7
100
AcDbTrace
 10
2244.851014127787
 20
3136.98586753903
 30
0.0
 11
2244.851014127787
 21
3122.319200872363
 31
0.0
 12
2288.851014127788
 22
3129.652534205697
 32
0.0
 13
2288.851014127788
 23
3129.652534205697
 33
0.0
  0
SOLID
  5
85
330
7C
100
AcDbEntity
  8
_1-5_SUNPO
  6
Continuous
 62
     7
100
AcDbTrace
 10
2402.851014127788
 20
3136.98586753903
 30
0.0
 11
2402.851014127788
 21
3122.319200872363
 31
0.0
 12
2358.851014127788
 22
3129.652534205697
 32
0.0
 13
2358.851014127788
 23
3129.652534205697
 33
0.0
  0
POINT
  5
86
330
7C
100
AcDbEntity
  8
_0-2_Defpoints
 62
     7
100
AcDbPoint
 10
2288.851014127788
 20
2833.515747133856
 30
0.0
  0
POINT
  5
87
330
7C
100
AcDbEntity
  8
_0-2_Defpoints
 62
     7
100
AcDbPoint
 10
2358.851014127788
 20
2833.515747133856
 30
0.0
  0
POINT
  5
88
330
7C
100
AcDbEntity
  8
_0-2_Defpoints
 62
     7
100
AcDbPoint
 10
2358.851014127788
 20
3129.652534205697
 30
0.0
  0
ENDBLK
  5
89
330
7C
100
AcDbEntity
  8
0
100
AcDbBlockEnd
  0
BLOCK
  5
8B
330
8A
100
AcDbEntity
  8
0
100
AcDbBlockBegin
  2
-004-_D8
 70
     0
 10
0.0
 20
0.0
 30
0.0
  3
-004-_D8
  1

  0
LINE
  5
8C
330
8A
100
AcDbEntity
  8
_1-5_SUNPO
  6
Continuous
 62
     7
100
AcDbLine
 10
2283.851014127788
 20
2853.515747133856
 30
0.0
 11
2283.851014127788
 21
3006.584140669776
 31
0.0
  0
LINE
  5
8D
330
8A
100
AcDbEntity
  8
_1-5_SUNPO
  6
Continuous
 62
     7
100
AcDbLine
 10
2288.851014127788
 20
2853.515747133856
 30
0.0
 11
2288.851014127788
 21
3006.584140669776
 31
0.0
  0
LINE
  5
8E
330
8A
100
AcDbEntity
  8
_1-5_SUNPO
  6
Continuous
 62
     7
100
AcDbLine
 10
2239.851014127788
 20
2996.584140669776
 30
0.0
 11
2195.851014127788
 21
2996.584140669776
 31
0.0
  0
LINE
  5
8F
330
8A
100
AcDbEntity
  8
_1-5_SUNPO
  6
Continuous
 62
     7
100
AcDbLine
 10
2332.851014127788
 20
2996.584140669776
 30
0.0
 11
2376.851014127788
 21
2996.584140669776
 31
0.0
  0
LINE
  5
90
330
8A
100
AcDbEntity
  8
_1-5_SUNPO
  6
Continuous
 62
     7
100
AcDbLine
 10
2283.851014127788
 20
2996.584140669776
 30
0.0
 11
2288.851014127788
 21
2996.584140669776
 31
0.0
  0
SOLID
  5
91
330
8A
100
AcDbEntity
  8
_1-5_SUNPO
  6
Continuous
 62
     7
100
AcDbTrace
 10
2239.851014127788
 20
3003.917474003109
 30
0.0
 11
2239.851014127788
 21
2989.250807336443
 31
0.0
 12
2283.851014127788
 22
2996.584140669776
 32
0.0
 13
2283.851014127788
 23
2996.584140669776
 33
0.0
  0
SOLID
  5
92
330
8A
100
AcDbEntity
  8
_1-5_SUNPO
  6
Continuous
 62
     7
100
AcDbTrace
 10
2332.851014127788
 20
3003.917474003109
 30
0.0
 11
2332.851014127788
 21
2989.250807336443
 31
0.0
 12
2288.851014127788
 22
2996.584140669776
 32
0.0
 13
2288.851014127788
 23
2996.584140669776
 33
0.0
  0
TEXT
  5
93
330
8A
100
AcDbEntity
  8
_1-5_SUNPO
 62
     7
100
AcDbText
 10
2273.851014127788
 20
3009.084140669776
 30
0.0
 40
50.0
  1
5
100
AcDbText
  0
POINT
  5
94
330
8A
100
AcDbEntity
  8
_0-2_Defpoints
 62
     7
100
AcDbPoint
 10
2283.851014127788
 20
2833.515747133856
 30
0.0
  0
POINT
  5
95
330
8A
100
AcDbEntity
  8
_0-2_Defpoints
 62
     7
100
AcDbPoint
 10
2288.851014127788
 20
2833.515747133856
 30
0.0
  0
POINT
  5
96
330
8A
100
AcDbEntity
  8
_0-2_Defpoints
 62
     7
100
AcDbPoint
 10
2288.851014127788
 20
2996.584140669776
 30
0.0
  0
ENDBLK
  5
97
330
8A
100
AcDbEntity
  8
0
100
AcDbBlockEnd
  0
BLOCK
  5
99
330
98
100
AcDbEntity
  8
0
100
AcDbBlockBegin
  2
-005-_D9
 70
     0
 10
0.0
 20
0.0
 30
0.0
  3
-005-_D9
  1

  0
LINE
  5
9A
330
98
100
AcDbEntity
  8
_1-5_SUNPO
  6
Continuous
 62
     7
100
AcDbLine
 10
2358.851014127788
 20
2853.515747133856
 30
0.0
 11
2358.851014127788
 21
3006.584140669776
 31
0.0
  0
LINE
  5
9B
330
98
100
AcDbEntity
  8
_1-5_SUNPO
  6
Continuous
 62
     7
100
AcDbLine
 10
2363.851014127788
 20
2853.515747133856
 30
0.0
 11
2363.851014127788
 21
3006.584140669776
 31
0.0
  0
LINE
  5
9C
330
98
100
AcDbEntity
  8
_1-5_SUNPO
  6
Continuous
 62
     7
100
AcDbLine
 10
2314.851014127787
 20
2996.584140669776
 30
0.0
 11
2270.851014127788
 21
2996.584140669776
 31
0.0
  0
LINE
  5
9D
330
98
100
AcDbEntity
  8
_1-5_SUNPO
  6
Continuous
 62
     7
100
AcDbLine
 10
2407.851014127788
 20
2996.584140669776
 30
0.0
 11
2451.851014127788
 21
2996.584140669776
 31
0.0
  0
LINE
  5
9E
330
98
100
AcDbEntity
  8
_1-5_SUNPO
  6
Continuous
 62
     7
100
AcDbLine
 10
2358.851014127788
 20
2996.584140669776
 30
0.0
 11
2363.851014127788
 21
2996.584140669776
 31
0.0
  0
SOLID
  5
9F
330
98
100
AcDbEntity
  8
_1-5_SUNPO
  6
Continuous
 62
     7
100
AcDbTrace
 10
2314.851014127787
 20
3003.917474003109
 30
0.0
 11
2314.851014127787
 21
2989.250807336443
 31
0.0
 12
2358.851014127788
 22
2996.584140669776
 32
0.0
 13
2358.851014127788
 23
2996.584140669776
 33
0.0
  0
SOLID
  5
A0
330
98
100
AcDbEntity
  8
_1-5_SUNPO
  6
Continuous
 62
     7
100
AcDbTrace
 10
2407.851014127788
 20
3003.917474003109
 30
0.0
 11
2407.851014127788
 21
2989.250807336443
 31
0.0
 12
2363.851014127788
 22
2996.584140669776
 32
0.0
 13
2363.851014127788
 23
2996.584140669776
 33
0.0
  0
TEXT
  5
A1
330
98
100
AcDbEntity
  8
_1-5_SUNPO
 62
     7
100
AcDbText
 10
2348.851014127787
 20
3009.084140669776
 30
0.0
 40
50.0
  1
5
100
AcDbText
  0
POINT
  5
A2
330
98
100
AcDbEntity
  8
_0-2_Defpoints
 62
     7
100
AcDbPoint
 10
2358.851014127788
 20
2833.515747133856
 30
0.0
  0
POINT
  5
A3
330
98
100
AcDbEntity
  8
_0-2_Defpoints
 62
     7
100
AcDbPoint
 10
2363.851014127788
 20
2833.515747133856
 30
0.0
  0
POINT
  5
A4
330
98
100
AcDbEntity
  8
_0-2_Defpoints
 62
     7
100
AcDbPoint
 10
2363.851014127788
 20
2996.584140669776
 30
0.0
  0
ENDBLK
  5
A5
330
98
100
AcDbEntity
  8
0
100
AcDbBlockEnd
  0
BLOCK
  5
A7
330
A6
100
AcDbEntity
  8
0
100
AcDbBlockBegin
  2
-006-_D10
 70
     0
 10
0.0
 20
0.0
 30
0.0
  3
-006-_D10
  1

  0
LINE
  5
A8
330
A6
100
AcDbEntity
  8
_1-5_SUNPO
  6
Continuous
 62
     7
100
AcDbLine
 10
2913.851014127788
 20
2853.515747133856
 30
0.0
 11
2913.851014127788
 21
3139.652534205697
 31
0.0
  0
LINE
  5
A9
330
A6
100
AcDbEntity
  8
_1-5_SUNPO
  6
Continuous
 62
     7
100
AcDbLine
 10
3023.851014127786
 20
2853.515747133856
 30
0.0
 11
3023.851014127786
 21
3139.652534205697
 31
0.0
  0
LINE
  5
AA
330
A6
100
AcDbEntity
  8
_1-5_SUNPO
  6
Continuous
 62
     7
100
AcDbLine
 10
2943.851014127787
 20
3129.652534205697
 30
0.0
 11
2993.851014127788
 21
3129.652534205697
 31
0.0
  0
TEXT
  5
AB
330
A6
100
AcDbEntity
  8
_1-5_SUNPO
 62
     7
100
AcDbText
 10
2931.351014127788
 20
3167.152534205697
 30
0.0
 40
50.0
  1
110
100
AcDbText
  0
SOLID
  5
AC
330
A6
100
AcDbEntity
  8
_1-5_SUNPO
  6
Continuous
 62
     7
100
AcDbTrace
 10
2943.851014127787
 20
3134.652534205697
 30
0.0
 11
2943.851014127787
 21
3124.652534205698
 31
0.0
 12
2913.851014127788
 22
3129.652534205697
 32
0.0
 13
2913.851014127788
 23
3129.652534205697
 33
0.0
  0
SOLID
  5
AD
330
A6
100
AcDbEntity
  8
_1-5_SUNPO
  6
Continuous
 62
     7
100
AcDbTrace
 10
2993.851014127788
 20
3134.652534205697
 30
0.0
 11
2993.851014127788
 21
3124.652534205698
 31
0.0
 12
3023.851014127786
 22
3129.652534205697
 32
0.0
 13
3023.851014127786
 23
3129.652534205697
 33
0.0
  0
POINT
  5
AE
330
A6
100
AcDbEntity
  8
_0-2_Defpoints
 62
     7
100
AcDbPoint
 10
2913.851014127788
 20
2833.515747133856
 30
0.0
  0
POINT
  5
AF
330
A6
100
AcDbEntity
  8
_0-2_Defpoints
 62
     7
100
AcDbPoint
 10
3023.851014127786
 20
2833.515747133856
 30
0.0
  0
POINT
  5
B0
330
A6
100
AcDbEntity
  8
_0-2_Defpoints
 62
     7
100
AcDbPoint
 10
3023.851014127786
 20
3129.652534205697
 30
0.0
  0
ENDBLK
  5
B1
330
A6
100
AcDbEntity
  8
0
100
AcDbBlockEnd
  0
BLOCK
  5
B3
330
B2
100
AcDbEntity
  8
0
100
AcDbBlockBegin
  2
-007-_D11
 70
     0
 10
0.0
 20
0.0
 30
0.0
  3
-007-_D11
  1

  0
LINE
  5
B4
330
B2
100
AcDbEntity
  8
_1-5_SUNPO
  6
Continuous
 62
     7
100
AcDbLine
 10
3623.851014127788
 20
2853.515747133856
 30
0.0
 11
3623.851014127788
 21
3139.652534205697
 31
0.0
  0
LINE
  5
B5
330
B2
100
AcDbEntity
  8
_1-5_SUNPO
  6
Continuous
 62
     7
100
AcDbLine
 10
3733.851014127786
 20
2853.515747133856
 30
0.0
 11
3733.851014127786
 21
3139.652534205697
 31
0.0
  0
LINE
  5
B6
330
B2
100
AcDbEntity
  8
_1-5_SUNPO
  6
Continuous
 62
     7
100
AcDbLine
 10
3653.851014127788
 20
3129.652534205697
 30
0.0
 11
3703.851014127788
 21
3129.652534205697
 31
0.0
  0
TEXT
  5
B7
330
B2
100
AcDbEntity
  8
_1-5_SUNPO
 62
     7
100
AcDbText
 10
3641.351014127788
 20
3154.555316699509
 30
0.0
 40
50.0
  1
110
100
AcDbText
  0
SOLID
  5
B8
330
B2
100
AcDbEntity
  8
_1-5_SUNPO
  6
Continuous
 62
     7
100
AcDbTrace
 10
3653.851014127788
 20
3134.652534205697
 30
0.0
 11
3653.851014127788
 21
3124.652534205698
 31
0.0
 12
3623.851014127788
 22
3129.652534205697
 32
0.0
 13
3623.851014127788
 23
3129.652534205697
 33
0.0
  0
SOLID
  5
B9
330
B2
100
AcDbEntity
  8
_1-5_SUNPO
  6
Continuous
 62
     7
100
AcDbTrace
 10
3703.851014127788
 20
3134.652534205697
 30
0.0
 11
3703.851014127788
 21
3124.652534205698
 31
0.0
 12
3733.851014127786
 22
3129.652534205697
 32
0.0
 13
3733.851014127786
 23
3129.652534205697
 33
0.0
  0
POINT
  5
BA
330
B2
100
AcDbEntity
  8
_0-2_Defpoints
 62
     7
100
AcDbPoint
 10
3623.851014127788
 20
2833.515747133856
 30
0.0
  0
POINT
  5
BB
330
B2
100
AcDbEntity
  8
_0-2_Defpoints
 62
     7
100
AcDbPoint
 10
3733.851014127786
 20
2833.515747133856
 30
0.0
  0
POINT
  5
BC
330
B2
100
AcDbEntity
  8
_0-2_Defpoints
 62
     7
100
AcDbPoint
 10
3733.851014127786
 20
3129.652534205697
 30
0.0
  0
ENDBLK
  5
BD
330
B2
100
AcDbEntity
  8
0
100
AcDbBlockEnd
  0
BLOCK
  5
BF
330
BE
100
AcDbEntity
  8
0
100
AcDbBlockBegin
  2
-008-_D12
 70
     0
 10
0.0
 20
0.0
 30
0.0
  3
-008-_D12
  1

  0
LINE
  5
C0
330
BE
100
AcDbEntity
  8
_1-5_SUNPO
  6
Continuous
 62
     7
100
AcDbLine
 10
2963.910185739815
 20
2850.851710316611
 30
0.0
 11
2963.910185739815
 21
3006.584140669776
 31
0.0
  0
LINE
  5
C1
330
BE
100
AcDbEntity
  8
_1-5_SUNPO
  6
Continuous
 62
     7
100
AcDbLine
 10
3023.851014127786
 20
2853.515747133856
 30
0.0
 11
3023.851014127786
 21
3006.584140669776
 31
0.0
  0
LINE
  5
C2
330
BE
100
AcDbEntity
  8
_1-5_SUNPO
  6
Continuous
 62
     7
100
AcDbLine
 10
2919.910185739815
 20
2996.584140669776
 30
0.0
 11
2875.910185739815
 21
2996.584140669776
 31
0.0
  0
LINE
  5
C3
330
BE
100
AcDbEntity
  8
_1-5_SUNPO
  6
Continuous
 62
     7
100
AcDbLine
 10
3067.851014127788
 20
2996.584140669776
 30
0.0
 11
3111.851014127788
 21
2996.584140669776
 31
0.0
  0
TEXT
  5
C4
330
BE
100
AcDbEntity
  8
_1-5_SUNPO
 62
     7
100
AcDbText
 10
2968.880599933802
 20
3009.084140669776
 30
0.0
 40
50.0
  1
60
100
AcDbText
  0
LINE
  5
C5
330
BE
100
AcDbEntity
  8
_1-5_SUNPO
  6
Continuous
 62
     7
100
AcDbLine
 10
2963.910185739815
 20
2996.584140669776
 30
0.0
 11
3023.851014127786
 21
2996.584140669776
 31
0.0
  0
SOLID
  5
C6
330
BE
100
AcDbEntity
  8
_1-5_SUNPO
  6
Continuous
 62
     7
100
AcDbTrace
 10
2919.910185739815
 20
3003.917474003109
 30
0.0
 11
2919.910185739815
 21
2989.250807336443
 31
0.0
 12
2963.910185739815
 22
2996.584140669776
 32
0.0
 13
2963.910185739815
 23
2996.584140669776
 33
0.0
  0
SOLID
  5
C7
330
BE
100
AcDbEntity
  8
_1-5_SUNPO
  6
Continuous
 62
     7
100
AcDbTrace
 10
3067.851014127788
 20
3003.917474003109
 30
0.0
 11
3067.851014127788
 21
2989.250807336443
 31
0.0
 12
3023.851014127786
 22
2996.584140669776
 32
0.0
 13
3023.851014127786
 23
2996.584140669776
 33
0.0
  0
POINT
  5
C8
330
BE
100
AcDbEntity
  8
_0-2_Defpoints
 62
     7
100
AcDbPoint
 10
2963.910185739815
 20
2830.851710316612
 30
0.0
  0
POINT
  5
C9
330
BE
100
AcDbEntity
  8
_0-2_Defpoints
 62
     7
100
AcDbPoint
 10
3023.851014127786
 20
2833.515747133856
 30
0.0
  0
POINT
  5
CA
330
BE
100
AcDbEntity
  8
_0-2_Defpoints
 62
     7
100
AcDbPoint
 10
3023.851014127786
 20
2996.584140669776
 30
0.0
  0
ENDBLK
  5
CB
330
BE
100
AcDbEntity
  8
0
100
AcDbBlockEnd
  0
BLOCK
  5
CD
330
CC
100
AcDbEntity
  8
0
100
AcDbBlockBegin
  2
-009-_D13
 70
     0
 10
0.0
 20
0.0
 30
0.0
  3
-009-_D13
  1

  0
LINE
  5
CE
330
CC
100
AcDbEntity
  8
_1-5_SUNPO
  6
Continuous
 62
     7
100
AcDbLine
 10
3623.851014127788
 20
2853.515747133856
 30
0.0
 11
3623.851014127788
 21
3006.584140669776
 31
0.0
  0
LINE
  5
CF
330
CC
100
AcDbEntity
  8
_1-5_SUNPO
  6
Continuous
 62
     7
100
AcDbLine
 10
3683.79184251576
 20
2850.851710316611
 30
0.0
 11
3683.79184251576
 21
3006.584140669776
 31
0.0
  0
LINE
  5
D0
330
CC
100
AcDbEntity
  8
_1-5_SUNPO
  6
Continuous
 62
     7
100
AcDbLine
 10
3579.851014127787
 20
2996.584140669776
 30
0.0
 11
3535.851014127788
 21
2996.584140669776
 31
0.0
  0
LINE
  5
D1
330
CC
100
AcDbEntity
  8
_1-5_SUNPO
  6
Continuous
 62
     7
100
AcDbLine
 10
3727.79184251576
 20
2996.584140669776
 30
0.0
 11
3771.79184251576
 21
2996.584140669776
 31
0.0
  0
LINE
  5
D2
330
CC
100
AcDbEntity
  8
_1-5_SUNPO
  6
Continuous
 62
     7
100
AcDbLine
 10
3623.851014127788
 20
2996.584140669776
 30
0.0
 11
3683.79184251576
 21
2996.584140669776
 31
0.0
  0
SOLID
  5
D3
330
CC
100
AcDbEntity
  8
_1-5_SUNPO
  6
Continuous
 62
     7
100
AcDbTrace
 10
3579.851014127787
 20
3003.917474003109
 30
0.0
 11
3579.851014127787
 21
2989.250807336443
 31
0.0
 12
3623.851014127788
 22
2996.584140669776
 32
0.0
 13
3623.851014127788
 23
2996.584140669776
 33
0.0
  0
SOLID
  5
D4
330
CC
100
AcDbEntity
  8
_1-5_SUNPO
  6
Continuous
 62
     7
100
AcDbTrace
 10
3727.79184251576
 20
3003.917474003109
 30
0.0
 11
3727.79184251576
 21
2989.250807336443
 31
0.0
 12
3683.79184251576
 22
2996.584140669776
 32
0.0
 13
3683.79184251576
 23
2996.584140669776
 33
0.0
  0
TEXT
  5
D5
330
CC
100
AcDbEntity
  8
_1-5_SUNPO
 62
     7
100
AcDbText
 10
3628.821428321775
 20
3009.084140669776
 30
0.0
 40
50.0
  1
60
100
AcDbText
  0
POINT
  5
D6
330
CC
100
AcDbEntity
  8
_0-2_Defpoints
 62
     7
100
AcDbPoint
 10
3623.851014127788
 20
2833.515747133856
 30
0.0
  0
POINT
  5
D7
330
CC
100
AcDbEntity
  8
_0-2_Defpoints
 62
     7
100
AcDbPoint
 10
3683.79184251576
 20
2830.851710316612
 30
0.0
  0
POINT
  5
D8
330
CC
100
AcDbEntity
  8
_0-2_Defpoints
 62
     7
100
AcDbPoint
 10
3683.79184251576
 20
2996.584140669776
 30
0.0
  0
ENDBLK
  5
D9
330
CC
100
AcDbEntity
  8
0
100
AcDbBlockEnd
  0
BLOCK
  5
DB
330
DA
100
AcDbEntity
  8
0
100
AcDbBlockBegin
  2
-010-_D14
 70
     0
 10
0.0
 20
0.0
 30
0.0
  3
-010-_D14
  1

  0
LINE
  5
DC
330
DA
100
AcDbEntity
  8
_1-5_SUNPO
  6
Continuous
 62
     7
100
AcDbLine
 10
2893.851014127788
 20
2833.515747133856
 30
0.0
 11
2580.39583939287
 21
2833.515747133856
 31
0.0
  0
LINE
  5
DD
330
DA
100
AcDbEntity
  8
_1-5_SUNPO
  6
Continuous
 62
     7
100
AcDbLine
 10
2893.851014127788
 20
1783.515747133855
 30
0.0
 11
2580.39583939287
 21
1783.515747133855
 31
0.0
  0
LINE
  5
DE
330
DA
100
AcDbEntity
  8
_1-5_SUNPO
  6
Continuous
 62
     7
100
AcDbLine
 10
2590.39583939287
 20
2789.515747133855
 30
0.0
 11
2590.39583939287
 21
1827.515747133855
 31
0.0
  0
SOLID
  5
DF
330
DA
100
AcDbEntity
  8
_1-5_SUNPO
  6
Continuous
 62
     7
100
AcDbTrace
 10
2583.062506059536
 20
2789.515747133855
 30
0.0
 11
2597.729172726203
 21
2789.515747133855
 31
0.0
 12
2590.39583939287
 22
2833.515747133856
 32
0.0
 13
2590.39583939287
 23
2833.515747133856
 33
0.0
  0
SOLID
  5
E0
330
DA
100
AcDbEntity
  8
_1-5_SUNPO
  6
Continuous
 62
     7
100
AcDbTrace
 10
2583.062506059536
 20
1827.515747133855
 30
0.0
 11
2597.729172726203
 21
1827.515747133855
 31
0.0
 12
2590.39583939287
 22
1783.515747133855
 32
0.0
 13
2590.39583939287
 23
1783.515747133855
 33
0.0
  0
TEXT
  5
E1
330
DA
100
AcDbEntity
  8
_1-5_SUNPO
 62
     7
100
AcDbText
 10
2577.895839392869
 20
2258.515747133856
 30
0.0
 40
50.0
  1
1050
 50
90.0
100
AcDbText
  0
POINT
  5
E2
330
DA
100
AcDbEntity
  8
_0-2_Defpoints
 62
     7
100
AcDbPoint
 10
2913.851014127788
 20
2833.515747133856
 30
0.0
  0
POINT
  5
E3
330
DA
100
AcDbEntity
  8
_0-2_Defpoints
 62
     7
100
AcDbPoint
 10
2913.851014127788
 20
1783.515747133855
 30
0.0
  0
POINT
  5
E4
330
DA
100
AcDbEntity
  8
_0-2_Defpoints
 62
     7
100
AcDbPoint
 10
2590.39583939287
 20
1783.515747133855
 30
0.0
  0
ENDBLK
  5
E5
330
DA
100
AcDbEntity
  8
0
100
AcDbBlockEnd
  0
BLOCK
  5
E7
330
E6
100
AcDbEntity
  8
0
100
AcDbBlockBegin
  2
-011-_D15
 70
     0
 10
0.0
 20
0.0
 30
0.0
  3
-011-_D15
  1

  0
LINE
  5
E8
330
E6
100
AcDbEntity
  8
_1-5_SUNPO
  6
Continuous
 62
     7
100
AcDbLine
 10
2893.851014127788
 20
1783.515747133855
 30
0.0
 11
2746.661215995017
 21
1783.515747133855
 31
0.0
  0
LINE
  5
E9
330
E6
100
AcDbEntity
  8
_1-5_SUNPO
  6
Continuous
 62
     7
100
AcDbLine
 10
2893.851014127788
 20
1933.515747133855
 30
0.0
 11
2746.661215995017
 21
1933.515747133855
 31
0.0
  0
LINE
  5
EA
330
E6
100
AcDbEntity
  8
_1-5_SUNPO
  6
Continuous
 62
     7
100
AcDbLine
 10
2756.661215995018
 20
1827.515747133855
 30
0.0
 11
2756.661215995018
 21
1889.515747133856
 31
0.0
  0
SOLID
  5
EB
330
E6
100
AcDbEntity
  8
_1-5_SUNPO
  6
Continuous
 62
     7
100
AcDbTrace
 10
2749.327882661683
 20
1827.515747133855
 30
0.0
 11
2763.99454932835
 21
1827.515747133855
 31
0.0
 12
2756.661215995018
 22
1783.515747133855
 32
0.0
 13
2756.661215995018
 23
1783.515747133855
 33
0.0
  0
SOLID
  5
EC
330
E6
100
AcDbEntity
  8
_1-5_SUNPO
  6
Continuous
 62
     7
100
AcDbTrace
 10
2749.327882661683
 20
1889.515747133856
 30
0.0
 11
2763.99454932835
 21
1889.515747133856
 31
0.0
 12
2756.661215995018
 22
1933.515747133855
 32
0.0
 13
2756.661215995018
 23
1933.515747133855
 33
0.0
  0
TEXT
  5
ED
330
E6
100
AcDbEntity
  8
_1-5_SUNPO
 62
     7
100
AcDbText
 10
2744.161215995016
 20
1821.015747133855
 30
0.0
 40
50.0
  1
150
 50
90.0
100
AcDbText
  0
POINT
  5
EE
330
E6
100
AcDbEntity
  8
_0-2_Defpoints
 62
     7
100
AcDbPoint
 10
2913.851014127788
 20
1783.515747133855
 30
0.0
  0
POINT
  5
EF
330
E6
100
AcDbEntity
  8
_0-2_Defpoints
 62
     7
100
AcDbPoint
 10
2913.851014127788
 20
1933.515747133855
 30
0.0
  0
POINT
  5
F0
330
E6
100
AcDbEntity
  8
_0-2_Defpoints
 62
     7
100
AcDbPoint
 10
2756.661215995018
 20
1933.515747133855
 30
0.0
  0
ENDBLK
  5
F1
330
E6
100
AcDbEntity
  8
0
100
AcDbBlockEnd
  0
BLOCK
  5
F3
330
F2
100
AcDbEntity
  8
0
100
AcDbBlockBegin
  2
-012-_D16
 70
     0
 10
0.0
 20
0.0
 30
0.0
  3
-012-_D16
  1

  0
LINE
  5
F4
330
F2
100
AcDbEntity
  8
_1-5_SUNPO
  6
Continuous
 62
     7
100
AcDbLine
 10
2893.851014127788
 20
1933.515747133855
 30
0.0
 11
2746.661215995017
 21
1933.515747133855
 31
0.0
  0
LINE
  5
F5
330
F2
100
AcDbEntity
  8
_1-5_SUNPO
  6
Continuous
 62
     7
100
AcDbLine
 10
2893.851014127788
 20
2833.515747133856
 30
0.0
 11
2746.661215995017
 21
2833.515747133856
 31
0.0
  0
LINE
  5
F6
330
F2
100
AcDbEntity
  8
_1-5_SUNPO
  6
Continuous
 62
     7
100
AcDbLine
 10
2756.661215995018
 20
1977.515747133855
 30
0.0
 11
2756.661215995018
 21
2789.515747133855
 31
0.0
  0
SOLID
  5
F7
330
F2
100
AcDbEntity
  8
_1-5_SUNPO
  6
Continuous
 62
     7
100
AcDbTrace
 10
2749.327882661683
 20
1977.515747133855
 30
0.0
 11
2763.99454932835
 21
1977.515747133855
 31
0.0
 12
2756.661215995018
 22
1933.515747133855
 32
0.0
 13
2756.661215995018
 23
1933.515747133855
 33
0.0
  0
SOLID
  5
F8
330
F2
100
AcDbEntity
  8
_1-5_SUNPO
  6
Continuous
 62
     7
100
AcDbTrace
 10
2749.327882661683
 20
2789.515747133855
 30
0.0
 11
2763.99454932835
 21
2789.515747133855
 31
0.0
 12
2756.661215995018
 22
2833.515747133856
 32
0.0
 13
2756.661215995018
 23
2833.515747133856
 33
0.0
  0
TEXT
  5
F9
330
F2
100
AcDbEntity
  8
_1-5_SUNPO
 62
     7
100
AcDbText
 10
2744.161215995016
 20
2346.015747133856
 30
0.0
 40
50.0
  1
900
 50
90.0
100
AcDbText
  0
POINT
  5
FA
330
F2
100
AcDbEntity
  8
_0-2_Defpoints
 62
     7
100
AcDbPoint
 10
2913.851014127788
 20
1933.515747133855
 30
0.0
  0
POINT
  5
FB
330
F2
100
AcDbEntity
  8
_0-2_Defpoints
 62
     7
100
AcDbPoint
 10
2913.851014127788
 20
2833.515747133856
 30
0.0
  0
POINT
  5
FC
330
F2
100
AcDbEntity
  8
_0-2_Defpoints
 62
     7
100
AcDbPoint
 10
2756.661215995018
 20
2833.515747133856
 30
0.0
  0
ENDBLK
  5
FD
330
F2
100
AcDbEntity
  8
0
100
AcDbBlockEnd
  0
BLOCK
  5
FF
330
FE
100
AcDbEntity
  8
0
100
AcDbBlockBegin
  2
-013-_D17
 70
     0
 10
0.0
 20
0.0
 30
0.0
  3
-013-_D17
  1

  0
LINE
  5
100
330
FE
100
AcDbEntity
  8
_1-5_SUNPO
  6
Continuous
 62
     7
100
AcDbLine
 10
2233.851014127788
 20
1763.515747133855
 30
0.0
 11
2233.851014127788
 21
1228.774390045935
 31
0.0
  0
LINE
  5
101
330
FE
100
AcDbEntity
  8
_1-5_SUNPO
  6
Continuous
 62
     7
100
AcDbLine
 10
2413.851014127788
 20
1763.515747133855
 30
0.0
 11
2413.851014127788
 21
1228.774390045935
 31
0.0
  0
LINE
  5
102
330
FE
100
AcDbEntity
  8
_1-5_SUNPO
  6
Continuous
 62
     7
100
AcDbLine
 10
2277.851014127787
 20
1238.774390045935
 30
0.0
 11
2369.851014127787
 21
1238.774390045935
 31
0.0
  0
SOLID
  5
103
330
FE
100
AcDbEntity
  8
_1-5_SUNPO
  6
Continuous
 62
     7
100
AcDbTrace
 10
2277.851014127787
 20
1246.107723379269
 30
0.0
 11
2277.851014127787
 21
1231.441056712602
 31
0.0
 12
2233.851014127788
 22
1238.774390045935
 32
0.0
 13
2233.851014127788
 23
1238.774390045935
 33
0.0
  0
SOLID
  5
104
330
FE
100
AcDbEntity
  8
_1-5_SUNPO
  6
Continuous
 62
     7
100
AcDbTrace
 10
2369.851014127787
 20
1246.107723379269
 30
0.0
 11
2369.851014127787
 21
1231.441056712602
 31
0.0
 12
2413.851014127788
 22
1238.774390045935
 32
0.0
 13
2413.851014127788
 23
1238.774390045935
 33
0.0
  0
TEXT
  5
105
330
FE
100
AcDbEntity
  8
_1-5_SUNPO
 62
     7
100
AcDbText
 10
2286.351014127788
 20
1251.274390045935
 30
0.0
 40
50.0
  1
180
100
AcDbText
  0
POINT
  5
106
330
FE
100
AcDbEntity
  8
_0-2_Defpoints
 62
     7
100
AcDbPoint
 10
2233.851014127788
 20
1783.515747133855
 30
0.0
  0
POINT
  5
107
330
FE
100
AcDbEntity
  8
_0-2_Defpoints
 62
     7
100
AcDbPoint
 10
2413.851014127788
 20
1783.515747133855
 30
0.0
  0
POINT
  5
108
330
FE
100
AcDbEntity
  8
_0-2_Defpoints
 62
     7
100
AcDbPoint
 10
2413.851014127788
 20
1238.774390045935
 30
0.0
  0
ENDBLK
  5
109
330
FE
100
AcDbEntity
  8
0
100
AcDbBlockEnd
  0
BLOCK
  5
10B
330
10A
100
AcDbEntity
  8
0
100
AcDbBlockBegin
  2
-014-_D18
 70
     0
 10
0.0
 20
0.0
 30
0.0
  3
-014-_D18
  1

  0
LINE
  5
10C
330
10A
100
AcDbEntity
  8
_1-5_SUNPO
  6
Continuous
 62
     7
100
AcDbLine
 10
3063.851014127788
 20
1953.515747133856
 30
0.0
 11
3063.851014127788
 21
2146.749979603863
 31
0.0
  0
LINE
  5
10D
330
10A
100
AcDbEntity
  8
_1-5_SUNPO
  6
Continuous
 62
     7
100
AcDbLine
 10
3083.851014127786
 20
1953.515747133856
 30
0.0
 11
3083.851014127786
 21
2146.749979603863
 31
0.0
  0
LINE
  5
10E
330
10A
100
AcDbEntity
  8
_1-5_SUNPO
  6
Continuous
 62
     7
100
AcDbLine
 10
3019.851014127789
 20
2136.749979603863
 30
0.0
 11
2975.851014127787
 21
2136.749979603863
 31
0.0
  0
LINE
  5
10F
330
10A
100
AcDbEntity
  8
_1-5_SUNPO
  6
Continuous
 62
     7
100
AcDbLine
 10
3127.851014127787
 20
2136.749979603863
 30
0.0
 11
3171.851014127787
 21
2136.749979603863
 31
0.0
  0
TEXT
  5
110
330
10A
100
AcDbEntity
  8
_1-5_SUNPO
 62
     7
100
AcDbText
 10
3118.14585651276
 20
2149.249979603863
 30
0.0
 40
50.0
  1
20
100
AcDbText
  0
LINE
  5
111
330
10A
100
AcDbEntity
  8
_1-5_SUNPO
  6
Continuous
 62
     7
100
AcDbLine
 10
3063.851014127788
 20
2136.749979603863
 30
0.0
 11
3083.851014127786
 21
2136.749979603863
 31
0.0
  0
SOLID
  5
112
330
10A
100
AcDbEntity
  8
_1-5_SUNPO
  6
Continuous
 62
     7
100
AcDbTrace
 10
3019.851014127789
 20
2144.083312937196
 30
0.0
 11
3019.851014127789
 21
2129.416646270529
 31
0.0
 12
3063.851014127788
 22
2136.749979603863
 32
0.0
 13
3063.851014127788
 23
2136.749979603863
 33
0.0
  0
SOLID
  5
113
330
10A
100
AcDbEntity
  8
_1-5_SUNPO
  6
Continuous
 62
     7
100
AcDbTrace
 10
3127.851014127787
 20
2144.083312937196
 30
0.0
 11
3127.851014127787
 21
2129.416646270529
 31
0.0
 12
3083.851014127786
 22
2136.749979603863
 32
0.0
 13
3083.851014127786
 23
2136.749979603863
 33
0.0
  0
POINT
  5
114
330
10A
100
AcDbEntity
  8
_0-2_Defpoints
 62
     7
100
AcDbPoint
 10
3063.851014127788
 20
1933.515747133856
 30
0.0
  0
POINT
  5
115
330
10A
100
AcDbEntity
  8
_0-2_Defpoints
 62
     7
100
AcDbPoint
 10
3083.851014127786
 20
1933.515747133856
 30
0.0
  0
POINT
  5
116
330
10A
100
AcDbEntity
  8
_0-2_Defpoints
 62
     7
100
AcDbPoint
 10
3083.851014127786
 20
2136.749979603863
 30
0.0
  0
ENDBLK
  5
117
330
10A
100
AcDbEntity
  8
0
100
AcDbBlockEnd
  0
BLOCK
  5
119
330
118
100
AcDbEntity
  8
0
100
AcDbBlockBegin
  2
-015-_D19
 70
     0
 10
0.0
 20
0.0
 30
0.0
  3
-015-_D19
  1

  0
LINE
  5
11A
330
118
100
AcDbEntity
  8
_1-5_SUNPO
  6
Continuous
 62
     7
100
AcDbLine
 10
3082.963001855373
 20
1933.515747133856
 30
0.0
 11
3329.167042655039
 21
1933.515747133856
 31
0.0
  0
LINE
  5
11B
330
118
100
AcDbEntity
  8
_1-5_SUNPO
  6
Continuous
 62
     7
100
AcDbLine
 10
3082.963001855373
 20
1953.49602326318
 30
0.0
 11
3329.167042655039
 21
1953.49602326318
 31
0.0
  0
LINE
  5
11C
330
118
100
AcDbEntity
  8
_1-5_SUNPO
  6
Continuous
 62
     7
100
AcDbLine
 10
3319.167042655039
 20
1889.515747133856
 30
0.0
 11
3319.167042655039
 21
1845.515747133856
 31
0.0
  0
LINE
  5
11D
330
118
100
AcDbEntity
  8
_1-5_SUNPO
  6
Continuous
 62
     7
100
AcDbLine
 10
3319.167042655039
 20
1997.49602326318
 30
0.0
 11
3319.167042655039
 21
2041.49602326318
 31
0.0
  0
TEXT
  5
11E
330
118
100
AcDbEntity
  8
_1-5_SUNPO
 62
     7
100
AcDbText
 10
3306.667042655039
 20
1998.721102145468
 30
0.0
 40
50.0
  1
20
 50
90.0
100
AcDbText
  0
LINE
  5
11F
330
118
100
AcDbEntity
  8
_1-5_SUNPO
  6
Continuous
 62
     7
100
AcDbLine
 10
3319.167042655039
 20
1933.515747133856
 30
0.0
 11
3319.167042655039
 21
1953.49602326318
 31
0.0
  0
SOLID
  5
120
330
118
100
AcDbEntity
  8
_1-5_SUNPO
  6
Continuous
 62
     7
100
AcDbTrace
 10
3311.833709321706
 20
1889.515747133856
 30
0.0
 11
3326.500375988374
 21
1889.515747133856
 31
0.0
 12
3319.167042655039
 22
1933.515747133856
 32
0.0
 13
3319.167042655039
 23
1933.515747133856
 33
0.0
  0
SOLID
  5
121
330
118
100
AcDbEntity
  8
_1-5_SUNPO
  6
Continuous
 62
     7
100
AcDbTrace
 10
3311.833709321706
 20
1997.49602326318
 30
0.0
 11
3326.500375988374
 21
1997.49602326318
 31
0.0
 12
3319.167042655039
 22
1953.49602326318
 32
0.0
 13
3319.167042655039
 23
1953.49602326318
 33
0.0
  0
POINT
  5
122
330
118
100
AcDbEntity
  8
_0-2_Defpoints
 62
     7
100
AcDbPoint
 10
3062.963001855373
 20
1933.515747133856
 30
0.0
  0
POINT
  5
123
330
118
100
AcDbEntity
  8
_0-2_Defpoints
 62
     7
100
AcDbPoint
 10
3062.963001855373
 20
1953.49602326318
 30
0.0
  0
POINT
  5
124
330
118
100
AcDbEntity
  8
_0-2_Defpoints
 62
     7
100
AcDbPoint
 10
3319.167042655039
 20
1953.49602326318
 30
0.0
  0
ENDBLK
  5
125
330
118
100
AcDbEntity
  8
0
100
AcDbBlockEnd
  0
BLOCK
  5
127
330
126
100
AcDbEntity
  8
0
100
AcDbBlockBegin
  2
-016-_D21
 70
     0
 10
0.0
 20
0.0
 30
0.0
  3
-016-_D21
  1

  0
LINE
  5
128
330
126
100
AcDbEntity
  8
_1-5_SUNPO
  6
Continuous
 62
     7
100
AcDbLine
 10
2913.851014127788
 20
1763.515747133855
 30
0.0
 11
2913.851014127788
 21
1481.145068589895
 31
0.0
  0
LINE
  5
129
330
126
100
AcDbEntity
  8
_1-5_SUNPO
  6
Continuous
 62
     7
100
AcDbLine
 10
3063.851014127788
 20
1763.515747133855
 30
0.0
 11
3063.851014127788
 21
1481.145068589895
 31
0.0
  0
LINE
  5
12A
330
126
100
AcDbEntity
  8
_1-5_SUNPO
  6
Continuous
 62
     7
100
AcDbLine
 10
2957.851014127788
 20
1491.145068589895
 30
0.0
 11
3019.851014127789
 21
1491.145068589895
 31
0.0
  0
SOLID
  5
12B
330
126
100
AcDbEntity
  8
_1-5_SUNPO
  6
Continuous
 62
     7
100
AcDbTrace
 10
2957.851014127788
 20
1498.478401923228
 30
0.0
 11
2957.851014127788
 21
1483.811735256562
 31
0.0
 12
2913.851014127788
 22
1491.145068589895
 32
0.0
 13
2913.851014127788
 23
1491.145068589895
 33
0.0
  0
SOLID
  5
12C
330
126
100
AcDbEntity
  8
_1-5_SUNPO
  6
Continuous
 62
     7
100
AcDbTrace
 10
3019.851014127789
 20
1498.478401923228
 30
0.0
 11
3019.851014127789
 21
1483.811735256562
 31
0.0
 12
3063.851014127788
 22
1491.145068589895
 32
0.0
 13
3063.851014127788
 23
1491.145068589895
 33
0.0
  0
TEXT
  5
12D
330
126
100
AcDbEntity
  8
_1-5_SUNPO
 62
     7
100
AcDbText
 10
2951.351014127788
 20
1503.645068589895
 30
0.0
 40
50.0
  1
150
100
AcDbText
  0
POINT
  5
12E
330
126
100
AcDbEntity
  8
_0-2_Defpoints
 62
     7
100
AcDbPoint
 10
2913.851014127788
 20
1783.515747133855
 30
0.0
  0
POINT
  5
12F
330
126
100
AcDbEntity
  8
_0-2_Defpoints
 62
     7
100
AcDbPoint
 10
3063.851014127788
 20
1783.515747133855
 30
0.0
  0
POINT
  5
130
330
126
100
AcDbEntity
  8
_0-2_Defpoints
 62
     7
100
AcDbPoint
 10
3063.851014127788
 20
1491.145068589895
 30
0.0
  0
ENDBLK
  5
131
330
126
100
AcDbEntity
  8
0
100
AcDbBlockEnd
  0
BLOCK
  5
133
330
132
100
AcDbEntity
  8
0
100
AcDbBlockBegin
  2
-017-_D23
 70
     0
 10
0.0
 20
0.0
 30
0.0
  3
-017-_D23
  1

  0
LINE
  5
134
330
132
100
AcDbEntity
  8
_1-5_SUNPO
  6
Continuous
 62
     7
100
AcDbLine
 10
3583.851014127787
 20
1763.515747133855
 30
0.0
 11
3583.851014127787
 21
1481.145068589895
 31
0.0
  0
LINE
  5
135
330
132
100
AcDbEntity
  8
_1-5_SUNPO
  6
Continuous
 62
     7
100
AcDbLine
 10
3733.851014127786
 20
1763.515747133855
 30
0.0
 11
3733.851014127786
 21
1481.145068589895
 31
0.0
  0
LINE
  5
136
330
132
100
AcDbEntity
  8
_1-5_SUNPO
  6
Continuous
 62
     7
100
AcDbLine
 10
3627.851014127788
 20
1491.145068589895
 30
0.0
 11
3689.851014127789
 21
1491.145068589895
 31
0.0
  0
SOLID
  5
137
330
132
100
AcDbEntity
  8
_1-5_SUNPO
  6
Continuous
 62
     7
100
AcDbTrace
 10
3627.851014127788
 20
1498.478401923228
 30
0.0
 11
3627.851014127788
 21
1483.811735256562
 31
0.0
 12
3583.851014127787
 22
1491.145068589895
 32
0.0
 13
3583.851014127787
 23
1491.145068589895
 33
0.0
  0
SOLID
  5
138
330
132
100
AcDbEntity
  8
_1-5_SUNPO
  6
Continuous
 62
     7
100
AcDbTrace
 10
3689.851014127789
 20
1498.478401923228
 30
0.0
 11
3689.851014127789
 21
1483.811735256562
 31
0.0
 12
3733.851014127786
 22
1491.145068589895
 32
0.0
 13
3733.851014127786
 23
1491.145068589895
 33
0.0
  0
TEXT
  5
139
330
132
100
AcDbEntity
  8
_1-5_SUNPO
 62
     7
100
AcDbText
 10
3621.351014127787
 20
1503.645068589895
 30
0.0
 40
50.0
  1
150
100
AcDbText
  0
POINT
  5
13A
330
132
100
AcDbEntity
  8
_0-2_Defpoints
 62
     7
100
AcDbPoint
 10
3583.851014127787
 20
1783.515747133855
 30
0.0
  0
POINT
  5
13B
330
132
100
AcDbEntity
  8
_0-2_Defpoints
 62
     7
100
AcDbPoint
 10
3733.851014127786
 20
1783.515747133855
 30
0.0
  0
POINT
  5
13C
330
132
100
AcDbEntity
  8
_0-2_Defpoints
 62
     7
100
AcDbPoint
 10
3733.851014127786
 20
1491.145068589895
 30
0.0
  0
ENDBLK
  5
13D
330
132
100
AcDbEntity
  8
0
100
AcDbBlockEnd
  0
BLOCK
  5
13F
330
13E
100
AcDbEntity
  8
0
100
AcDbBlockBegin
  2
-018-_D24
 70
     0
 10
0.0
 20
0.0
 30
0.0
  3
-018-_D24
  1

  0
LINE
  5
140
330
13E
100
AcDbEntity
  8
_1-5_SUNPO
  6
Continuous
 62
     7
100
AcDbLine
 10
3023.851014127786
 20
2853.515747133856
 30
0.0
 11
3023.851014127786
 21
3139.652534205697
 31
0.0
  0
LINE
  5
141
330
13E
100
AcDbEntity
  8
_1-5_SUNPO
  6
Continuous
 62
     7
100
AcDbLine
 10
3623.851014127788
 20
2853.515747133856
 30
0.0
 11
3623.851014127788
 21
3139.652534205697
 31
0.0
  0
LINE
  5
142
330
13E
100
AcDbEntity
  8
_1-5_SUNPO
  6
Continuous
 62
     7
100
AcDbLine
 10
3067.851014127788
 20
3129.652534205697
 30
0.0
 11
3579.851014127787
 21
3129.652534205697
 31
0.0
  0
SOLID
  5
143
330
13E
100
AcDbEntity
  8
_1-5_SUNPO
  6
Continuous
 62
     7
100
AcDbTrace
 10
3067.851014127788
 20
3136.98586753903
 30
0.0
 11
3067.851014127788
 21
3122.319200872363
 31
0.0
 12
3023.851014127786
 22
3129.652534205697
 32
0.0
 13
3023.851014127786
 23
3129.652534205697
 33
0.0
  0
SOLID
  5
144
330
13E
100
AcDbEntity
  8
_1-5_SUNPO
  6
Continuous
 62
     7
100
AcDbTrace
 10
3579.851014127787
 20
3136.98586753903
 30
0.0
 11
3579.851014127787
 21
3122.319200872363
 31
0.0
 12
3623.851014127788
 22
3129.652534205697
 32
0.0
 13
3623.851014127788
 23
3129.652534205697
 33
0.0
  0
TEXT
  5
145
330
13E
100
AcDbEntity
  8
_1-5_SUNPO
 62
     7
100
AcDbText
 10
3286.351014127788
 20
3142.152534205697
 30
0.0
 40
50.0
  1
600
100
AcDbText
  0
POINT
  5
146
330
13E
100
AcDbEntity
  8
_0-2_Defpoints
 62
     7
100
AcDbPoint
 10
3023.851014127786
 20
2833.515747133856
 30
0.0
  0
POINT
  5
147
330
13E
100
AcDbEntity
  8
_0-2_Defpoints
 62
     7
100
AcDbPoint
 10
3623.851014127788
 20
2833.515747133856
 30
0.0
  0
POINT
  5
148
330
13E
100
AcDbEntity
  8
_0-2_Defpoints
 62
     7
100
AcDbPoint
 10
3623.851014127788
 20
3129.652534205697
 30
0.0
  0
ENDBLK
  5
149
330
13E
100
AcDbEntity
  8
0
100
AcDbBlockEnd
  0
BLOCK
  5
14B
330
14A
100
AcDbEntity
  8
0
100
AcDbBlockBegin
  2
-019-_D27
 70
     0
 10
0.0
 20
0.0
 30
0.0
  3
-019-_D27
  1

  0
LINE
  5
14C
330
14A
100
AcDbEntity
  8
_1-5_SUNPO
  6
Continuous
 62
     7
100
AcDbLine
 10
3063.851014127788
 20
1743.515747133855
 30
0.0
 11
3063.851014127788
 21
1481.145068589895
 31
0.0
  0
LINE
  5
14D
330
14A
100
AcDbEntity
  8
_1-5_SUNPO
  6
Continuous
 62
     7
100
AcDbLine
 10
3583.851014127787
 20
1743.515747133855
 30
0.0
 11
3583.851014127787
 21
1481.145068589895
 31
0.0
  0
LINE
  5
14E
330
14A
100
AcDbEntity
  8
_1-5_SUNPO
  6
Continuous
 62
     7
100
AcDbLine
 10
3107.851014127787
 20
1491.145068589895
 30
0.0
 11
3539.851014127787
 21
1491.145068589895
 31
0.0
  0
SOLID
  5
14F
330
14A
100
AcDbEntity
  8
_1-5_SUNPO
  6
Continuous
 62
     7
100
AcDbTrace
 10
3107.851014127787
 20
1498.478401923228
 30
0.0
 11
3107.851014127787
 21
1483.811735256562
 31
0.0
 12
3063.851014127788
 22
1491.145068589895
 32
0.0
 13
3063.851014127788
 23
1491.145068589895
 33
0.0
  0
SOLID
  5
150
330
14A
100
AcDbEntity
  8
_1-5_SUNPO
  6
Continuous
 62
     7
100
AcDbTrace
 10
3539.851014127787
 20
1498.478401923228
 30
0.0
 11
3539.851014127787
 21
1483.811735256562
 31
0.0
 12
3583.851014127787
 22
1491.145068589895
 32
0.0
 13
3583.851014127787
 23
1491.145068589895
 33
0.0
  0
TEXT
  5
151
330
14A
100
AcDbEntity
  8
_1-5_SUNPO
 62
     7
100
AcDbText
 10
3286.351014127788
 20
1503.645068589895
 30
0.0
 40
50.0
  1
520
100
AcDbText
  0
POINT
  5
152
330
14A
100
AcDbEntity
  8
_0-2_Defpoints
 62
     7
100
AcDbPoint
 10
3063.851014127788
 20
1763.515747133855
 30
0.0
  0
POINT
  5
153
330
14A
100
AcDbEntity
  8
_0-2_Defpoints
 62
     7
100
AcDbPoint
 10
3583.851014127787
 20
1763.515747133855
 30
0.0
  0
POINT
  5
154
330
14A
100
AcDbEntity
  8
_0-2_Defpoints
 62
     7
100
AcDbPoint
 10
3583.851014127787
 20
1491.145068589895
 30
0.0
  0
ENDBLK
  5
155
330
14A
100
AcDbEntity
  8
0
100
AcDbBlockEnd
  0
BLOCK
  5
157
330
156
100
AcDbEntity
  8
0
100
AcDbBlockBegin
  2
-020-_D28
 70
     0
 10
0.0
 20
0.0
 30
0.0
  3
-020-_D28
  1

  0
LINE
  5
158
330
156
100
AcDbEntity
  8
_1-5_SUNPO
  6
Continuous
 62
     7
100
AcDbLine
 10
2913.851014127788
 20
1763.515747133855
 30
0.0
 11
2913.851014127788
 21
1218.774390045935
 31
0.0
  0
LINE
  5
159
330
156
100
AcDbEntity
  8
_1-5_SUNPO
  6
Continuous
 62
     7
100
AcDbLine
 10
3733.851014127786
 20
1763.515747133855
 30
0.0
 11
3733.851014127786
 21
1218.774390045935
 31
0.0
  0
LINE
  5
15A
330
156
100
AcDbEntity
  8
_1-5_SUNPO
  6
Continuous
 62
     7
100
AcDbLine
 10
2957.851014127788
 20
1228.774390045935
 30
0.0
 11
3689.851014127789
 21
1228.774390045935
 31
0.0
  0
SOLID
  5
15B
330
156
100
AcDbEntity
  8
_1-5_SUNPO
  6
Continuous
 62
     7
100
AcDbTrace
 10
2957.851014127788
 20
1236.107723379268
 30
0.0
 11
2957.851014127788
 21
1221.441056712602
 31
0.0
 12
2913.851014127788
 22
1228.774390045935
 32
0.0
 13
2913.851014127788
 23
1228.774390045935
 33
0.0
  0
SOLID
  5
15C
330
156
100
AcDbEntity
  8
_1-5_SUNPO
  6
Continuous
 62
     7
100
AcDbTrace
 10
3689.851014127789
 20
1236.107723379268
 30
0.0
 11
3689.851014127789
 21
1221.441056712602
 31
0.0
 12
3733.851014127786
 22
1228.774390045935
 32
0.0
 13
3733.851014127786
 23
1228.774390045935
 33
0.0
  0
TEXT
  5
15D
330
156
100
AcDbEntity
  8
_1-5_SUNPO
 62
     7
100
AcDbText
 10
3286.351014127788
 20
1241.274390045935
 30
0.0
 40
50.0
  1
820
100
AcDbText
  0
POINT
  5
15E
330
156
100
AcDbEntity
  8
_0-2_Defpoints
 62
     7
100
AcDbPoint
 10
2913.851014127788
 20
1783.515747133855
 30
0.0
  0
POINT
  5
15F
330
156
100
AcDbEntity
  8
_0-2_Defpoints
 62
     7
100
AcDbPoint
 10
3733.851014127786
 20
1783.515747133855
 30
0.0
  0
POINT
  5
160
330
156
100
AcDbEntity
  8
_0-2_Defpoints
 62
     7
100
AcDbPoint
 10
3733.851014127786
 20
1228.774390045935
 30
0.0
  0
ENDBLK
  5
161
330
156
100
AcDbEntity
  8
0
100
AcDbBlockEnd
  0
ENDSEC
  0
SECTION
  2
ENTITIES
  0
LINE
  5
162
330
20
100
AcDbEntity
  8
_1-2_HOJO
  6
Continuous
 62
     5
100
AcDbLine
 10
-870.0
 20
-615.0
 30
0.0
 11
5070.0
 21
-615.0
 31
0.0
  0
LINE
  5
163
330
20
100
AcDbEntity
  8
_1-2_HOJO
  6
Continuous
 62
     5
100
AcDbLine
 10
5070.0
 20
-615.0
 30
0.0
 11
5070.0
 21
3585.0
 31
0.0
  0
LINE
  5
164
330
20
100
AcDbEntity
  8
_1-2_HOJO
  6
Continuous
 62
     5
100
AcDbLine
 10
5070.0
 20
3585.0
 30
0.0
 11
-870.0
 21
3585.0
 31
0.0
  0
LINE
  5
165
330
20
100
AcDbEntity
  8
_1-2_HOJO
  6
Continuous
 62
     5
100
AcDbLine
 10
-870.0
 20
3585.0
 30
0.0
 11
-870.0
 21
-615.0
 31
0.0
  0
LINE
  5
166
330
20
100
AcDbEntity
  8
_1-2_HOJO
  6
Continuous
 62
     5
100
AcDbLine
 10
-510.0
 20
-355.0
 30
0.0
 11
4710.0
 21
-355.0
 31
0.0
  0
LINE
  5
167
330
20
100
AcDbEntity
  8
_1-2_HOJO
  6
Continuous
 62
     5
100
AcDbLine
 10
4710.0
 20
-355.0
 30
0.0
 11
4710.0
 21
3325.0
 31
0.0
  0
LINE
  5
168
330
20
100
AcDbEntity
  8
_1-2_HOJO
  6
Continuous
 62
     5
100
AcDbLine
 10
4710.0
 20
3325.0
 30
0.0
 11
-510.0
 21
3325.0
 31
0.0
  0
LINE
  5
169
330
20
100
AcDbEntity
  8
_1-2_HOJO
  6
Continuous
 62
     5
100
AcDbLine
 10
-510.0
 20
3325.0
 30
0.0
 11
-510.0
 21
-355.0
 31
0.0
  0
LINE
  5
16A
330
20
100
AcDbEntity
  8
_1-2_HOJO
  6
Continuous
 62
     5
100
AcDbLine
 10
-510.0
 20
-355.0
 30
0.0
 11
4710.0
 21
-355.0
 31
0.0
  0
LINE
  5
16B
330
20
100
AcDbEntity
  8
_1-2_HOJO
  6
Continuous
 62
     5
100
AcDbLine
 10
-510.0
 20
-55.0
 30
0.0
 11
4710.0
 21
-55.0
 31
0.0
  0
LINE
  5
16C
330
20
100
AcDbEntity
  8
_1-2_HOJO
  6
Continuous
 62
     5
100
AcDbLine
 10
-510.0
 20
-355.0
 30
0.0
 11
-510.0
 21
-55.0
 31
0.0
  0
LINE
  5
16D
330
20
100
AcDbEntity
  8
_1-2_HOJO
  6
Continuous
 62
     5
100
AcDbLine
 10
1490.0
 20
-355.0
 30
0.0
 11
1490.0
 21
-55.0
 31
0.0
  0
LINE
  5
16E
330
20
100
AcDbEntity
  8
_1-2_HOJO
  6
Continuous
 62
     5
100
AcDbLine
 10
2290.0
 20
-355.0
 30
0.0
 11
2290.0
 21
-55.0
 31
0.0
  0
LINE
  5
16F
330
20
100
AcDbEntity
  8
_1-2_HOJO
  6
Continuous
 62
     5
100
AcDbLine
 10
2790.0
 20
-355.0
 30
0.0
 11
2790.0
 21
-55.0
 31
0.0
  0
LINE
  5
170
330
20
100
AcDbEntity
  8
_0-A_3C1
  6
Continuous
 62
     7
100
AcDbLine
 10
2043.851014127788
 20
1168.515747133855
 30
0.0
 11
2043.851014127788
 21
2218.515747133855
 31
0.0
  0
LINE
  5
171
330
20
100
AcDbEntity
  8
_0-A_3C1
  6
Continuous
 62
     7
100
AcDbLine
 10
2863.851014127786
 20
1168.515747133855
 30
0.0
 11
2863.851014127786
 21
2218.515747133855
 31
0.0
  0
LINE
  5
172
330
20
100
AcDbEntity
  8
_0-A_3C1
  6
Continuous
 62
     7
100
AcDbLine
 10
2043.851014127788
 20
2218.515747133855
 30
0.0
 11
2153.851014127787
 21
2218.515747133855
 31
0.0
  0
LINE
  5
173
330
20
100
AcDbEntity
  8
_0-A_3C1
  6
Continuous
 62
     7
100
AcDbLine
 10
2863.851014127786
 20
2218.515747133855
 30
0.0
 11
2753.851014127788
 21
2218.515747133855
 31
0.0
  0
LINE
  5
174
330
20
100
AcDbEntity
  8
_0-A_3C1
  6
Continuous
 62
     7
100
AcDbLine
 10
2043.851014127788
 20
1318.515747133855
 30
0.0
 11
2133.791784103493
 21
1318.515747133855
 31
0.0
  0
LINE
  5
175
330
20
100
AcDbEntity
  8
_0-A_3C1
  6
Continuous
 62
     7
100
AcDbLine
 10
2093.910185739815
 20
2215.851710316612
 30
0.0
 11
2133.791784103493
 21
1318.515747133855
 31
0.0
  0
LINE
  5
176
330
20
100
AcDbEntity
  8
_0-A_3C1
  6
Continuous
 62
     7
100
AcDbLine
 10
2813.79184251576
 20
2215.851710316612
 30
0.0
 11
2773.910244152083
 21
1318.515747133855
 31
0.0
  0
LINE
  5
177
330
20
100
AcDbEntity
  8
_0-A_3C1
  6
Continuous
 62
     7
100
AcDbLine
 10
1543.851014127788
 20
1168.515747133855
 30
0.0
 11
1543.851014127788
 21
2218.515747133855
 31
0.0
  0
LINE
  5
178
330
20
100
AcDbEntity
  8
_0-A_3C1
  6
Continuous
 62
     7
100
AcDbLine
 10
1543.851014127788
 20
1168.515747133855
 30
0.0
 11
1363.851014127788
 21
1168.515747133855
 31
0.0
  0
LINE
  5
179
330
20
100
AcDbEntity
  8
_0-A_3C1
  6
Continuous
 62
     7
100
AcDbLine
 10
1363.851014127788
 20
1168.515747133855
 30
0.0
 11
1363.851014127788
 21
2218.515747133855
 31
0.0
  0
LINE
  5
17A
330
20
100
AcDbEntity
  8
_0-A_3C1
  6
Continuous
 62
     7
100
AcDbLine
 10
1363.851014127788
 20
2218.515747133855
 30
0.0
 11
1543.851014127788
 21
2218.515747133855
 31
0.0
  0
LINE
  5
17B
330
20
100
AcDbEntity
  8
_0-A_3C1
  6
Continuous
 62
     7
100
AcDbLine
 10
1543.851014127788
 20
1318.515747133855
 30
0.0
 11
1493.851014127788
 21
1318.515747133855
 31
0.0
  0
LINE
  5
17C
330
20
100
AcDbEntity
  8
_0-A_3C1
  6
Continuous
 62
     7
100
AcDbLine
 10
1413.851014127788
 20
1318.515747133855
 30
0.0
 11
1413.851014127788
 21
2218.515747133855
 31
0.0
  0
LINE
  5
17D
330
20
100
AcDbEntity
  8
_0-A_3C1
  6
Continuous
 62
     7
100
AcDbLine
 10
1493.851014127788
 20
1318.515747133855
 30
0.0
 11
1493.851014127788
 21
2218.515747133855
 31
0.0
  0
LINE
  5
17E
330
20
100
AcDbEntity
  8
_0-A_3C1
  6
Continuous
 62
     7
100
AcDbLine
 10
1418.851014127788
 20
1318.515747133855
 30
0.0
 11
1418.851014127788
 21
2218.515747133855
 31
0.0
  0
LINE
  5
17F
330
20
100
AcDbEntity
  8
_0-A_3C1
  6
Continuous
 62
     7
100
AcDbLine
 10
1488.851014127788
 20
1318.515747133855
 30
0.0
 11
1488.851014127788
 21
2218.515747133855
 31
0.0
  0
LINE
  5
180
330
20
100
AcDbEntity
  8
_0-A_3C1
  6
Continuous
 62
     7
100
AcDbLine
 10
1413.851014127788
 20
1318.515747133855
 30
0.0
 11
1363.851014127788
 21
1318.515747133855
 31
0.0
  0
INSERT
  5
181
330
20
100
AcDbEntity
  8
_1-5_SUNPO
100
AcDbBlockReference
  2
-000-_D4
 10
-870.0
 20
-615.0
 30
0.0
  0
INSERT
  5
182
330
20
100
AcDbEntity
  8
_1-5_SUNPO
100
AcDbBlockReference
  2
-001-_D5
 10
-870.0
 20
-615.0
 30
0.0
  0
INSERT
  5
183
330
20
100
AcDbEntity
  8
_1-5_SUNPO
100
AcDbBlockReference
  2
-002-_D6
 10
-870.0
 20
-615.0
 30
0.0
  0
INSERT
  5
184
330
20
100
AcDbEntity
  8
_1-5_SUNPO
100
AcDbBlockReference
  2
-003-_D7
 10
-870.0
 20
-615.0
 30
0.0
  0
INSERT
  5
185
330
20
100
AcDbEntity
  8
_1-5_SUNPO
100
AcDbBlockReference
  2
-004-_D8
 10
-870.0
 20
-615.0
 30
0.0
  0
INSERT
  5
186
330
20
100
AcDbEntity
  8
_1-5_SUNPO
100
AcDbBlockReference
  2
-005-_D9
 10
-870.0
 20
-615.0
 30
0.0
  0
INSERT
  5
187
330
20
100
AcDbEntity
  8
_1-5_SUNPO
100
AcDbBlockReference
  2
-006-_D10
 10
-870.0
 20
-615.0
 30
0.0
  0
INSERT
  5
188
330
20
100
AcDbEntity
  8
_1-5_SUNPO
100
AcDbBlockReference
  2
-007-_D11
 10
-870.0
 20
-615.0
 30
0.0
  0
INSERT
  5
189
330
20
100
AcDbEntity
  8
_1-5_SUNPO
100
AcDbBlockReference
  2
-008-_D12
 10
-870.0
 20
-615.0
 30
0.0
  0
INSERT
  5
18A
330
20
100
AcDbEntity
  8
_1-5_SUNPO
100
AcDbBlockReference
  2
-009-_D13
 10
-870.0
 20
-615.0
 30
0.0
  0
INSERT
  5
18B
330
20
100
AcDbEntity
  8
_1-5_SUNPO
100
AcDbBlockReference
  2
-010-_D14
 10
-870.0
 20
-615.0
 30
0.0
  0
INSERT
  5
18C
330
20
100
AcDbEntity
  8
_1-5_SUNPO
100
AcDbBlockReference
  2
-011-_D15
 10
-870.0
 20
-615.0
 30
0.0
  0
INSERT
  5
18D
330
20
100
AcDbEntity
  8
_1-5_SUNPO
100
AcDbBlockReference
  2
-012-_D16
 10
-870.0
 20
-615.0
 30
0.0
  0
LINE
  5
18E
330
20
100
AcDbEntity
  8
_0-A_3C1
  6
Continuous
 62
     7
100
AcDbLine
 10
2773.910244152083
 20
1318.515747133855
 30
0.0
 11
2863.851014127786
 21
1318.515747133855
 31
0.0
  0
INSERT
  5
18F
330
20
100
AcDbEntity
  8
_1-5_SUNPO
100
AcDbBlockReference
  2
-013-_D17
 10
-870.0
 20
-615.0
 30
0.0
  0
INSERT
  5
190
330
20
100
AcDbEntity
  8
_1-5_SUNPO
100
AcDbBlockReference
  2
-014-_D18
 10
-870.0
 20
-615.0
 30
0.0
  0
LINE
  5
191
330
20
100
AcDbEntity
  8
_0-A_3C1
  6
Continuous
 62
     7
100
AcDbLine
 10
2153.851014127787
 20
2218.515747133855
 30
0.0
 11
2192.963001855373
 21
1338.49602326318
 31
0.0
  0
LINE
  5
192
330
20
100
AcDbEntity
  8
_0-A_3C1
  6
Continuous
 62
     7
100
AcDbLine
 10
2753.851014127788
 20
2218.515747133855
 30
0.0
 11
2714.739026400202
 21
1338.496023263179
 31
0.0
  0
LINE
  5
193
330
20
100
AcDbEntity
  8
_0-A_3C1
  6
Continuous
 62
     7
100
AcDbLine
 10
2192.963001855373
 20
1338.49602326318
 30
0.0
 11
2213.851014127787
 21
1318.515747133856
 31
0.0
  0
LINE
  5
194
330
20
100
AcDbEntity
  8
_0-A_3C1
  6
Continuous
 62
     7
100
AcDbLine
 10
2714.739026400202
 20
1338.496023263179
 30
0.0
 11
2693.851014127788
 21
1318.515747133855
 31
0.0
  0
INSERT
  5
195
330
20
100
AcDbEntity
  8
_1-5_SUNPO
100
AcDbBlockReference
  2
-015-_D19
 10
-870.0
 20
-615.0
 30
0.0
  0
INSERT
  5
196
330
20
100
AcDbEntity
  8
_1-5_SUNPO
100
AcDbBlockReference
  2
-016-_D21
 10
-870.0
 20
-615.0
 30
0.0
  0
INSERT
  5
197
330
20
100
AcDbEntity
  8
_1-5_SUNPO
100
AcDbBlockReference
  2
-017-_D23
 10
-870.0
 20
-615.0
 30
0.0
  0
LINE
  5
198
330
20
100
AcDbEntity
  8
_0-A_3C1
  6
Continuous
 62
     7
100
AcDbLine
 10
2043.851014127788
 20
1168.515747133855
 30
0.0
 11
2863.851014127786
 21
1168.515747133855
 31
0.0
  0
LINE
  5
199
330
20
100
AcDbEntity
  8
_0-A_3C1
  6
Continuous
 62
     7
100
AcDbLine
 10
2213.851014127787
 20
1318.515747133856
 30
0.0
 11
2693.851014127788
 21
1318.515747133856
 31
0.0
  0
INSERT
  5
19A
330
20
100
AcDbEntity
  8
_1-5_SUNPO
100
AcDbBlockReference
  2
-018-_D24
 10
-870.0
 20
-615.0
 30
0.0
  0
INSERT
  5
19B
330
20
100
AcDbEntity
  8
_1-5_SUNPO
100
AcDbBlockReference
  2
-019-_D27
 10
-870.0
 20
-615.0
 30
0.0
  0
INSERT
  5
19C
330
20
100
AcDbEntity
  8
_1-5_SUNPO
100
AcDbBlockReference
  2
-020-_D28
 10
-870.0
 20
-615.0
 30
0.0
  0
TEXT
  5
19D
330
20
100
AcDbEntity
  8
_1-4_MOJI
 62
     7
100
AcDbText
 10
-249.0261533819416
 20
-207.3642761718168
 30
0.0
 40
50.0
  1
B型柵渠 杭
100
AcDbText
  0
TEXT
  5
19E
330
20
100
AcDbEntity
  8
_1-4_MOJI
 62
     7
100
AcDbText
 10
2376.680311730543
 20
-255.7725267837781
 30
0.0
 40
70.0
  1
１／２０
100
AcDbText
  0
TEXT
  5
19F
330
20
100
AcDbEntity
  8
_1-4_MOJI
 62
     7
100
AcDbText
 10
-488.1137425988452
 20
-126.3081083229372
 30
0.0
 40
50.0
  1
製品名
100
AcDbText
  0
TEXT
  5
1A0
330
20
100
AcDbEntity
  8
_1-4_MOJI
 62
     7
100
AcDbText
 10
1506.290169028722
 20
-120.546826318818
 30
0.0
 40
50.0
  1
型式
100
AcDbText
  0
TEXT
  5
1A1
330
20
100
AcDbEntity
  8
_1-4_MOJI
 62
     7
100
AcDbText
 10
2307.510249231659
 20
-126.3081083229372
 30
0.0
 40
50.0
  1
縮尺
100
AcDbText
  0
TEXT
  5
1A2
330
20
100
AcDbEntity
  8
_1-4_MOJI
 62
     7
100
AcDbText
 10
2860.870883051573
 20
-262.7273866907859
 30
0.0
 40
100.0
  1
千葉県コンクリート製品協同組合
100
AcDbText
  0
TEXT
  5
1A3
330
20
100
AcDbEntity
  8
_1-4_MOJI
 62
     7
100
AcDbText
 10
1576.466767997013
 20
-197.9548305622705
 30
0.0
 40
50.0
  1
900×600
100
AcDbText
  0
VIEWPORT
  5
1AF
330
1C
100
AcDbEntity
 67
     1
  8
0
  6
Continuous
100
AcDbViewport
 10
5.613749947134904
 20
3.902083231708196
 30
0.0
 40
13.42637545523765
 41
8.746133096049151
 68
     1
 69
     1
 12
5.613749947134904
 22
3.902083231708196
 13
0.0
 23
0.0
 14
10.0
 24
10.0
 15
10.0
 25
10.0
 16
0.0
 26
0.0
 36
1.0
 17
0.0
 27
0.0
 37
0.0
 42
50.0
 43
0.0
 44
0.0
 45
8.746133096049151
 50
0.0
 51
0.0
 72
   100
 90
    32800
  1

281
     0
 71
     1
 74
     0
110
0.0
120
0.0
130
0.0
111
1.0
121
0.0
131
0.0
112
0.0
122
1.0
132
0.0
 79
     0
146
0.0
170
     0
  0
VIEWPORT
  5
1B1
330
1C
100
AcDbEntity
 67
     1
  8
0
  6
Continuous
100
AcDbViewport
 10
5.61374996590802
 20
3.902083250481312
 30
0.0
 40
8.981999945452834
 41
6.243333200770099
 68
     2
 69
     2
 12
2100.0
 22
1485.0
 13
0.0
 23
0.0
 14
1.0
 24
1.0
 15
0.0
 25
0.0
 16
0.0
 26
0.0
 36
1.0
 17
0.0
 27
0.0
 37
0.0
 42
50.0
 43
0.0
 44
0.0
 45
4245.16129032258
 50
0.0
 51
0.0
 72
   100
 90
    32800
  1

281
     0
 71
     1
 74
     0
110
0.0
120
0.0
130
0.0
111
1.0
121
0.0
131
0.0
112
0.0
122
1.0
132
0.0
 79
     0
146
0.0
170
     0
  0
ENDSEC
  0
SECTION
  2
OBJECTS
  0
DICTIONARY
  5
C
330
0
100
AcDbDictionary
281
     1
  3
ACAD_COLOR
350
1B
  3
ACAD_GROUP
350
D
  3
ACAD_LAYOUT
350
19
  3
ACAD_MATERIAL
350
1A
  3
ACAD_MLINESTYLE
350
16
  3
ACAD_PLOTSETTINGS
350
18
  3
ACAD_PLOTSTYLENAME
350
E
  0
DICTIONARY
  5
1B
102
{ACAD_REACTORS
330
C
102
}
330
C
100
AcDbDictionary
281
     1
  0
DICTIONARY
  5
D
102
{ACAD_REACTORS
330
C
102
}
330
C
100
AcDbDictionary
281
     1
  0
DICTIONARY
  5
19
102
{ACAD_REACTORS
330
C
102
}
330
C
100
AcDbDictionary
281
     1
  3
Model
350
23
  3
レイアウト1
350
1F
  0
DICTIONARY
  5
1A
102
{ACAD_REACTORS
330
C
102
}
330
C
100
AcDbDictionary
281
     1
  0
DICTIONARY
  5
16
102
{ACAD_REACTORS
330
C
102
}
330
C
100
AcDbDictionary
281
     1
  3
Standard
350
17
  0
DICTIONARY
  5
18
102
{ACAD_REACTORS
330
C
102
}
330
C
100
AcDbDictionary
281
     1
  0
ACDBDICTIONARYWDFLT
  5
E
102
{ACAD_REACTORS
330
C
102
}
330
C
100
AcDbDictionary
281
     1
  3
Normal
350
F
100
AcDbDictionaryWithDefault
340
F
  0
LAYOUT
  5
23
102
{ACAD_REACTORS
330
19
102
}
330
19
100
AcDbPlotSettings
  1

  2
RICOH IPSiO SP 4000 RPCS
  4

  6

 40
0.0
 41
0.0
 42
0.0
 43
0.0
 44
0.0
 45
0.0
 46
0.0
 47
0.0
 48
0.0
 49
0.0
140
0.0
141
0.0
142
1.0
143
1.0
 70
  1712
 72
     0
 73
     0
 74
     0
  7

 75
     0
147
1.0
 76
     0
 77
     2
 78
   300
148
0.0
149
0.0
100
AcDbLayout
  1
Model
 70
     1
 71
     0
 10
0.0
 20
0.0
 11
12.0
 21
9.0
 12
0.0
 22
0.0
 32
0.0
 14
0.0
 24
0.0
 34
0.0
 15
0.0
 25
0.0
 35
0.0
146
0.0
 13
0.0
 23
0.0
 33
0.0
 16
1.0
 26
0.0
 36
0.0
 17
0.0
 27
1.0
 37
0.0
 76
     0
330
20
  0
LAYOUT
  5
1F
102
{ACAD_REACTORS
330
19
102
}
330
19
100
AcDbPlotSettings
  1

  2
RICOH IPSiO SP 4000 RPCS
  4
A4
  6

 40
5.873749732971191
 41
5.873747825622558
 42
5.873748779296875
 43
5.873748779296875
 44
209.9733276367187
 45
296.9259948730469
 46
0.0
 47
0.0
 48
0.0
 49
0.0
140
0.0
141
0.0
142
1.0
143
1.0
 70
   688
 72
     0
 73
     1
 74
     5
  7

 75
    16
147
1.0
 76
     0
 77
     2
 78
   300
148
0.0
149
0.0
100
AcDbLayout
  1
レイアウト1
 70
     1
 71
     1
 10
-0.2312499519408218
 20
-0.2312499894870548
 11
11.45874984621063
 21
8.035416452903447
 12
0.0
 22
0.0
 32
0.0
 14
1.122749993181603
 24
0.7804166500962629
 34
0.0
 15
10.10474993863444
 25
7.023749850866362
 35
0.0
146
0.0
 13
0.0
 23
0.0
 33
0.0
 16
1.0
 26
0.0
 36
0.0
 17
0.0
 27
1.0
 37
0.0
 76
     0
330
1C
331
1AF
  0
MLINESTYLE
  5
17
102
{ACAD_REACTORS
330
16
102
}
330
16
100
AcDbMlineStyle
  2
STANDARD
 70
     0
  3

 62
   256
 51
90.0
 52
90.0
 71
     2
 49
0.5
 62
   256
  6
BYLAYER
 49
-0.5
 62
   256
  6
BYLAYER
  0
ACDBPLACEHOLDER
  5
F
102
{ACAD_REACTORS
330
E
102
}
330
E
  0
ENDSEC
  0
EOF
