  0
SECTION
  2
HEADER
  9
$ACADVER
  1
AC1012
  9
$DWGCODEPAGE
  3
dos932
  9
$INSBASE
 10
0.0
 20
0.0
 30
0.0
  9
$EXTMIN
 10
0.0
 20
0.0
 30
0.0
  9
$EXTMAX
 10
5940.0
 20
4200.0
 30
0.0
  9
$LIMMIN
 10
0.0
 20
0.0
  9
$LIMMAX
 10
5940.0
 20
4200.0
  9
$ORTHOMODE
 70
     0
  9
$REGENMODE
 70
     1
  9
$FILLMODE
 70
     1
  9
$QTEXTMODE
 70
     0
  9
$MIRRTEXT
 70
     0
  9
$DRAGMODE
 70
     2
  9
$LTSCALE
 40
10.0
  9
$OSMODE
 70
    55
  9
$ATTMODE
 70
     1
  9
$TEXTSIZE
 40
50.0
  9
$TRACEWID
 40
1.0
  9
$TEXTSTYLE
  7
ADD
  9
$CLAYER
  8
SUNPO
  9
$CELTYPE
  6
BYLAYER
  9
$CECOLOR
 62
   256
  9
$CELTSCALE
 40
1.0
  9
$DELOBJ
 70
     1
  9
$DISPSILH
 70
     0
  9
$DIMSCALE
 40
20.0
  9
$DIMASZ
 40
2.5
  9
$DIMEXO
 40
1.0
  9
$DIMDLI
 40
7.0
  9
$DIMRND
 40
0.0
  9
$DIMDLE
 40
0.0
  9
$DIMEXE
 40
0.5
  9
$DIMTP
 40
0.0
  9
$DIMTM
 40
0.0
  9
$DIMTXT
 40
2.5
  9
$DIMCEN
 40
2.5
  9
$DIMTSZ
 40
0.0
  9
$DIMTOL
 70
     0
  9
$DIMLIM
 70
     0
  9
$DIMTIH
 70
     0
  9
$DIMTOH
 70
     0
  9
$DIMSE1
 70
     0
  9
$DIMSE2
 70
     0
  9
$DIMTAD
 70
     1
  9
$DIMZIN
 70
     8
  9
$DIMBLK
  1

  9
$DIMASO
 70
     1
  9
$DIMSHO
 70
     1
  9
$DIMPOST
  1

  9
$DIMAPOST
  1

  9
$DIMALT
 70
     0
  9
$DIMALTD
 70
     3
  9
$DIMALTF
 40
0.03937007874016
  9
$DIMLFAC
 40
1.0
  9
$DIMTOFL
 70
     1
  9
$DIMTVP
 40
0.7
  9
$DIMTIX
 70
     1
  9
$DIMSOXD
 70
     0
  9
$DIMSAH
 70
     0
  9
$DIMBLK1
  1

  9
$DIMBLK2
  1

  9
$DIMSTYLE
  2
ADD
  9
$DIMCLRD
 70
   144
  9
$DIMCLRE
 70
   144
  9
$DIMCLRT
 70
     7
  9
$DIMTFAC
 40
1.0
  9
$DIMGAP
 40
0.625
  9
$DIMJUST
 70
     0
  9
$DIMSD1
 70
     0
  9
$DIMSD2
 70
     0
  9
$DIMTOLJ
 70
     2
  9
$DIMTZIN
 70
     8
  9
$DIMALTZ
 70
     0
  9
$DIMALTTZ
 70
     0
  9
$DIMFIT
 70
     5
  9
$DIMUPT
 70
     0
  9
$DIMUNIT
 70
     2
  9
$DIMDEC
 70
     1
  9
$DIMTDEC
 70
     1
  9
$DIMALTU
 70
     2
  9
$DIMALTTD
 70
     3
  9
$DIMTXSTY
  7
ADD
  9
$DIMAUNIT
 70
     0
  9
$LUNITS
 70
     2
  9
$LUPREC
 70
     4
  9
$SKETCHINC
 40
1.0
  9
$FILLETRAD
 40
0.0
  9
$AUNITS
 70
     0
  9
$AUPREC
 70
     1
  9
$MENU
  1
.
  9
$ELEVATION
 40
0.0
  9
$PELEVATION
 40
0.0
  9
$THICKNESS
 40
0.0
  9
$LIMCHECK
 70
     0
  9
$BLIPMODE
 70
     0
  9
$CHAMFERA
 40
10.0
  9
$CHAMFERB
 40
10.0
  9
$CHAMFERC
 40
20.0
  9
$CHAMFERD
 40
0.0
  9
$SKPOLY
 70
     0
  9
$TDCREATE
 40
2451801.142532870
  9
$TDUPDATE
 40
2451865.639100312
  9
$TDINDWG
 40
0.1963618056
  9
$TDUSRTIMER
 40
0.1963618056
  9
$USRTIMER
 70
     1
  9
$ANGBASE
 50
0.0
  9
$ANGDIR
 70
     0
  9
$PDMODE
 70
     0
  9
$PDSIZE
 40
0.0
  9
$PLINEWID
 40
0.0
  9
$COORDS
 70
     1
  9
$SPLFRAME
 70
     0
  9
$SPLINETYPE
 70
     6
  9
$SPLINESEGS
 70
     8
  9
$ATTDIA
 70
     0
  9
$ATTREQ
 70
     1
  9
$HANDLING
 70
 10241
  9
$HANDSEED
  5
15E1
  9
$SURFTAB1
 70
     6
  9
$SURFTAB2
 70
     6
  9
$SURFTYPE
 70
     6
  9
$SURFU
 70
     6
  9
$SURFV
 70
     6
  9
$UCSNAME
  2

  9
$UCSORG
 10
0.0
 20
0.0
 30
0.0
  9
$UCSXDIR
 10
1.0
 20
0.0
 30
0.0
  9
$UCSYDIR
 10
0.0
 20
1.0
 30
0.0
  9
$PUCSNAME
  2

  9
$PUCSORG
 10
0.0
 20
0.0
 30
0.0
  9
$PUCSXDIR
 10
1.0
 20
0.0
 30
0.0
  9
$PUCSYDIR
 10
0.0
 20
1.0
 30
0.0
  9
$USERI1
 70
     0
  9
$USERI2
 70
     0
  9
$USERI3
 70
     0
  9
$USERI4
 70
     0
  9
$USERI5
 70
     0
  9
$USERR1
 40
841.0
  9
$USERR2
 40
594.0
  9
$USERR3
 40
1.0
  9
$USERR4
 40
0.0
  9
$USERR5
 40
0.0
  9
$WORLDVIEW
 70
     1
  9
$SHADEDGE
 70
     3
  9
$SHADEDIF
 70
    70
  9
$TILEMODE
 70
     1
  9
$MAXACTVP
 70
    48
  9
$PINSBASE
 10
0.0
 20
0.0
 30
0.0
  9
$PLIMCHECK
 70
     0
  9
$PEXTMIN
 10
-5.662975978526674
 20
-6.331907780761866
 30
-0.0015258207003583
  9
$PEXTMAX
 10
834.4213426047982
 20
560.9663709967471
 30
0.0000000349246037
  9
$PLIMMIN
 10
-7.500000000000001
 20
-20.0
  9
$PLIMMAX
 10
833.5000000000002
 20
574.0000000000001
  9
$UNITMODE
 70
     0
  9
$VISRETAIN
 70
     1
  9
$PLINEGEN
 70
     0
  9
$PSLTSCALE
 70
     1
  9
$TREEDEPTH
 70
  3020
  9
$PICKSTYLE
 70
     1
  9
$CMLSTYLE
  2
STANDARD
  9
$CMLJUST
 70
     0
  9
$CMLSCALE
 40
20.0
  9
$SAVEIMAGES
 70
     1
  0
ENDSEC
  0
SECTION
  2
CLASSES
  0
CLASS
  1
ACDBDICTIONARYWDFLT
  2
AcDbDictionaryWithDefault
  3
AutoCAD 2000
 90
    32768
280
     0
281
     0
  0
CLASS
  1
ACDBPLACEHOLDER
  2
AcDbPlaceHolder
  3
AutoCAD 2000
 90
    32768
280
     0
281
     0
  0
CLASS
  1
LAYOUT
  2
AcDbLayout
  3
AutoCAD 2000
 90
    32768
280
     0
281
     0
  0
CLASS
  1
RTEXT
  2
RText
  3
RText|AutoCAD Express Tool|expresstools@autodesk.com
 90
    32768
280
     0
281
     1
  0
CLASS
  1
DICTIONARYVAR
  2
AcDbDictionaryVar
  3
AutoCAD 2000
 90
    32768
280
     0
281
     0
  0
CLASS
  1
LONG_TRANSACTION
  2
AcDbLongTransaction
  3
AutoCAD 2000
 90
    32768
280
     0
281
     0
  0
CLASS
  1
LWPOLYLINE
  2
AcDbPolyline
  3
AutoCAD 2000
 90
    32768
280
     0
281
     1
  0
CLASS
  1
HATCH
  2
AcDbHatch
  3
AutoCAD 2000
 90
    32768
280
     0
281
     1
  0
CLASS
  1
XRECORD
  2
AcDbXrecord
  3
AutoCAD 2000
 90
    32768
280
     0
281
     0
  0
CLASS
  1
LONG_TRANSACTION
  2
AcDbLongTransaction
  3
AutoCAD 2000
 90
    32768
280
     0
281
     0
  0
CLASS
  1
LWPOLYLINE
  2
AcDbPolyline
  3
AutoCAD 2000
 90
    32768
280
     0
281
     1
  0
CLASS
  1
HATCH
  2
AcDbHatch
  3
AutoCAD 2000
 90
    32768
280
     0
281
     1
  0
CLASS
  1
XRECORD
  2
AcDbXrecord
  3
AutoCAD 2000
 90
    32768
280
     0
281
     0
  0
ENDSEC
  0
SECTION
  2
TABLES
  0
TABLE
  2
VPORT
  5
8
330
0
100
AcDbSymbolTable
 70
     2
  0
VPORT
  5
15D1
330
8
100
AcDbSymbolTableRecord
100
AcDbViewportTableRecord
  2
*ACTIVE
 70
     0
 10
0.0
 20
0.0
 11
1.0
 21
1.0
 12
3460.456181542827
 22
2100.000085570852
 13
0.0
 23
0.0
 14
10.0
 24
10.0
 15
10.0
 25
10.0
 16
0.0
 26
0.0
 36
1.0
 17
0.0
 27
0.0
 37
0.0
 40
4293.328394428421
 41
1.619891008174386
 42
50.0
 43
0.0
 44
0.0
 50
0.0
 51
0.0
 71
     0
 72
   100
 73
     1
 74
     1
 75
     0
 76
     0
 77
     0
 78
     0
  0
ENDTAB
  0
TABLE
  2
LTYPE
  5
5
330
0
100
AcDbSymbolTable
 70
     5
  0
LTYPE
  5
14
330
5
100
AcDbSymbolTableRecord
100
AcDbLinetypeTableRecord
  2
BYBLOCK
 70
     0
  3

 72
    65
 73
     0
 40
0.0
  0
LTYPE
  5
15
330
5
100
AcDbSymbolTableRecord
100
AcDbLinetypeTableRecord
  2
BYLAYER
 70
     0
  3

 72
    65
 73
     0
 40
0.0
  0
LTYPE
  5
16
330
5
100
AcDbSymbolTableRecord
100
AcDbLinetypeTableRecord
  2
CONTINUOUS
 70
     0
  3
Solid line
 72
    65
 73
     0
 40
0.0
  0
LTYPE
  5
555
330
5
100
AcDbSymbolTableRecord
100
AcDbLinetypeTableRecord
  2
CENTER
 70
     0
  3
Center ____ _ ____ _ ____ _ ____ _ ____ _ ____
 72
    65
 73
     4
 40
50.8
 49
31.75
 74
     0
 49
-6.349999999999999
 74
     0
 49
6.349999999999999
 74
     0
 49
-6.349999999999999
 74
     0
  0
LTYPE
  5
556
330
5
100
AcDbSymbolTableRecord
100
AcDbLinetypeTableRecord
  2
HIDDEN
 70
     0
  3
Hidden __ __ __ __ __ __ __ __ __ __ __ __ __ _
 72
    65
 73
     2
 40
9.524999999999998
 49
6.349999999999999
 74
     0
 49
-3.174999999999999
 74
     0
  0
LTYPE
  5
557
330
5
100
AcDbSymbolTableRecord
100
AcDbLinetypeTableRecord
  2
HIDDEN2
 70
     0
  3
Hidden (.5x) _ _ _ _ _ _ _ _ _ _ _ _ _ _ _ _ _
 72
    65
 73
     2
 40
4.762499999999999
 49
3.174999999999999
 74
     0
 49
-1.587499999999999
 74
     0
  0
LTYPE
  5
558
330
5
100
AcDbSymbolTableRecord
100
AcDbLinetypeTableRecord
  2
PHANTOM
 70
     0
  3
Phantom ______  __  __  ______  __  __  ______
 72
    65
 73
     6
 40
63.5
 49
31.75
 74
     0
 49
-6.349999999999999
 74
     0
 49
6.349999999999999
 74
     0
 49
-6.349999999999999
 74
     0
 49
6.349999999999999
 74
     0
 49
-6.349999999999999
 74
     0
  0
ENDTAB
  0
TABLE
  2
LAYER
  5
2
330
0
100
AcDbSymbolTable
 70
    22
  0
LAYER
  5
10
330
2
100
AcDbSymbolTableRecord
100
AcDbLayerTableRecord
  2
0
 70
     0
 62
     7
  6
CONTINUOUS
  0
LAYER
  5
75
330
2
100
AcDbSymbolTableRecord
100
AcDbLayerTableRecord
  2
VIEWPORT
 70
     0
 62
     1
  6
CONTINUOUS
  0
LAYER
  5
504
330
2
100
AcDbSymbolTableRecord
100
AcDbLayerTableRecord
  2
DEFPOINTS
 70
     0
 62
     7
  6
CONTINUOUS
  0
LAYER
  5
505
330
2
100
AcDbSymbolTableRecord
100
AcDbLayerTableRecord
  2
1C1
 70
     0
 62
   254
  6
CONTINUOUS
  0
LAYER
  5
506
330
2
100
AcDbSymbolTableRecord
100
AcDbLayerTableRecord
  2
1C2
 70
     0
 62
   254
  6
CONTINUOUS
  0
LAYER
  5
507
330
2
100
AcDbSymbolTableRecord
100
AcDbLayerTableRecord
  2
2C1
 70
     0
 62
   144
  6
CONTINUOUS
  0
LAYER
  5
508
330
2
100
AcDbSymbolTableRecord
100
AcDbLayerTableRecord
  2
2C2
 70
     0
 62
   144
  6
CONTINUOUS
  0
LAYER
  5
509
330
2
100
AcDbSymbolTableRecord
100
AcDbLayerTableRecord
  2
2H1
 70
     0
 62
   144
  6
HIDDEN
  0
LAYER
  5
50A
330
2
100
AcDbSymbolTableRecord
100
AcDbLayerTableRecord
  2
2H2
 70
     0
 62
   144
  6
HIDDEN2
  0
LAYER
  5
50B
330
2
100
AcDbSymbolTableRecord
100
AcDbLayerTableRecord
  2
2P1
 70
     0
 62
   144
  6
PHANTOM
  0
LAYER
  5
50C
330
2
100
AcDbSymbolTableRecord
100
AcDbLayerTableRecord
  2
3C1
 70
     0
 62
     7
  6
CONTINUOUS
  0
LAYER
  5
50D
330
2
100
AcDbSymbolTableRecord
100
AcDbLayerTableRecord
  2
3C2
 70
     0
 62
     7
  6
CONTINUOUS
  0
LAYER
  5
50E
330
2
100
AcDbSymbolTableRecord
100
AcDbLayerTableRecord
  2
3C3
 70
     0
 62
     7
  6
CONTINUOUS
  0
LAYER
  5
50F
330
2
100
AcDbSymbolTableRecord
100
AcDbLayerTableRecord
  2
4H1
 70
     0
 62
     6
  6
HIDDEN
  0
LAYER
  5
510
330
2
100
AcDbSymbolTableRecord
100
AcDbLayerTableRecord
  2
4H2
 70
     0
 62
     6
  6
HIDDEN2
  0
LAYER
  5
511
330
2
100
AcDbSymbolTableRecord
100
AcDbLayerTableRecord
  2
5C1
 70
     0
 62
    55
  6
CONTINUOUS
  0
LAYER
  5
512
330
2
100
AcDbSymbolTableRecord
100
AcDbLayerTableRecord
  2
5C2
 70
     0
 62
    55
  6
CONTINUOUS
  0
LAYER
  5
513
330
2
100
AcDbSymbolTableRecord
100
AcDbLayerTableRecord
  2
8C1
 70
     0
 62
    92
  6
CONTINUOUS
  0
LAYER
  5
514
330
2
100
AcDbSymbolTableRecord
100
AcDbLayerTableRecord
  2
HOJO
 70
     0
 62
     5
  6
CONTINUOUS
  0
LAYER
  5
515
330
2
100
AcDbSymbolTableRecord
100
AcDbLayerTableRecord
  2
KIJUN
 70
     0
 62
     1
  6
CENTER
  0
LAYER
  5
516
330
2
100
AcDbSymbolTableRecord
100
AcDbLayerTableRecord
  2
MOJI
 70
     0
 62
     7
  6
CONTINUOUS
  0
LAYER
  5
517
330
2
100
AcDbSymbolTableRecord
100
AcDbLayerTableRecord
  2
SUNPO
 70
     0
 62
   144
  6
CONTINUOUS
  0
ENDTAB
  0
TABLE
  2
STYLE
  5
3
330
0
100
AcDbSymbolTable
 70
     6
  0
STYLE
  5
11
330
3
100
AcDbSymbolTableRecord
100
AcDbTextStyleTableRecord
  2
STANDARD
 70
     0
 40
0.0
 41
1.0
 50
0.0
 71
     0
 42
2.5
  3
txt
  4

  0
STYLE
  5
2C
330
3
100
AcDbSymbolTableRecord
100
AcDbTextStyleTableRecord
  2

 70
     1
 40
0.0
 41
1.0
 50
0.0
 71
     0
 42
2.5
  3
ltypeshp.shx
  4

  0
STYLE
  5
18E
330
3
100
AcDbSymbolTableRecord
100
AcDbTextStyleTableRecord
  2
ADD
 70
     0
 40
0.0
 41
1.0
 50
0.0
 71
     0
 42
50.0
  3
romans.shx
  4
bigfont.shx
  0
STYLE
  5
191
330
3
100
AcDbSymbolTableRecord
100
AcDbTextStyleTableRecord
  2
MSG
 70
     0
 40
0.0
 41
1.0
 50
0.0
 71
     0
 42
2.5
  3
MS Gothic.ttf
  4

1001
ACAD
1000
MS Gothic
1071
    32817
  0
STYLE
  5
5C8
330
3
100
AcDbSymbolTableRecord
100
AcDbTextStyleTableRecord
  2
STANDARD15
 70
     0
 40
0.0
 41
1.0
 50
15.0
 71
     0
 42
2.5
  3
ROMANS
  4
bigfont
  0
STYLE
  5
5C9
330
3
100
AcDbSymbolTableRecord
100
AcDbTextStyleTableRecord
  2
ROMANS15
 70
     0
 40
0.0
 41
1.0
 50
15.0
 71
     0
 42
2.5
  3
romans
  4

  0
ENDTAB
  0
TABLE
  2
VIEW
  5
6
330
0
100
AcDbSymbolTable
 70
     1
  0
VIEW
  5
54D
330
6
100
AcDbSymbolTableRecord
100
AcDbViewTableRecord
  2
ALL
 70
     0
 40
594.0
 10
420.5
 20
297.0
 41
865.125
 11
0.0
 21
0.0
 31
1.0
 12
0.0
 22
0.0
 32
0.0
 42
50.0
 43
0.0
 44
0.0
 50
0.0
 71
     0
  0
ENDTAB
  0
TABLE
  2
UCS
  5
7
330
0
100
AcDbSymbolTable
 70
     0
  0
ENDTAB
  0
TABLE
  2
APPID
  5
9
330
0
100
AcDbSymbolTable
 70
     4
  0
APPID
  5
12
330
9
100
AcDbSymbolTableRecord
100
AcDbRegAppTableRecord
  2
ACAD
 70
     0
  0
APPID
  5
5CB
330
9
100
AcDbSymbolTableRecord
100
AcDbRegAppTableRecord
  2
ARAIGUMI_YOHEKI
 70
     0
  0
APPID
  5
5CC
330
9
100
AcDbSymbolTableRecord
100
AcDbRegAppTableRecord
  2
CONTENTTABDATA
 70
     0
  0
APPID
  5
5CD
330
9
100
AcDbSymbolTableRecord
100
AcDbRegAppTableRecord
  2
CONTENTCURRENTTAB
 70
     0
  0
ENDTAB
  0
TABLE
  2
DIMSTYLE
  5
A
330
0
100
AcDbSymbolTable
 70
    10
  0
DIMSTYLE
105
27
330
A
100
AcDbSymbolTableRecord
100
AcDbDimStyleTableRecord
  2
ISO-25
 70
     0
  3

  4

  5

  6

  7

 40
1.0
 41
2.5
 42
0.625
 43
3.75
 44
1.25
 45
0.0
 46
0.0
 47
0.0
 48
0.0
140
2.5
141
2.5
142
0.0
143
0.03937007874016
144
1.0
145
0.0
146
1.0
147
0.625
 71
     0
 72
     0
 73
     0
 74
     0
 75
     0
 76
     0
 77
     1
 78
     8
170
     0
171
     3
172
     1
173
     0
174
     0
175
     0
176
     0
177
     0
178
     0
270
     2
271
     2
272
     2
273
     2
274
     3
340
11
275
     0
280
     0
281
     0
282
     0
283
     0
284
     8
285
     0
286
     0
287
     3
288
     0
  0
DIMSTYLE
105
197
330
A
100
AcDbSymbolTableRecord
100
AcDbDimStyleTableRecord
  2
ADD
 70
     0
  3

  4

  5

  6

  7

 40
1.0
 41
2.5
 42
1.0
 43
7.0
 44
0.5
 45
0.0
 46
0.0
 47
0.0
 48
0.0
140
2.5
141
2.5
142
0.0
143
0.03937007874016
144
1.0
145
0.7
146
1.0
147
0.625
 71
     0
 72
     0
 73
     0
 74
     0
 75
     0
 76
     0
 77
     1
 78
     8
170
     0
171
     3
172
     1
173
     0
174
     1
175
     0
176
   144
177
   144
178
     7
270
     2
271
     1
272
     1
273
     2
274
     3
340
18E
275
     0
280
     0
281
     0
282
     0
283
     2
284
     8
285
     0
286
     0
287
     5
288
     0
  0
DIMSTYLE
105
3E6
330
A
100
AcDbSymbolTableRecord
100
AcDbDimStyleTableRecord
  2
ADD$2
 70
     0
  3

  4

  5

  6

  7

 40
1.0
 41
2.5
 42
1.0
 43
7.0
 44
0.5
 45
0.0
 46
0.0
 47
0.0
 48
0.0
140
2.5
141
2.5
142
0.0
143
0.03937007874016
144
1.0
145
0.7
146
1.0
147
0.625
 71
     0
 72
     0
 73
     0
 74
     0
 75
     0
 76
     0
 77
     1
 78
     8
170
     0
171
     3
172
     1
173
     0
174
     1
175
     0
176
   144
177
   144
178
     7
270
     2
271
     1
272
     1
273
     2
274
     3
340
18E
275
     0
280
     0
281
     0
282
     0
283
     2
284
     8
285
     0
286
     0
287
     5
288
     0
  0
DIMSTYLE
105
3E7
330
A
100
AcDbSymbolTableRecord
100
AcDbDimStyleTableRecord
  2
ADD$4
 70
     0
  3

  4

  5

  6

  7

 40
1.0
 41
2.5
 42
1.0
 43
7.0
 44
0.5
 45
0.0
 46
0.0
 47
0.0
 48
0.0
140
2.5
141
2.5
142
0.0
143
0.03937007874016
144
1.0
145
0.0
146
1.0
147
0.625
 71
     0
 72
     0
 73
     0
 74
     0
 75
     0
 76
     0
 77
     1
 78
     8
170
     0
171
     3
172
     1
173
     0
174
     1
175
     0
176
   144
177
   144
178
     7
270
     2
271
     1
272
     1
273
     2
274
     3
340
18E
275
     0
280
     0
281
     0
282
     0
283
     2
284
     8
285
     0
286
     0
287
     5
288
     0
  0
DIMSTYLE
105
3E8
330
A
100
AcDbSymbolTableRecord
100
AcDbDimStyleTableRecord
  2
ADD$3
 70
     0
  3

  4

  5

  6

  7

 40
1.0
 41
2.5
 42
1.0
 43
7.0
 44
0.5
 45
0.0
 46
0.0
 47
0.0
 48
0.0
140
2.5
141
2.5
142
0.0
143
0.03937007874016
144
1.0
145
0.0
146
1.0
147
0.625
 71
     0
 72
     0
 73
     0
 74
     0
 75
     0
 76
     0
 77
     1
 78
     8
170
     0
171
     3
172
     1
173
     0
174
     1
175
     0
176
   144
177
   144
178
     7
270
     2
271
     1
272
     1
273
     2
274
     3
340
18E
275
     0
280
     0
281
     0
282
     0
283
     2
284
     8
285
     0
286
     0
287
     5
288
     0
  0
DIMSTYLE
105
3E9
330
A
100
AcDbSymbolTableRecord
100
AcDbDimStyleTableRecord
  2
ADD$6
 70
     0
  3

  4

  5

  6

  7

 40
1.0
 41
2.5
 42
1.0
 43
7.0
 44
0.5
 45
0.0
 46
0.0
 47
0.0
 48
0.0
140
2.5
141
2.5
142
0.0
143
0.03937007874016
144
1.0
145
0.0
146
1.0
147
0.625
 71
     0
 72
     0
 73
     0
 74
     0
 75
     0
 76
     0
 77
     1
 78
     8
170
     0
171
     3
172
     1
173
     0
174
     1
175
     0
176
   144
177
   144
178
     7
270
     2
271
     1
272
     1
273
     2
274
     3
340
18E
275
     0
280
     0
281
     0
282
     0
283
     2
284
     8
285
     0
286
     0
287
     5
288
     0
  0
DIMSTYLE
105
3EA
330
A
100
AcDbSymbolTableRecord
100
AcDbDimStyleTableRecord
  2
ADD$7
 70
     0
  3

  4

  5

  6

  7

 40
1.0
 41
1.5
 42
1.0
 43
7.0
 44
0.5
 45
0.0
 46
0.0
 47
0.0
 48
0.0
140
2.5
141
2.5
142
0.0
143
0.03937007874016
144
1.0
145
0.0
146
1.0
147
0.625
 71
     0
 72
     0
 73
     0
 74
     0
 75
     0
 76
     0
 77
     0
 78
     8
170
     0
171
     3
172
     1
173
     0
174
     1
175
     0
176
   144
177
   144
178
     7
270
     2
271
     1
272
     1
273
     2
274
     3
340
18E
275
     0
280
     0
281
     0
282
     0
283
     2
284
     8
285
     0
286
     0
287
     5
288
     0
  0
DIMSTYLE
105
518
330
A
100
AcDbSymbolTableRecord
100
AcDbDimStyleTableRecord
  2
STANDARD
 70
     0
  3

  4

  5

  6

  7

 40
1.0
 41
0.18
 42
0.0625
 43
0.38
 44
0.18
 45
0.0
 46
0.0
 47
0.0
 48
0.0
140
0.18
141
0.09
142
0.0
143
25.4
144
1.0
145
0.0
146
1.0
147
0.09
 71
     0
 72
     0
 73
     1
 74
     1
 75
     0
 76
     0
 77
     0
 78
     0
170
     0
171
     2
172
     0
173
     0
174
     0
175
     0
176
     0
177
     0
178
     0
270
     2
271
     4
272
     4
273
     2
274
     2
340
11
275
     0
280
     0
281
     0
282
     0
283
     1
284
     0
285
     0
286
     0
287
     3
288
     0
  0
DIMSTYLE
105
550
102
{ACAD_REACTORS
330
12FE
330
12EF
330
12E0
330
12D1
330
12B1
330
12A4
330
1225
330
1216
330
1205
330
11AE
330
119F
330
1190
330
1021
330
1012
330
FF6
330
FE7
330
FDA
330
E9F
102
}
330
A
100
AcDbSymbolTableRecord
100
AcDbDimStyleTableRecord
  2
ADD$0
 70
     0
  3

  4

  5

  6

  7

 40
1.0
 41
2.2
 42
1.0
 43
7.0
 44
0.5
 45
0.0
 46
0.0
 47
0.0
 48
0.0
140
2.5
141
2.5
142
0.0
143
0.03937007874016
144
1.0
145
0.7
146
1.0
147
0.625
 71
     0
 72
     0
 73
     0
 74
     0
 75
     0
 76
     0
 77
     1
 78
     8
170
     0
171
     3
172
     1
173
     0
174
     1
175
     0
176
   144
177
   144
178
     7
270
     2
271
     1
272
     1
273
     2
274
     3
340
18E
275
     0
280
     0
281
     0
282
     0
283
     2
284
     8
285
     0
286
     0
287
     5
288
     0
  0
DIMSTYLE
105
59B
330
A
100
AcDbSymbolTableRecord
100
AcDbDimStyleTableRecord
  2
ADD_M
 70
     0
  3

  4

  5

  6

  7

 40
1.0
 41
2.5
 42
1.0
 43
7.0
 44
0.5
 45
0.0
 46
0.0
 47
0.0
 48
0.0
140
2.5
141
2.5
142
0.0
143
0.03937007874016
144
1.0
145
0.7
146
1.0
147
0.625
 71
     0
 72
     0
 73
     0
 74
     0
 75
     0
 76
     0
 77
     1
 78
     8
170
     0
171
     3
172
     1
173
     0
174
     1
175
     0
176
   144
177
   144
178
     7
270
     2
271
     1
272
     1
273
     2
274
     3
340
18E
275
     0
280
     0
281
     0
282
     0
283
     2
284
     8
285
     0
286
     0
287
     5
288
     0
  0
ENDTAB
  0
TABLE
  2
BLOCK_RECORD
  5
1
330
0
100
AcDbSymbolTable
 70
    22
  0
BLOCK_RECORD
  5
1F
102
{ACAD_XDICTIONARY
360
14A4
102
}
330
1
100
AcDbSymbolTableRecord
100
AcDbBlockTableRecord
  2
*MODEL_SPACE
  0
BLOCK_RECORD
  5
1B
102
{ACAD_XDICTIONARY
360
14A6
102
}
330
1
100
AcDbSymbolTableRecord
100
AcDbBlockTableRecord
  2
*PAPER_SPACE
  0
BLOCK_RECORD
  5
192
330
1
100
AcDbSymbolTableRecord
100
AcDbBlockTableRecord
  2
_DOT
  0
BLOCK_RECORD
  5
5CE
330
1
100
AcDbSymbolTableRecord
100
AcDbBlockTableRecord
  2
A4
  0
BLOCK_RECORD
  5
636
330
1
100
AcDbSymbolTableRecord
100
AcDbBlockTableRecord
  2
_OPEN90
  0
BLOCK_RECORD
  5
63C
330
1
100
AcDbSymbolTableRecord
100
AcDbBlockTableRecord
  2
_OPEN30
  0
BLOCK_RECORD
  5
EA0
330
1
100
AcDbSymbolTableRecord
100
AcDbBlockTableRecord
  2
*D4
  0
BLOCK_RECORD
  5
FDB
330
1
100
AcDbSymbolTableRecord
100
AcDbBlockTableRecord
  2
*D5
  0
BLOCK_RECORD
  5
FE8
330
1
100
AcDbSymbolTableRecord
100
AcDbBlockTableRecord
  2
*D6
  0
BLOCK_RECORD
  5
FF7
330
1
100
AcDbSymbolTableRecord
100
AcDbBlockTableRecord
  2
*D7
  0
BLOCK_RECORD
  5
1013
330
1
100
AcDbSymbolTableRecord
100
AcDbBlockTableRecord
  2
*D8
  0
BLOCK_RECORD
  5
1022
330
1
100
AcDbSymbolTableRecord
100
AcDbBlockTableRecord
  2
*D9
  0
BLOCK_RECORD
  5
1191
330
1
100
AcDbSymbolTableRecord
100
AcDbBlockTableRecord
  2
*D10
  0
BLOCK_RECORD
  5
11A0
330
1
100
AcDbSymbolTableRecord
100
AcDbBlockTableRecord
  2
*D11
  0
BLOCK_RECORD
  5
11AF
330
1
100
AcDbSymbolTableRecord
100
AcDbBlockTableRecord
  2
*D12
  0
BLOCK_RECORD
  5
1206
330
1
100
AcDbSymbolTableRecord
100
AcDbBlockTableRecord
  2
*D13
  0
BLOCK_RECORD
  5
1217
330
1
100
AcDbSymbolTableRecord
100
AcDbBlockTableRecord
  2
*D14
  0
BLOCK_RECORD
  5
1226
330
1
100
AcDbSymbolTableRecord
100
AcDbBlockTableRecord
  2
*D15
  0
BLOCK_RECORD
  5
12A5
330
1
100
AcDbSymbolTableRecord
100
AcDbBlockTableRecord
  2
*D16
  0
BLOCK_RECORD
  5
12B2
330
1
100
AcDbSymbolTableRecord
100
AcDbBlockTableRecord
  2
*D17
  0
BLOCK_RECORD
  5
12D2
330
1
100
AcDbSymbolTableRecord
100
AcDbBlockTableRecord
  2
*D18
  0
BLOCK_RECORD
  5
12E1
330
1
100
AcDbSymbolTableRecord
100
AcDbBlockTableRecord
  2
*D19
  0
BLOCK_RECORD
  5
12F0
330
1
100
AcDbSymbolTableRecord
100
AcDbBlockTableRecord
  2
*D20
  0
BLOCK_RECORD
  5
12FF
330
1
100
AcDbSymbolTableRecord
100
AcDbBlockTableRecord
  2
*D21
  0
ENDTAB
  0
ENDSEC
  0
SECTION
  2
BLOCKS
  0
BLOCK
  5
20
330
1F
100
AcDbEntity
  8
0
100
AcDbBlockBegin
  2
*MODEL_SPACE
 70
     0
 10
0.0
 20
0.0
 30
0.0
  3
*MODEL_SPACE
  1

  0
ENDBLK
  5
21
330
1F
100
AcDbEntity
  8
0
100
AcDbBlockEnd
  0
BLOCK
  5
1C
330
1B
100
AcDbEntity
 67
     1
  8
0
100
AcDbBlockBegin
  2
*PAPER_SPACE
 70
     0
 10
0.0
 20
0.0
 30
0.0
  3
*PAPER_SPACE
  1

  0
ENDBLK
  5
1D
330
1B
100
AcDbEntity
 67
     1
  8
0
100
AcDbBlockEnd
  0
BLOCK
  5
195
330
192
100
AcDbEntity
  8
0
100
AcDbBlockBegin
  2
_DOT
 70
     0
 10
0.0
 20
0.0
 30
0.0
  3
_DOT
  1

  0
POLYLINE
  5
193
330
192
100
AcDbEntity
  8
0
 62
     0
100
AcDb2dPolyline
 66
     1
 10
0.0
 20
0.0
 30
0.0
 70
     1
 40
0.5
 41
0.5
  0
VERTEX
  5
15D4
330
193
100
AcDbEntity
  8
0
 62
     0
100
AcDbVertex
100
AcDb2dVertex
 10
-0.25
 20
0.0
 30
0.0
 42
1.0
  0
VERTEX
  5
15D5
330
193
100
AcDbEntity
  8
0
 62
     0
100
AcDbVertex
100
AcDb2dVertex
 10
0.25
 20
0.0
 30
0.0
 42
1.0
  0
SEQEND
  5
15D6
330
193
100
AcDbEntity
  8
0
 62
     0
  0
LINE
  5
194
330
192
100
AcDbEntity
  8
0
 62
     0
100
AcDbLine
 10
-0.5
 20
0.0
 30
0.0
 11
-1.0
 21
0.0
 31
0.0
  0
ENDBLK
  5
196
330
192
100
AcDbEntity
  8
0
100
AcDbBlockEnd
  0
BLOCK
  5
5D1
330
5CE
100
AcDbEntity
  8
0
100
AcDbBlockBegin
  2
A4
 70
     0
 10
0.0
 20
0.0
 30
0.0
  3
A4
  1

  0
POLYLINE
  5
5CF
330
5CE
100
AcDbEntity
  8
HOJO
100
AcDb2dPolyline
 66
     1
 10
0.0
 20
0.0
 30
0.0
 70
     1
  0
VERTEX
  5
15D7
330
5CF
100
AcDbEntity
  8
HOJO
100
AcDbVertex
100
AcDb2dVertex
 10
0.0
 20
0.0
 30
0.0
  0
VERTEX
  5
15D8
330
5CF
100
AcDbEntity
  8
HOJO
100
AcDbVertex
100
AcDb2dVertex
 10
297.0
 20
0.0
 30
0.0
  0
VERTEX
  5
15D9
330
5CF
100
AcDbEntity
  8
HOJO
100
AcDbVertex
100
AcDb2dVertex
 10
297.0
 20
210.0
 30
0.0
  0
VERTEX
  5
15DA
330
5CF
100
AcDbEntity
  8
HOJO
100
AcDbVertex
100
AcDb2dVertex
 10
0.0
 20
210.0
 30
0.0
  0
SEQEND
  5
15DB
330
5CF
100
AcDbEntity
  8
HOJO
  0
POLYLINE
  5
5D0
330
5CE
100
AcDbEntity
  8
HOJO
100
AcDb2dPolyline
 66
     1
 10
0.0
 20
0.0
 30
0.0
 70
     1
  0
VERTEX
  5
15DC
330
5D0
100
AcDbEntity
  8
HOJO
100
AcDbVertex
100
AcDb2dVertex
 10
18.0
 20
13.0
 30
0.0
  0
VERTEX
  5
15DD
330
5D0
100
AcDbEntity
  8
HOJO
100
AcDbVertex
100
AcDb2dVertex
 10
279.0
 20
13.0
 30
0.0
  0
VERTEX
  5
15DE
330
5D0
100
AcDbEntity
  8
HOJO
100
AcDbVertex
100
AcDb2dVertex
 10
279.0
 20
197.0
 30
0.0
  0
VERTEX
  5
15DF
330
5D0
100
AcDbEntity
  8
HOJO
100
AcDbVertex
100
AcDb2dVertex
 10
18.0
 20
197.0
 30
0.0
  0
SEQEND
  5
15E0
330
5D0
100
AcDbEntity
  8
HOJO
  0
ENDBLK
  5
5D2
330
5CE
100
AcDbEntity
  8
0
100
AcDbBlockEnd
  0
BLOCK
  5
63A
330
636
100
AcDbEntity
  8
0
100
AcDbBlockBegin
  2
_OPEN90
 70
     0
 10
0.0
 20
0.0
 30
0.0
  3
_OPEN90
  1

  0
LINE
  5
637
330
636
100
AcDbEntity
  8
SUNPO
 62
     0
100
AcDbLine
 10
-0.5
 20
0.5
 30
0.0
 11
0.0
 21
0.0
 31
0.0
  0
LINE
  5
638
330
636
100
AcDbEntity
  8
SUNPO
 62
     0
100
AcDbLine
 10
0.0
 20
0.0
 30
0.0
 11
-0.5
 21
-0.5
 31
0.0
  0
LINE
  5
639
330
636
100
AcDbEntity
  8
SUNPO
 62
     0
100
AcDbLine
 10
0.0
 20
0.0
 30
0.0
 11
-1.0
 21
0.0
 31
0.0
  0
ENDBLK
  5
63B
330
636
100
AcDbEntity
  8
0
100
AcDbBlockEnd
  0
BLOCK
  5
640
330
63C
100
AcDbEntity
  8
0
100
AcDbBlockBegin
  2
_OPEN30
 70
     0
 10
0.0
 20
0.0
 30
0.0
  3
_OPEN30
  1

  0
LINE
  5
63D
330
63C
100
AcDbEntity
  8
SUNPO
 62
     0
100
AcDbLine
 10
-1.0
 20
0.26794919
 30
0.0
 11
0.0
 21
0.0
 31
0.0
  0
LINE
  5
63E
330
63C
100
AcDbEntity
  8
SUNPO
 62
     0
100
AcDbLine
 10
0.0
 20
0.0
 30
0.0
 11
-1.0
 21
-0.26794919
 31
0.0
  0
LINE
  5
63F
330
63C
100
AcDbEntity
  8
SUNPO
 62
     0
100
AcDbLine
 10
0.0
 20
0.0
 30
0.0
 11
-1.0
 21
0.0
 31
0.0
  0
ENDBLK
  5
641
330
63C
100
AcDbEntity
  8
0
100
AcDbBlockEnd
  0
BLOCK
  5
EAA
330
EA0
100
AcDbEntity
  8
0
100
AcDbBlockBegin
  2
*D4
 70
     1
 10
0.0
 20
0.0
 30
0.0
  3
*D4
  1

  0
LINE
  5
1296
330
EA0
100
AcDbEntity
  8
SUNPO
 62
   144
100
AcDbLine
 10
2950.0
 20
1651.0
 30
0.0
 11
2476.326693309462
 21
1651.0
 31
0.0
  0
LINE
  5
1297
330
EA0
100
AcDbEntity
  8
SUNPO
 62
   144
100
AcDbLine
 10
2950.0
 20
2249.0
 30
0.0
 11
2476.326693309462
 21
2249.0
 31
0.0
  0
LINE
  5
1298
330
EA0
100
AcDbEntity
  8
SUNPO
 62
   144
100
AcDbLine
 10
2486.326693309462
 20
1695.0
 30
0.0
 11
2486.326693309462
 21
2205.0
 31
0.0
  0
SOLID
  5
1299
330
EA0
100
AcDbEntity
  8
SUNPO
 62
   144
100
AcDbTrace
 10
2478.993359976128
 20
1695.0
 30
0.0
 11
2493.660026642795
 21
1695.0
 31
0.0
 12
2486.326693309462
 22
1651.0
 32
0.0
 13
2486.326693309462
 23
1651.0
 33
0.0
  0
SOLID
  5
129A
330
EA0
100
AcDbEntity
  8
SUNPO
 62
   144
100
AcDbTrace
 10
2478.993359976128
 20
2205.0
 30
0.0
 11
2493.660026642795
 21
2205.0
 31
0.0
 12
2486.326693309462
 22
2249.0
 32
0.0
 13
2486.326693309462
 23
2249.0
 33
0.0
  0
MTEXT
  5
129B
330
EA0
100
AcDbEntity
  8
SUNPO
 62
     7
100
AcDbMText
 10
2448.826693309461
 20
1950.0
 30
0.0
 40
50.0
 41
0.0
 71
     5
 72
     1
  1
\A2;598
  7
ADD
 11
0.0000000000000001
 21
1.0
 31
0.0
1001
ACAD
1000
MTEXTBEGIN
1070
    73
1070
     1
1070
    44
1040
1.0
1070
    74
1070
     0
1000
MTEXTEND
1000
MTEXTBEGIN
1070
    73
1070
     1
1070
    44
1040
1.0
1070
    74
1070
     0
1000
MTEXTEND
  0
POINT
  5
129C
330
EA0
100
AcDbEntity
  8
DEFPOINTS
 62
     0
100
AcDbPoint
 10
2970.0
 20
1651.0
 30
0.0
  0
POINT
  5
129D
330
EA0
100
AcDbEntity
  8
DEFPOINTS
 62
     0
100
AcDbPoint
 10
2970.0
 20
2249.0
 30
0.0
  0
POINT
  5
129E
330
EA0
100
AcDbEntity
  8
DEFPOINTS
 62
     0
100
AcDbPoint
 10
2486.326693309462
 20
2249.0
 30
0.0
  0
ENDBLK
  5
EAB
330
EA0
100
AcDbEntity
  8
0
100
AcDbBlockEnd
  0
BLOCK
  5
FE5
330
FDB
100
AcDbEntity
  8
0
100
AcDbBlockBegin
  2
*D5
 70
     1
 10
0.0
 20
0.0
 30
0.0
  3
*D5
  1

  0
LINE
  5
1478
330
FDB
100
AcDbEntity
  8
SUNPO
 62
   144
100
AcDbLine
 10
2970.0
 20
2269.0
 30
0.0
 11
2970.0
 21
2561.04531740457
 31
0.0
  0
LINE
  5
1479
330
FDB
100
AcDbEntity
  8
SUNPO
 62
   144
100
AcDbLine
 10
4270.0
 20
2269.0
 30
0.0
 11
4270.0
 21
2561.04531740457
 31
0.0
  0
LINE
  5
147A
330
FDB
100
AcDbEntity
  8
SUNPO
 62
   144
100
AcDbLine
 10
3014.0
 20
2551.04531740457
 30
0.0
 11
4226.0
 21
2551.04531740457
 31
0.0
  0
SOLID
  5
147B
330
FDB
100
AcDbEntity
  8
SUNPO
 62
   144
100
AcDbTrace
 10
3014.0
 20
2558.378650737904
 30
0.0
 11
3014.0
 21
2543.711984071236
 31
0.0
 12
2970.0
 22
2551.04531740457
 32
0.0
 13
2970.0
 23
2551.04531740457
 33
0.0
  0
SOLID
  5
147C
330
FDB
100
AcDbEntity
  8
SUNPO
 62
   144
100
AcDbTrace
 10
4226.0
 20
2558.378650737904
 30
0.0
 11
4226.0
 21
2543.711984071236
 31
0.0
 12
4270.0
 22
2551.04531740457
 32
0.0
 13
4270.0
 23
2551.04531740457
 33
0.0
  0
MTEXT
  5
147D
330
FDB
100
AcDbEntity
  8
SUNPO
 62
     7
100
AcDbMText
 10
3620.0
 20
2588.54531740457
 30
0.0
 40
50.0
 41
0.0
 71
     5
 72
     1
  1
\A2;1300
  7
ADD
1001
ACAD
1000
MTEXTBEGIN
1070
    73
1070
     1
1070
    44
1040
1.0
1070
    74
1070
     0
1000
MTEXTEND
1000
MTEXTBEGIN
1070
    73
1070
     1
1070
    44
1040
1.0
1070
    74
1070
     0
1000
MTEXTEND
  0
POINT
  5
147E
330
FDB
100
AcDbEntity
  8
DEFPOINTS
 62
     0
100
AcDbPoint
 10
2970.0
 20
2249.0
 30
0.0
  0
POINT
  5
147F
330
FDB
100
AcDbEntity
  8
DEFPOINTS
 62
     0
100
AcDbPoint
 10
4270.0
 20
2249.0
 30
0.0
  0
POINT
  5
1480
330
FDB
100
AcDbEntity
  8
DEFPOINTS
 62
     0
100
AcDbPoint
 10
4270.0
 20
2551.04531740457
 30
0.0
  0
ENDBLK
  5
FE6
330
FDB
100
AcDbEntity
  8
0
100
AcDbBlockEnd
  0
BLOCK
  5
FF4
330
FE8
100
AcDbEntity
  8
0
100
AcDbBlockBegin
  2
*D6
 70
     1
 10
0.0
 20
0.0
 30
0.0
  3
*D6
  1

  0
LINE
  5
1387
330
FE8
100
AcDbEntity
  8
SUNPO
 62
   144
100
AcDbLine
 10
2970.0
 20
2269.0
 30
0.0
 11
2970.0
 21
2381.490032659865
 31
0.0
  0
LINE
  5
1388
330
FE8
100
AcDbEntity
  8
SUNPO
 62
   144
100
AcDbLine
 10
3070.0
 20
2269.0
 30
0.0
 11
3070.0
 21
2381.490032659865
 31
0.0
  0
LINE
  5
1389
330
FE8
100
AcDbEntity
  8
SUNPO
 62
   144
100
AcDbLine
 10
3000.0
 20
2371.490032659865
 30
0.0
 11
3040.0
 21
2371.490032659865
 31
0.0
  0
MTEXT
  5
138A
330
FE8
100
AcDbEntity
  8
SUNPO
 62
     7
100
AcDbMText
 10
3028.152870633906
 20
2429.492087975737
 30
0.0
 40
50.0
 41
0.0
 71
     5
 72
     1
  1
\A2;100
  7
ADD
1001
ACAD
1000
MTEXTBEGIN
1070
    73
1070
     1
1070
    44
1040
1.0
1070
    74
1070
     0
1000
MTEXTEND
1000
MTEXTBEGIN
1070
    73
1070
     1
1070
    44
1040
1.0
1070
    74
1070
     0
1000
MTEXTEND
  0
SOLID
  5
138B
330
FE8
100
AcDbEntity
  8
SUNPO
 62
   144
100
AcDbTrace
 10
3000.0
 20
2376.490032659865
 30
0.0
 11
3000.0
 21
2366.490032659865
 31
0.0
 12
2970.0
 22
2371.490032659865
 32
0.0
 13
2970.0
 23
2371.490032659865
 33
0.0
  0
SOLID
  5
138C
330
FE8
100
AcDbEntity
  8
SUNPO
 62
   144
100
AcDbTrace
 10
3040.0
 20
2376.490032659865
 30
0.0
 11
3040.0
 21
2366.490032659865
 31
0.0
 12
3070.0
 22
2371.490032659865
 32
0.0
 13
3070.0
 23
2371.490032659865
 33
0.0
  0
POINT
  5
138D
330
FE8
100
AcDbEntity
  8
DEFPOINTS
 62
     0
100
AcDbPoint
 10
2970.0
 20
2249.0
 30
0.0
  0
POINT
  5
138E
330
FE8
100
AcDbEntity
  8
DEFPOINTS
 62
     0
100
AcDbPoint
 10
3070.0
 20
2249.0
 30
0.0
  0
POINT
  5
138F
330
FE8
100
AcDbEntity
  8
DEFPOINTS
 62
     0
100
AcDbPoint
 10
3070.0
 20
2371.490032659865
 30
0.0
  0
ENDBLK
  5
FF5
330
FE8
100
AcDbEntity
  8
0
100
AcDbBlockEnd
  0
BLOCK
  5
1003
330
FF7
100
AcDbEntity
  8
0
100
AcDbBlockBegin
  2
*D7
 70
     1
 10
0.0
 20
0.0
 30
0.0
  3
*D7
  1

  0
LINE
  5
10B4
330
FF7
100
AcDbEntity
  8
SUNPO
 62
   144
100
AcDbLine
 10
3070.0
 20
2269.0
 30
0.0
 11
3070.0
 21
2315.467507741586
 31
0.0
  0
LINE
  5
10B5
330
FF7
100
AcDbEntity
  8
SUNPO
 62
   144
100
AcDbLine
 10
3130.0
 20
2269.0
 30
0.0
 11
3130.0
 21
2315.467507741586
 31
0.0
  0
LINE
  5
10B6
330
FF7
100
AcDbEntity
  8
SUNPO
 62
   144
100
AcDbLine
 10
3026.0
 20
2305.467507741587
 30
0.0
 11
2982.0
 21
2305.467507741587
 31
0.0
  0
LINE
  5
10B7
330
FF7
100
AcDbEntity
  8
SUNPO
 62
   144
100
AcDbLine
 10
3174.0
 20
2305.467507741587
 30
0.0
 11
3218.0
 21
2305.467507741587
 31
0.0
  0
MTEXT
  5
10B8
330
FF7
100
AcDbEntity
  8
SUNPO
 62
     7
100
AcDbMText
 10
3180.265050710093
 20
2349.050163814045
 30
0.0
 40
50.0
 41
0.0
 71
     5
 72
     1
  1
\A2;60
  7
ADD
1001
ACAD
1000
MTEXTBEGIN
1070
    73
1070
     1
1070
    44
1040
1.0
1070
    74
1070
     0
1000
MTEXTEND
1000
MTEXTBEGIN
1070
    73
1070
     1
1070
    44
1040
1.0
1070
    74
1070
     0
1000
MTEXTEND
  0
LINE
  5
10B9
330
FF7
100
AcDbEntity
  8
SUNPO
 62
   144
100
AcDbLine
 10
3070.0
 20
2305.467507741587
 30
0.0
 11
3130.0
 21
2305.467507741587
 31
0.0
  0
SOLID
  5
10BA
330
FF7
100
AcDbEntity
  8
SUNPO
 62
   144
100
AcDbTrace
 10
3026.0
 20
2312.80084107492
 30
0.0
 11
3026.0
 21
2298.134174408253
 31
0.0
 12
3070.0
 22
2305.467507741587
 32
0.0
 13
3070.0
 23
2305.467507741587
 33
0.0
  0
SOLID
  5
10BB
330
FF7
100
AcDbEntity
  8
SUNPO
 62
   144
100
AcDbTrace
 10
3174.0
 20
2312.80084107492
 30
0.0
 11
3174.0
 21
2298.134174408253
 31
0.0
 12
3130.0
 22
2305.467507741587
 32
0.0
 13
3130.0
 23
2305.467507741587
 33
0.0
  0
POINT
  5
10BC
330
FF7
100
AcDbEntity
  8
DEFPOINTS
 62
     0
100
AcDbPoint
 10
3070.0
 20
2249.0
 30
0.0
  0
POINT
  5
10BD
330
FF7
100
AcDbEntity
  8
DEFPOINTS
 62
     0
100
AcDbPoint
 10
3130.0
 20
2249.0
 30
0.0
  0
POINT
  5
10BE
330
FF7
100
AcDbEntity
  8
DEFPOINTS
 62
     0
100
AcDbPoint
 10
3130.0
 20
2305.467507741587
 30
0.0
  0
ENDBLK
  5
1004
330
FF7
100
AcDbEntity
  8
0
100
AcDbBlockEnd
  0
BLOCK
  5
101F
330
1013
100
AcDbEntity
  8
0
100
AcDbBlockBegin
  2
*D8
 70
     1
 10
0.0
 20
0.0
 30
0.0
  3
*D8
  1

  0
LINE
  5
146D
330
1013
100
AcDbEntity
  8
SUNPO
 62
   144
100
AcDbLine
 10
4110.0
 20
2269.0
 30
0.0
 11
4110.0
 21
2315.467507741586
 31
0.0
  0
LINE
  5
146E
330
1013
100
AcDbEntity
  8
SUNPO
 62
   144
100
AcDbLine
 10
4170.0
 20
2269.0
 30
0.0
 11
4170.0
 21
2315.467507741586
 31
0.0
  0
LINE
  5
146F
330
1013
100
AcDbEntity
  8
SUNPO
 62
   144
100
AcDbLine
 10
4072.0
 20
2305.467507741587
 30
0.0
 11
4034.0
 21
2305.467507741587
 31
0.0
  0
LINE
  5
1470
330
1013
100
AcDbEntity
  8
SUNPO
 62
   144
100
AcDbLine
 10
4208.0
 20
2305.467507741587
 30
0.0
 11
4246.0
 21
2305.467507741587
 31
0.0
  0
MTEXT
  5
1471
330
1013
100
AcDbEntity
  8
SUNPO
 62
     7
100
AcDbMText
 10
4059.252532058713
 20
2341.402206419552
 30
0.0
 40
50.0
 41
0.0
 71
     5
 72
     1
  1
\A2;60
  7
ADD
1001
ACAD
1000
MTEXTBEGIN
1070
    73
1070
     1
1070
    44
1040
1.0
1070
    74
1070
     0
1000
MTEXTEND
1000
MTEXTBEGIN
1070
    73
1070
     1
1070
    44
1040
1.0
1070
    74
1070
     0
1000
MTEXTEND
  0
LINE
  5
1472
330
1013
100
AcDbEntity
  8
SUNPO
 62
   144
100
AcDbLine
 10
4110.0
 20
2305.467507741587
 30
0.0
 11
4170.0
 21
2305.467507741587
 31
0.0
  0
SOLID
  5
1473
330
1013
100
AcDbEntity
  8
SUNPO
 62
   144
100
AcDbTrace
 10
4072.0
 20
2311.80084107492
 30
0.0
 11
4072.0
 21
2299.134174408253
 31
0.0
 12
4110.0
 22
2305.467507741587
 32
0.0
 13
4110.0
 23
2305.467507741587
 33
0.0
  0
SOLID
  5
1474
330
1013
100
AcDbEntity
  8
SUNPO
 62
   144
100
AcDbTrace
 10
4208.0
 20
2311.80084107492
 30
0.0
 11
4208.0
 21
2299.134174408253
 31
0.0
 12
4170.0
 22
2305.467507741587
 32
0.0
 13
4170.0
 23
2305.467507741587
 33
0.0
  0
POINT
  5
1475
330
1013
100
AcDbEntity
  8
DEFPOINTS
 62
     0
100
AcDbPoint
 10
4110.0
 20
2249.0
 30
0.0
  0
POINT
  5
1476
330
1013
100
AcDbEntity
  8
DEFPOINTS
 62
     0
100
AcDbPoint
 10
4170.0
 20
2249.0
 30
0.0
  0
POINT
  5
1477
330
1013
100
AcDbEntity
  8
DEFPOINTS
 62
     0
100
AcDbPoint
 10
4170.0
 20
2305.467507741587
 30
0.0
  0
ENDBLK
  5
1020
330
1013
100
AcDbEntity
  8
0
100
AcDbBlockEnd
  0
BLOCK
  5
102E
330
1022
100
AcDbEntity
  8
0
100
AcDbBlockBegin
  2
*D9
 70
     1
 10
0.0
 20
0.0
 30
0.0
  3
*D9
  1

  0
LINE
  5
1464
330
1022
100
AcDbEntity
  8
SUNPO
 62
   144
100
AcDbLine
 10
4170.0
 20
2269.0
 30
0.0
 11
4170.0
 21
2371.490032659865
 31
0.0
  0
LINE
  5
1465
330
1022
100
AcDbEntity
  8
SUNPO
 62
   144
100
AcDbLine
 10
4270.0
 20
2269.0
 30
0.0
 11
4270.0
 21
2371.490032659865
 31
0.0
  0
LINE
  5
1466
330
1022
100
AcDbEntity
  8
SUNPO
 62
   144
100
AcDbLine
 10
4200.0
 20
2371.490032659865
 30
0.0
 11
4240.0
 21
2371.490032659865
 31
0.0
  0
MTEXT
  5
1467
330
1022
100
AcDbEntity
  8
SUNPO
 62
     7
100
AcDbMText
 10
4220.000000000001
 20
2433.990032659865
 30
0.0
 40
50.0
 41
0.0
 71
     5
 72
     1
  1
\A2;100
  7
ADD
1001
ACAD
1000
MTEXTBEGIN
1070
    73
1070
     1
1070
    44
1040
1.0
1070
    74
1070
     0
1000
MTEXTEND
1000
MTEXTBEGIN
1070
    73
1070
     1
1070
    44
1040
1.0
1070
    74
1070
     0
1000
MTEXTEND
  0
SOLID
  5
1468
330
1022
100
AcDbEntity
  8
SUNPO
 62
   144
100
AcDbTrace
 10
4200.0
 20
2376.490032659865
 30
0.0
 11
4200.0
 21
2366.490032659865
 31
0.0
 12
4170.0
 22
2371.490032659865
 32
0.0
 13
4170.0
 23
2371.490032659865
 33
0.0
  0
SOLID
  5
1469
330
1022
100
AcDbEntity
  8
SUNPO
 62
   144
100
AcDbTrace
 10
4240.0
 20
2376.490032659865
 30
0.0
 11
4240.0
 21
2366.490032659865
 31
0.0
 12
4270.0
 22
2371.490032659865
 32
0.0
 13
4270.0
 23
2371.490032659865
 33
0.0
  0
POINT
  5
146A
330
1022
100
AcDbEntity
  8
DEFPOINTS
 62
     0
100
AcDbPoint
 10
4170.0
 20
2249.0
 30
0.0
  0
POINT
  5
146B
330
1022
100
AcDbEntity
  8
DEFPOINTS
 62
     0
100
AcDbPoint
 10
4270.0
 20
2249.0
 30
0.0
  0
POINT
  5
146C
330
1022
100
AcDbEntity
  8
DEFPOINTS
 62
     0
100
AcDbPoint
 10
4270.0
 20
2371.490032659865
 30
0.0
  0
ENDBLK
  5
102F
330
1022
100
AcDbEntity
  8
0
100
AcDbBlockEnd
  0
BLOCK
  5
119D
330
1191
100
AcDbEntity
  8
0
100
AcDbBlockBegin
  2
*D10
 70
     1
 10
0.0
 20
0.0
 30
0.0
  3
*D10
  1

  0
LINE
  5
1269
330
1191
100
AcDbEntity
  8
SUNPO
 62
   144
100
AcDbLine
 10
2060.0
 20
2269.0
 30
0.0
 11
2060.0
 21
2561.04531740457
 31
0.0
  0
LINE
  5
126A
330
1191
100
AcDbEntity
  8
SUNPO
 62
   144
100
AcDbLine
 10
2170.0
 20
2269.0
 30
0.0
 11
2170.0
 21
2561.04531740457
 31
0.0
  0
LINE
  5
126B
330
1191
100
AcDbEntity
  8
SUNPO
 62
   144
100
AcDbLine
 10
2090.0
 20
2551.04531740457
 30
0.0
 11
2140.0
 21
2551.04531740457
 31
0.0
  0
MTEXT
  5
126C
330
1191
100
AcDbEntity
  8
SUNPO
 62
     7
100
AcDbMText
 10
2115.0
 20
2613.54531740457
 30
0.0
 40
50.0
 41
0.0
 71
     5
 72
     1
  1
\A2;110
  7
ADD
1001
ACAD
1000
MTEXTBEGIN
1070
    73
1070
     1
1070
    44
1040
1.0
1070
    74
1070
     0
1000
MTEXTEND
1000
MTEXTBEGIN
1070
    73
1070
     1
1070
    44
1040
1.0
1070
    74
1070
     0
1000
MTEXTEND
  0
SOLID
  5
126D
330
1191
100
AcDbEntity
  8
SUNPO
 62
   144
100
AcDbTrace
 10
2090.0
 20
2556.04531740457
 30
0.0
 11
2090.0
 21
2546.04531740457
 31
0.0
 12
2060.0
 22
2551.04531740457
 32
0.0
 13
2060.0
 23
2551.04531740457
 33
0.0
  0
SOLID
  5
126E
330
1191
100
AcDbEntity
  8
SUNPO
 62
   144
100
AcDbTrace
 10
2140.0
 20
2556.04531740457
 30
0.0
 11
2140.0
 21
2546.04531740457
 31
0.0
 12
2170.0
 22
2551.04531740457
 32
0.0
 13
2170.0
 23
2551.04531740457
 33
0.0
  0
POINT
  5
126F
330
1191
100
AcDbEntity
  8
DEFPOINTS
 62
     0
100
AcDbPoint
 10
2060.0
 20
2249.0
 30
0.0
  0
POINT
  5
1270
330
1191
100
AcDbEntity
  8
DEFPOINTS
 62
     0
100
AcDbPoint
 10
2170.0
 20
2249.0
 30
0.0
  0
POINT
  5
1271
330
1191
100
AcDbEntity
  8
DEFPOINTS
 62
     0
100
AcDbPoint
 10
2170.0
 20
2551.04531740457
 30
0.0
  0
ENDBLK
  5
119E
330
1191
100
AcDbEntity
  8
0
100
AcDbBlockEnd
  0
BLOCK
  5
11AC
330
11A0
100
AcDbEntity
  8
0
100
AcDbBlockBegin
  2
*D11
 70
     1
 10
0.0
 20
0.0
 30
0.0
  3
*D11
  1

  0
LINE
  5
11E9
330
11A0
100
AcDbEntity
  8
SUNPO
 62
   144
100
AcDbLine
 10
2060.0
 20
2269.0
 30
0.0
 11
2060.0
 21
2425.478320325701
 31
0.0
  0
LINE
  5
11EA
330
11A0
100
AcDbEntity
  8
SUNPO
 62
   144
100
AcDbLine
 10
2120.0
 20
2269.0
 30
0.0
 11
2120.0
 21
2425.478320325701
 31
0.0
  0
LINE
  5
11EB
330
11A0
100
AcDbEntity
  8
SUNPO
 62
   144
100
AcDbLine
 10
2016.0
 20
2415.478320325701
 30
0.0
 11
1972.0
 21
2415.478320325701
 31
0.0
  0
LINE
  5
11EC
330
11A0
100
AcDbEntity
  8
SUNPO
 62
   144
100
AcDbLine
 10
2164.0
 20
2415.478320325701
 30
0.0
 11
2208.0
 21
2415.478320325701
 31
0.0
  0
MTEXT
  5
11ED
330
11A0
100
AcDbEntity
  8
SUNPO
 62
     7
100
AcDbMText
 10
2006.606358949435
 20
2442.978320325701
 30
0.0
 40
50.0
 41
0.0
 71
     5
 72
     1
  1
\A2;60
  7
ADD
1001
ACAD
1000
MTEXTBEGIN
1070
    73
1070
     1
1070
    44
1040
1.0
1070
    74
1070
     0
1000
MTEXTEND
1000
MTEXTBEGIN
1070
    73
1070
     1
1070
    44
1040
1.0
1070
    74
1070
     0
1000
MTEXTEND
  0
LINE
  5
11EE
330
11A0
100
AcDbEntity
  8
SUNPO
 62
   144
100
AcDbLine
 10
2060.0
 20
2415.478320325701
 30
0.0
 11
2120.0
 21
2415.478320325701
 31
0.0
  0
SOLID
  5
11EF
330
11A0
100
AcDbEntity
  8
SUNPO
 62
   144
100
AcDbTrace
 10
2016.0
 20
2422.811653659034
 30
0.0
 11
2016.0
 21
2408.144986992367
 31
0.0
 12
2060.0
 22
2415.478320325701
 32
0.0
 13
2060.0
 23
2415.478320325701
 33
0.0
  0
SOLID
  5
11F0
330
11A0
100
AcDbEntity
  8
SUNPO
 62
   144
100
AcDbTrace
 10
2164.0
 20
2422.811653659034
 30
0.0
 11
2164.0
 21
2408.144986992367
 31
0.0
 12
2120.0
 22
2415.478320325701
 32
0.0
 13
2120.0
 23
2415.478320325701
 33
0.0
  0
POINT
  5
11F1
330
11A0
100
AcDbEntity
  8
DEFPOINTS
 62
     0
100
AcDbPoint
 10
2060.0
 20
2249.0
 30
0.0
  0
POINT
  5
11F2
330
11A0
100
AcDbEntity
  8
DEFPOINTS
 62
     0
100
AcDbPoint
 10
2120.0
 20
2249.0
 30
0.0
  0
POINT
  5
11F3
330
11A0
100
AcDbEntity
  8
DEFPOINTS
 62
     0
100
AcDbPoint
 10
2120.0
 20
2415.478320325701
 30
0.0
  0
ENDBLK
  5
11AD
330
11A0
100
AcDbEntity
  8
0
100
AcDbBlockEnd
  0
BLOCK
  5
11BB
330
11AF
100
AcDbEntity
  8
0
100
AcDbBlockBegin
  2
*D12
 70
     1
 10
0.0
 20
0.0
 30
0.0
  3
*D12
  1

  0
LINE
  5
11DE
330
11AF
100
AcDbEntity
  8
SUNPO
 62
   144
100
AcDbLine
 10
2120.0
 20
2269.0
 30
0.0
 11
2120.0
 21
2352.23916016285
 31
0.0
  0
LINE
  5
11DF
330
11AF
100
AcDbEntity
  8
SUNPO
 62
   144
100
AcDbLine
 10
2170.0
 20
2269.0
 30
0.0
 11
2170.0
 21
2352.23916016285
 31
0.0
  0
LINE
  5
11E0
330
11AF
100
AcDbEntity
  8
SUNPO
 62
   144
100
AcDbLine
 10
2076.0
 20
2342.23916016285
 30
0.0
 11
2032.0
 21
2342.23916016285
 31
0.0
  0
LINE
  5
11E1
330
11AF
100
AcDbEntity
  8
SUNPO
 62
   144
100
AcDbLine
 10
2214.0
 20
2342.23916016285
 30
0.0
 11
2258.0
 21
2342.23916016285
 31
0.0
  0
MTEXT
  5
11E2
330
11AF
100
AcDbEntity
  8
SUNPO
 62
     7
100
AcDbMText
 10
2220.275213112085
 20
2374.749365959349
 30
0.0
 40
50.0
 41
0.0
 71
     5
 72
     1
  1
\A2;50
  7
ADD
1001
ACAD
1000
MTEXTBEGIN
1070
    73
1070
     1
1070
    44
1040
1.0
1070
    74
1070
     0
1000
MTEXTEND
1000
MTEXTBEGIN
1070
    73
1070
     1
1070
    44
1040
1.0
1070
    74
1070
     0
1000
MTEXTEND
  0
LINE
  5
11E3
330
11AF
100
AcDbEntity
  8
SUNPO
 62
   144
100
AcDbLine
 10
2120.0
 20
2342.23916016285
 30
0.0
 11
2170.0
 21
2342.23916016285
 31
0.0
  0
SOLID
  5
11E4
330
11AF
100
AcDbEntity
  8
SUNPO
 62
   144
100
AcDbTrace
 10
2076.0
 20
2349.572493496184
 30
0.0
 11
2076.0
 21
2334.905826829517
 31
0.0
 12
2120.0
 22
2342.23916016285
 32
0.0
 13
2120.0
 23
2342.23916016285
 33
0.0
  0
SOLID
  5
11E5
330
11AF
100
AcDbEntity
  8
SUNPO
 62
   144
100
AcDbTrace
 10
2214.0
 20
2349.572493496184
 30
0.0
 11
2214.0
 21
2334.905826829517
 31
0.0
 12
2170.0
 22
2342.23916016285
 32
0.0
 13
2170.0
 23
2342.23916016285
 33
0.0
  0
POINT
  5
11E6
330
11AF
100
AcDbEntity
  8
DEFPOINTS
 62
     0
100
AcDbPoint
 10
2120.0
 20
2249.0
 30
0.0
  0
POINT
  5
11E7
330
11AF
100
AcDbEntity
  8
DEFPOINTS
 62
     0
100
AcDbPoint
 10
2170.0
 20
2249.0
 30
0.0
  0
POINT
  5
11E8
330
11AF
100
AcDbEntity
  8
DEFPOINTS
 62
     0
100
AcDbPoint
 10
2170.0
 20
2342.23916016285
 30
0.0
  0
ENDBLK
  5
11BC
330
11AF
100
AcDbEntity
  8
0
100
AcDbBlockEnd
  0
BLOCK
  5
1212
330
1206
100
AcDbEntity
  8
0
100
AcDbBlockBegin
  2
*D13
 70
     1
 10
0.0
 20
0.0
 30
0.0
  3
*D13
  1

  0
LINE
  5
1255
330
1206
100
AcDbEntity
  8
SUNPO
 62
   144
100
AcDbLine
 10
1299.467842459455
 20
2269.0
 30
0.0
 11
1299.467842459455
 21
2561.04531740457
 31
0.0
  0
LINE
  5
1256
330
1206
100
AcDbEntity
  8
SUNPO
 62
   144
100
AcDbLine
 10
1409.467842459455
 20
2269.0
 30
0.0
 11
1409.467842459455
 21
2561.04531740457
 31
0.0
  0
LINE
  5
1257
330
1206
100
AcDbEntity
  8
SUNPO
 62
   144
100
AcDbLine
 10
1329.467842459455
 20
2551.04531740457
 30
0.0
 11
1379.467842459455
 21
2551.04531740457
 31
0.0
  0
MTEXT
  5
1258
330
1206
100
AcDbEntity
  8
SUNPO
 62
     7
100
AcDbMText
 10
1354.467842459454
 20
2613.54531740457
 30
0.0
 40
50.0
 41
0.0
 71
     5
 72
     1
  1
\A2;110
  7
ADD
1001
ACAD
1000
MTEXTBEGIN
1070
    73
1070
     1
1070
    44
1040
1.0
1070
    74
1070
     0
1000
MTEXTEND
1000
MTEXTBEGIN
1070
    73
1070
     1
1070
    44
1040
1.0
1070
    74
1070
     0
1000
MTEXTEND
  0
SOLID
  5
1259
330
1206
100
AcDbEntity
  8
SUNPO
 62
   144
100
AcDbTrace
 10
1329.467842459455
 20
2556.04531740457
 30
0.0
 11
1329.467842459455
 21
2546.04531740457
 31
0.0
 12
1299.467842459455
 22
2551.04531740457
 32
0.0
 13
1299.467842459455
 23
2551.04531740457
 33
0.0
  0
SOLID
  5
125A
330
1206
100
AcDbEntity
  8
SUNPO
 62
   144
100
AcDbTrace
 10
1379.467842459455
 20
2556.04531740457
 30
0.0
 11
1379.467842459455
 21
2546.04531740457
 31
0.0
 12
1409.467842459455
 22
2551.04531740457
 32
0.0
 13
1409.467842459455
 23
2551.04531740457
 33
0.0
  0
POINT
  5
125B
330
1206
100
AcDbEntity
  8
DEFPOINTS
 62
     0
100
AcDbPoint
 10
1299.467842459455
 20
2249.0
 30
0.0
  0
POINT
  5
125C
330
1206
100
AcDbEntity
  8
DEFPOINTS
 62
     0
100
AcDbPoint
 10
1409.467842459455
 20
2249.0
 30
0.0
  0
POINT
  5
125D
330
1206
100
AcDbEntity
  8
DEFPOINTS
 62
     0
100
AcDbPoint
 10
1409.467842459455
 20
2551.04531740457
 30
0.0
  0
ENDBLK
  5
1213
330
1206
100
AcDbEntity
  8
0
100
AcDbBlockEnd
  0
BLOCK
  5
1223
330
1217
100
AcDbEntity
  8
0
100
AcDbBlockBegin
  2
*D14
 70
     1
 10
0.0
 20
0.0
 30
0.0
  3
*D14
  1

  0
LINE
  5
123F
330
1217
100
AcDbEntity
  8
SUNPO
 62
   144
100
AcDbLine
 10
1299.467842459455
 20
2269.0
 30
0.0
 11
1299.467842459455
 21
2408.732443147173
 31
0.0
  0
LINE
  5
1240
330
1217
100
AcDbEntity
  8
SUNPO
 62
   144
100
AcDbLine
 10
1349.467842459455
 20
2269.0
 30
0.0
 11
1349.467842459455
 21
2408.732443147173
 31
0.0
  0
LINE
  5
1241
330
1217
100
AcDbEntity
  8
SUNPO
 62
   144
100
AcDbLine
 10
1255.467842459454
 20
2398.732443147173
 30
0.0
 11
1211.467842459454
 21
2398.732443147173
 31
0.0
  0
LINE
  5
1242
330
1217
100
AcDbEntity
  8
SUNPO
 62
   144
100
AcDbLine
 10
1393.467842459455
 20
2398.732443147173
 30
0.0
 11
1437.467842459454
 21
2398.732443147173
 31
0.0
  0
MTEXT
  5
1243
330
1217
100
AcDbEntity
  8
SUNPO
 62
     7
100
AcDbMText
 10
1242.623398651188
 20
2436.232443147173
 30
0.0
 40
50.0
 41
0.0
 71
     5
 72
     1
  1
\A2;50
  7
ADD
1001
ACAD
1000
MTEXTBEGIN
1070
    73
1070
     1
1070
    44
1040
1.0
1070
    74
1070
     0
1000
MTEXTEND
1000
MTEXTBEGIN
1070
    73
1070
     1
1070
    44
1040
1.0
1070
    74
1070
     0
1000
MTEXTEND
  0
LINE
  5
1244
330
1217
100
AcDbEntity
  8
SUNPO
 62
   144
100
AcDbLine
 10
1299.467842459455
 20
2398.732443147173
 30
0.0
 11
1349.467842459455
 21
2398.732443147173
 31
0.0
  0
SOLID
  5
1245
330
1217
100
AcDbEntity
  8
SUNPO
 62
   144
100
AcDbTrace
 10
1255.467842459454
 20
2406.065776480506
 30
0.0
 11
1255.467842459454
 21
2391.39910981384
 31
0.0
 12
1299.467842459455
 22
2398.732443147173
 32
0.0
 13
1299.467842459455
 23
2398.732443147173
 33
0.0
  0
SOLID
  5
1246
330
1217
100
AcDbEntity
  8
SUNPO
 62
   144
100
AcDbTrace
 10
1393.467842459455
 20
2406.065776480506
 30
0.0
 11
1393.467842459455
 21
2391.39910981384
 31
0.0
 12
1349.467842459455
 22
2398.732443147173
 32
0.0
 13
1349.467842459455
 23
2398.732443147173
 33
0.0
  0
POINT
  5
1247
330
1217
100
AcDbEntity
  8
DEFPOINTS
 62
     0
100
AcDbPoint
 10
1299.467842459455
 20
2249.0
 30
0.0
  0
POINT
  5
1248
330
1217
100
AcDbEntity
  8
DEFPOINTS
 62
     0
100
AcDbPoint
 10
1349.467842459455
 20
2249.0
 30
0.0
  0
POINT
  5
1249
330
1217
100
AcDbEntity
  8
DEFPOINTS
 62
     0
100
AcDbPoint
 10
1349.467842459455
 20
2398.732443147173
 30
0.0
  0
ENDBLK
  5
1224
330
1217
100
AcDbEntity
  8
0
100
AcDbBlockEnd
  0
BLOCK
  5
1232
330
1226
100
AcDbEntity
  8
0
100
AcDbBlockBegin
  2
*D15
 70
     1
 10
0.0
 20
0.0
 30
0.0
  3
*D15
  1

  0
LINE
  5
1234
330
1226
100
AcDbEntity
  8
SUNPO
 62
   144
100
AcDbLine
 10
1349.467842459455
 20
2174.0
 30
0.0
 11
1349.467842459455
 21
2062.499412094241
 31
0.0
  0
LINE
  5
1235
330
1226
100
AcDbEntity
  8
SUNPO
 62
   144
100
AcDbLine
 10
1409.467842459455
 20
2174.0
 30
0.0
 11
1409.467842459455
 21
2062.499412094241
 31
0.0
  0
LINE
  5
1236
330
1226
100
AcDbEntity
  8
SUNPO
 62
   144
100
AcDbLine
 10
1305.467842459455
 20
2072.499412094241
 30
0.0
 11
1261.467842459454
 21
2072.499412094241
 31
0.0
  0
LINE
  5
1237
330
1226
100
AcDbEntity
  8
SUNPO
 62
   144
100
AcDbLine
 10
1453.467842459455
 20
2072.499412094241
 30
0.0
 11
1497.467842459455
 21
2072.499412094241
 31
0.0
  0
MTEXT
  5
1238
330
1226
100
AcDbEntity
  8
SUNPO
 62
     7
100
AcDbMText
 10
1474.921320304585
 20
2109.999412094241
 30
0.0
 40
50.0
 41
0.0
 71
     5
 72
     1
  1
\A2;60
  7
ADD
1001
ACAD
1000
MTEXTBEGIN
1070
    73
1070
     1
1070
    44
1040
1.0
1070
    74
1070
     0
1000
MTEXTEND
1000
MTEXTBEGIN
1070
    73
1070
     1
1070
    44
1040
1.0
1070
    74
1070
     0
1000
MTEXTEND
  0
LINE
  5
1239
330
1226
100
AcDbEntity
  8
SUNPO
 62
   144
100
AcDbLine
 10
1349.467842459455
 20
2072.499412094241
 30
0.0
 11
1409.467842459455
 21
2072.499412094241
 31
0.0
  0
SOLID
  5
123A
330
1226
100
AcDbEntity
  8
SUNPO
 62
   144
100
AcDbTrace
 10
1305.467842459455
 20
2079.832745427574
 30
0.0
 11
1305.467842459455
 21
2065.166078760907
 31
0.0
 12
1349.467842459455
 22
2072.499412094241
 32
0.0
 13
1349.467842459455
 23
2072.499412094241
 33
0.0
  0
SOLID
  5
123B
330
1226
100
AcDbEntity
  8
SUNPO
 62
   144
100
AcDbTrace
 10
1453.467842459455
 20
2079.832745427574
 30
0.0
 11
1453.467842459455
 21
2065.166078760907
 31
0.0
 12
1409.467842459455
 22
2072.499412094241
 32
0.0
 13
1409.467842459455
 23
2072.499412094241
 33
0.0
  0
POINT
  5
123C
330
1226
100
AcDbEntity
  8
DEFPOINTS
 62
     0
100
AcDbPoint
 10
1349.467842459455
 20
2194.0
 30
0.0
  0
POINT
  5
123D
330
1226
100
AcDbEntity
  8
DEFPOINTS
 62
     0
100
AcDbPoint
 10
1409.467842459455
 20
2194.0
 30
0.0
  0
POINT
  5
123E
330
1226
100
AcDbEntity
  8
DEFPOINTS
 62
     0
100
AcDbPoint
 10
1409.467842459455
 20
2072.499412094241
 30
0.0
  0
ENDBLK
  5
1233
330
1226
100
AcDbEntity
  8
0
100
AcDbBlockEnd
  0
BLOCK
  5
12AF
330
12A5
100
AcDbEntity
  8
0
100
AcDbBlockBegin
  2
*D16
 70
     1
 10
0.0
 20
0.0
 30
0.0
  3
*D16
  1

  0
LINE
  5
148A
330
12A5
100
AcDbEntity
  8
SUNPO
 62
   144
100
AcDbLine
 10
2970.0
 20
1891.0
 30
0.0
 11
2970.0
 21
1960.0
 31
0.0
  0
LINE
  5
148B
330
12A5
100
AcDbEntity
  8
SUNPO
 62
   144
100
AcDbLine
 10
3620.0
 20
1891.0
 30
0.0
 11
3620.0
 21
1960.0
 31
0.0
  0
LINE
  5
148C
330
12A5
100
AcDbEntity
  8
SUNPO
 62
   144
100
AcDbLine
 10
3014.0
 20
1950.0
 30
0.0
 11
3576.0
 21
1950.0
 31
0.0
  0
SOLID
  5
148D
330
12A5
100
AcDbEntity
  8
SUNPO
 62
   144
100
AcDbTrace
 10
3014.0
 20
1957.333333333333
 30
0.0
 11
3014.0
 21
1942.666666666666
 31
0.0
 12
2970.0
 22
1950.0
 32
0.0
 13
2970.0
 23
1950.0
 33
0.0
  0
SOLID
  5
148E
330
12A5
100
AcDbEntity
  8
SUNPO
 62
   144
100
AcDbTrace
 10
3576.0
 20
1957.333333333333
 30
0.0
 11
3576.0
 21
1942.666666666666
 31
0.0
 12
3620.0
 22
1950.0
 32
0.0
 13
3620.0
 23
1950.0
 33
0.0
  0
MTEXT
  5
148F
330
12A5
100
AcDbEntity
  8
SUNPO
 62
     7
100
AcDbMText
 10
3295.0
 20
1987.5
 30
0.0
 40
50.0
 41
0.0
 71
     5
 72
     1
  1
\A2;650
  7
ADD
1001
ACAD
1000
MTEXTBEGIN
1070
    73
1070
     1
1070
    44
1040
1.0
1070
    74
1070
     0
1000
MTEXTEND
1000
MTEXTBEGIN
1070
    73
1070
     1
1070
    44
1040
1.0
1070
    74
1070
     0
1000
MTEXTEND
  0
POINT
  5
1490
330
12A5
100
AcDbEntity
  8
DEFPOINTS
 62
     0
100
AcDbPoint
 10
2970.0
 20
1871.0
 30
0.0
  0
POINT
  5
1491
330
12A5
100
AcDbEntity
  8
DEFPOINTS
 62
     0
100
AcDbPoint
 10
3620.0
 20
1871.0
 30
0.0
  0
POINT
  5
1492
330
12A5
100
AcDbEntity
  8
DEFPOINTS
 62
     0
100
AcDbPoint
 10
3620.0
 20
1950.0
 30
0.0
  0
ENDBLK
  5
12B0
330
12A5
100
AcDbEntity
  8
0
100
AcDbBlockEnd
  0
BLOCK
  5
12BC
330
12B2
100
AcDbEntity
  8
0
100
AcDbBlockBegin
  2
*D17
 70
     1
 10
0.0
 20
0.0
 30
0.0
  3
*D17
  1

  0
LINE
  5
1481
330
12B2
100
AcDbEntity
  8
SUNPO
 62
   144
100
AcDbLine
 10
3440.0
 20
1651.0
 30
0.0
 11
3774.462063596455
 21
1650.999999999999
 31
0.0
  0
LINE
  5
1482
330
12B2
100
AcDbEntity
  8
SUNPO
 62
   144
100
AcDbLine
 10
3640.0
 20
1871.0
 30
0.0
 11
3774.462063596455
 21
1871.0
 31
0.0
  0
LINE
  5
1483
330
12B2
100
AcDbEntity
  8
SUNPO
 62
   144
100
AcDbLine
 10
3764.462063596455
 20
1695.0
 30
0.0
 11
3764.462063596455
 21
1827.0
 31
0.0
  0
SOLID
  5
1484
330
12B2
100
AcDbEntity
  8
SUNPO
 62
   144
100
AcDbTrace
 10
3757.128730263121
 20
1695.0
 30
0.0
 11
3771.795396929788
 21
1695.0
 31
0.0
 12
3764.462063596455
 22
1650.999999999999
 32
0.0
 13
3764.462063596455
 23
1650.999999999999
 33
0.0
  0
SOLID
  5
1485
330
12B2
100
AcDbEntity
  8
SUNPO
 62
   144
100
AcDbTrace
 10
3757.128730263121
 20
1827.0
 30
0.0
 11
3771.795396929788
 21
1827.0
 31
0.0
 12
3764.462063596455
 22
1871.0
 32
0.0
 13
3764.462063596455
 23
1871.0
 33
0.0
  0
MTEXT
  5
1486
330
12B2
100
AcDbEntity
  8
SUNPO
 62
     7
100
AcDbMText
 10
3726.962063596454
 20
1761.0
 30
0.0
 40
50.0
 41
0.0
 71
     5
 72
     1
  1
\A2;220
  7
ADD
 11
0.0000000000000001
 21
1.0
 31
0.0
1001
ACAD
1000
MTEXTBEGIN
1070
    73
1070
     1
1070
    44
1040
1.0
1070
    74
1070
     0
1000
MTEXTEND
1000
MTEXTBEGIN
1070
    73
1070
     1
1070
    44
1040
1.0
1070
    74
1070
     0
1000
MTEXTEND
  0
POINT
  5
1487
330
12B2
100
AcDbEntity
  8
DEFPOINTS
 62
     0
100
AcDbPoint
 10
3420.0
 20
1651.0
 30
0.0
  0
POINT
  5
1488
330
12B2
100
AcDbEntity
  8
DEFPOINTS
 62
     0
100
AcDbPoint
 10
3620.0
 20
1871.0
 30
0.0
  0
POINT
  5
1489
330
12B2
100
AcDbEntity
  8
DEFPOINTS
 62
     0
100
AcDbPoint
 10
3764.462063596455
 20
1871.0
 30
0.0
  0
ENDBLK
  5
12BD
330
12B2
100
AcDbEntity
  8
0
100
AcDbBlockEnd
  0
BLOCK
  5
12DE
330
12D2
100
AcDbEntity
  8
0
100
AcDbBlockBegin
  2
*D18
 70
     1
 10
0.0
 20
0.0
 30
0.0
  3
*D18
  1

  0
LINE
  5
130D
330
12D2
100
AcDbEntity
  8
SUNPO
 62
   144
100
AcDbLine
 10
2950.0
 20
1651.0
 30
0.0
 11
2637.503422232899
 21
1651.0
 31
0.0
  0
LINE
  5
130E
330
12D2
100
AcDbEntity
  8
SUNPO
 62
   144
100
AcDbLine
 10
2950.0
 20
1711.0
 30
0.0
 11
2637.503422232899
 21
1711.0
 31
0.0
  0
LINE
  5
130F
330
12D2
100
AcDbEntity
  8
SUNPO
 62
   144
100
AcDbLine
 10
2647.503422232899
 20
1607.0
 30
0.0
 11
2647.503422232899
 21
1563.0
 31
0.0
  0
LINE
  5
1310
330
12D2
100
AcDbEntity
  8
SUNPO
 62
   144
100
AcDbLine
 10
2647.503422232899
 20
1755.0
 30
0.0
 11
2647.503422232899
 21
1799.0
 31
0.0
  0
MTEXT
  5
1311
330
12D2
100
AcDbEntity
  8
SUNPO
 62
     7
100
AcDbMText
 10
2610.003422232899
 20
1597.49351886101
 30
0.0
 40
50.0
 41
0.0
 71
     5
 72
     1
  1
\A2;60
  7
ADD
 11
0.0000000000000001
 21
1.0
 31
0.0
1001
ACAD
1000
MTEXTBEGIN
1070
    73
1070
     1
1070
    44
1040
1.0
1070
    74
1070
     0
1000
MTEXTEND
1000
MTEXTBEGIN
1070
    73
1070
     1
1070
    44
1040
1.0
1070
    74
1070
     0
1000
MTEXTEND
  0
LINE
  5
1312
330
12D2
100
AcDbEntity
  8
SUNPO
 62
   144
100
AcDbLine
 10
2647.503422232899
 20
1651.0
 30
0.0
 11
2647.503422232899
 21
1711.0
 31
0.0
  0
SOLID
  5
1313
330
12D2
100
AcDbEntity
  8
SUNPO
 62
   144
100
AcDbTrace
 10
2640.170088899566
 20
1607.0
 30
0.0
 11
2654.836755566233
 21
1607.0
 31
0.0
 12
2647.503422232899
 22
1651.0
 32
0.0
 13
2647.503422232899
 23
1651.0
 33
0.0
  0
SOLID
  5
1314
330
12D2
100
AcDbEntity
  8
SUNPO
 62
   144
100
AcDbTrace
 10
2640.170088899566
 20
1755.0
 30
0.0
 11
2654.836755566233
 21
1755.0
 31
0.0
 12
2647.503422232899
 22
1711.0
 32
0.0
 13
2647.503422232899
 23
1711.0
 33
0.0
  0
POINT
  5
1315
330
12D2
100
AcDbEntity
  8
DEFPOINTS
 62
     0
100
AcDbPoint
 10
2970.0
 20
1651.0
 30
0.0
  0
POINT
  5
1316
330
12D2
100
AcDbEntity
  8
DEFPOINTS
 62
     0
100
AcDbPoint
 10
2970.0
 20
1711.0
 30
0.0
  0
POINT
  5
1317
330
12D2
100
AcDbEntity
  8
DEFPOINTS
 62
     0
100
AcDbPoint
 10
2647.503422232899
 20
1711.0
 30
0.0
  0
ENDBLK
  5
12DF
330
12D2
100
AcDbEntity
  8
0
100
AcDbBlockEnd
  0
BLOCK
  5
12ED
330
12E1
100
AcDbEntity
  8
0
100
AcDbBlockBegin
  2
*D19
 70
     1
 10
0.0
 20
0.0
 30
0.0
  3
*D19
  1

  0
LINE
  5
1318
330
12E1
100
AcDbEntity
  8
SUNPO
 62
   144
100
AcDbLine
 10
2950.0
 20
2249.0
 30
0.0
 11
2637.503422232899
 21
2249.0
 31
0.0
  0
LINE
  5
1319
330
12E1
100
AcDbEntity
  8
SUNPO
 62
   144
100
AcDbLine
 10
2950.0
 20
2189.0
 30
0.0
 11
2637.503422232899
 21
2189.0
 31
0.0
  0
LINE
  5
131A
330
12E1
100
AcDbEntity
  8
SUNPO
 62
   144
100
AcDbLine
 10
2647.503422232899
 20
2293.0
 30
0.0
 11
2647.503422232899
 21
2337.0
 31
0.0
  0
LINE
  5
131B
330
12E1
100
AcDbEntity
  8
SUNPO
 62
   144
100
AcDbLine
 10
2647.503422232899
 20
2145.0
 30
0.0
 11
2647.503422232899
 21
2101.0
 31
0.0
  0
MTEXT
  5
131C
330
12E1
100
AcDbEntity
  8
SUNPO
 62
     7
100
AcDbMText
 10
2610.003422232899
 20
2309.547605360872
 30
0.0
 40
50.0
 41
0.0
 71
     5
 72
     1
  1
\A2;60
  7
ADD
 11
0.0000000000000001
 21
1.0
 31
0.0
1001
ACAD
1000
MTEXTBEGIN
1070
    73
1070
     1
1070
    44
1040
1.0
1070
    74
1070
     0
1000
MTEXTEND
1000
MTEXTBEGIN
1070
    73
1070
     1
1070
    44
1040
1.0
1070
    74
1070
     0
1000
MTEXTEND
  0
LINE
  5
131D
330
12E1
100
AcDbEntity
  8
SUNPO
 62
   144
100
AcDbLine
 10
2647.503422232899
 20
2249.0
 30
0.0
 11
2647.503422232899
 21
2189.0
 31
0.0
  0
SOLID
  5
131E
330
12E1
100
AcDbEntity
  8
SUNPO
 62
   144
100
AcDbTrace
 10
2640.170088899566
 20
2293.0
 30
0.0
 11
2654.836755566233
 21
2293.0
 31
0.0
 12
2647.503422232899
 22
2249.0
 32
0.0
 13
2647.503422232899
 23
2249.0
 33
0.0
  0
SOLID
  5
131F
330
12E1
100
AcDbEntity
  8
SUNPO
 62
   144
100
AcDbTrace
 10
2640.170088899566
 20
2145.0
 30
0.0
 11
2654.836755566233
 21
2145.0
 31
0.0
 12
2647.503422232899
 22
2189.0
 32
0.0
 13
2647.503422232899
 23
2189.0
 33
0.0
  0
POINT
  5
1320
330
12E1
100
AcDbEntity
  8
DEFPOINTS
 62
     0
100
AcDbPoint
 10
2970.0
 20
2249.0
 30
0.0
  0
POINT
  5
1321
330
12E1
100
AcDbEntity
  8
DEFPOINTS
 62
     0
100
AcDbPoint
 10
2970.0
 20
2189.0
 30
0.0
  0
POINT
  5
1322
330
12E1
100
AcDbEntity
  8
DEFPOINTS
 62
     0
100
AcDbPoint
 10
2647.503422232899
 20
2189.0
 30
0.0
  0
ENDBLK
  5
12EE
330
12E1
100
AcDbEntity
  8
0
100
AcDbBlockEnd
  0
BLOCK
  5
12FC
330
12F0
100
AcDbEntity
  8
0
100
AcDbBlockBegin
  2
*D20
 70
     1
 10
0.0
 20
0.0
 30
0.0
  3
*D20
  1

  0
LINE
  5
1339
330
12F0
100
AcDbEntity
  8
SUNPO
 62
   144
100
AcDbLine
 10
2950.0
 20
1711.0
 30
0.0
 11
2802.34726391341
 21
1711.0
 31
0.0
  0
LINE
  5
133A
330
12F0
100
AcDbEntity
  8
SUNPO
 62
   144
100
AcDbLine
 10
2950.0
 20
1726.0
 30
0.0
 11
2802.34726391341
 21
1726.0
 31
0.0
  0
LINE
  5
133B
330
12F0
100
AcDbEntity
  8
SUNPO
 62
   144
100
AcDbLine
 10
2812.347263913411
 20
1667.0
 30
0.0
 11
2812.347263913411
 21
1623.0
 31
0.0
  0
LINE
  5
133C
330
12F0
100
AcDbEntity
  8
SUNPO
 62
   144
100
AcDbLine
 10
2812.347263913411
 20
1770.0
 30
0.0
 11
2812.347263913411
 21
1814.0
 31
0.0
  0
MTEXT
  5
133D
330
12F0
100
AcDbEntity
  8
SUNPO
 62
     7
100
AcDbMText
 10
2774.84726391341
 20
1754.344970700328
 30
0.0
 40
50.0
 41
0.0
 71
     5
 72
     1
  1
\A2;15
  7
ADD
 11
0.0000000000000001
 21
1.0
 31
0.0
1001
ACAD
1000
MTEXTBEGIN
1070
    73
1070
     1
1070
    44
1040
1.0
1070
    74
1070
     0
1000
MTEXTEND
1000
MTEXTBEGIN
1070
    73
1070
     1
1070
    44
1040
1.0
1070
    74
1070
     0
1000
MTEXTEND
  0
LINE
  5
133E
330
12F0
100
AcDbEntity
  8
SUNPO
 62
   144
100
AcDbLine
 10
2812.347263913411
 20
1711.0
 30
0.0
 11
2812.347263913411
 21
1726.0
 31
0.0
  0
SOLID
  5
133F
330
12F0
100
AcDbEntity
  8
SUNPO
 62
   144
100
AcDbTrace
 10
2805.013930580077
 20
1667.0
 30
0.0
 11
2819.680597246744
 21
1667.0
 31
0.0
 12
2812.347263913411
 22
1711.0
 32
0.0
 13
2812.347263913411
 23
1711.0
 33
0.0
  0
SOLID
  5
1340
330
12F0
100
AcDbEntity
  8
SUNPO
 62
   144
100
AcDbTrace
 10
2805.013930580077
 20
1770.0
 30
0.0
 11
2819.680597246744
 21
1770.0
 31
0.0
 12
2812.347263913411
 22
1726.0
 32
0.0
 13
2812.347263913411
 23
1726.0
 33
0.0
  0
POINT
  5
1341
330
12F0
100
AcDbEntity
  8
DEFPOINTS
 62
     0
100
AcDbPoint
 10
2970.0
 20
1711.0
 30
0.0
  0
POINT
  5
1342
330
12F0
100
AcDbEntity
  8
DEFPOINTS
 62
     0
100
AcDbPoint
 10
2970.0
 20
1726.0
 30
0.0
  0
POINT
  5
1343
330
12F0
100
AcDbEntity
  8
DEFPOINTS
 62
     0
100
AcDbPoint
 10
2812.347263913411
 20
1726.0
 30
0.0
  0
ENDBLK
  5
12FD
330
12F0
100
AcDbEntity
  8
0
100
AcDbBlockEnd
  0
BLOCK
  5
130B
330
12FF
100
AcDbEntity
  8
0
100
AcDbBlockBegin
  2
*D21
 70
     1
 10
0.0
 20
0.0
 30
0.0
  3
*D21
  1

  0
LINE
  5
1323
330
12FF
100
AcDbEntity
  8
SUNPO
 62
   144
100
AcDbLine
 10
2950.0
 20
2189.0
 30
0.0
 11
2802.34726391341
 21
2189.0
 31
0.0
  0
LINE
  5
1324
330
12FF
100
AcDbEntity
  8
SUNPO
 62
   144
100
AcDbLine
 10
2950.0
 20
2174.0
 30
0.0
 11
2802.34726391341
 21
2174.0
 31
0.0
  0
LINE
  5
1325
330
12FF
100
AcDbEntity
  8
SUNPO
 62
   144
100
AcDbLine
 10
2812.347263913411
 20
2233.0
 30
0.0
 11
2812.347263913411
 21
2277.0
 31
0.0
  0
LINE
  5
1326
330
12FF
100
AcDbEntity
  8
SUNPO
 62
   144
100
AcDbLine
 10
2812.347263913411
 20
2130.0
 30
0.0
 11
2812.347263913411
 21
2086.0
 31
0.0
  0
MTEXT
  5
1327
330
12FF
100
AcDbEntity
  8
SUNPO
 62
     7
100
AcDbMText
 10
2774.84726391341
 20
2144.595238095238
 30
0.0
 40
50.0
 41
0.0
 71
     5
 72
     1
  1
\A2;15
  7
ADD
 11
0.0000000000000001
 21
1.0
 31
0.0
1001
ACAD
1000
MTEXTBEGIN
1070
    73
1070
     1
1070
    44
1040
1.0
1070
    74
1070
     0
1000
MTEXTEND
1000
MTEXTBEGIN
1070
    73
1070
     1
1070
    44
1040
1.0
1070
    74
1070
     0
1000
MTEXTEND
  0
LINE
  5
1328
330
12FF
100
AcDbEntity
  8
SUNPO
 62
   144
100
AcDbLine
 10
2812.347263913411
 20
2189.0
 30
0.0
 11
2812.347263913411
 21
2174.0
 31
0.0
  0
SOLID
  5
1329
330
12FF
100
AcDbEntity
  8
SUNPO
 62
   144
100
AcDbTrace
 10
2805.013930580077
 20
2233.0
 30
0.0
 11
2819.680597246744
 21
2233.0
 31
0.0
 12
2812.347263913411
 22
2189.0
 32
0.0
 13
2812.347263913411
 23
2189.0
 33
0.0
  0
SOLID
  5
132A
330
12FF
100
AcDbEntity
  8
SUNPO
 62
   144
100
AcDbTrace
 10
2805.013930580077
 20
2130.0
 30
0.0
 11
2819.680597246744
 21
2130.0
 31
0.0
 12
2812.347263913411
 22
2174.0
 32
0.0
 13
2812.347263913411
 23
2174.0
 33
0.0
  0
POINT
  5
132B
330
12FF
100
AcDbEntity
  8
DEFPOINTS
 62
     0
100
AcDbPoint
 10
2970.0
 20
2189.0
 30
0.0
  0
POINT
  5
132C
330
12FF
100
AcDbEntity
  8
DEFPOINTS
 62
     0
100
AcDbPoint
 10
2970.0
 20
2174.0
 30
0.0
  0
POINT
  5
132D
330
12FF
100
AcDbEntity
  8
DEFPOINTS
 62
     0
100
AcDbPoint
 10
2812.347263913411
 20
2174.0
 30
0.0
  0
ENDBLK
  5
130C
330
12FF
100
AcDbEntity
  8
0
100
AcDbBlockEnd
  0
ENDSEC
  0
SECTION
  2
ENTITIES
  0
LINE
  5
60A
330
1F
100
AcDbEntity
  8
HOJO
100
AcDbLine
 10
360.0
 20
260.0
 30
0.0
 11
5580.0
 21
260.0
 31
0.0
  0
LINE
  5
60B
330
1F
100
AcDbEntity
  8
HOJO
100
AcDbLine
 10
360.0
 20
560.0
 30
0.0
 11
5580.0
 21
560.0
 31
0.0
  0
LINE
  5
60C
330
1F
100
AcDbEntity
  8
HOJO
100
AcDbLine
 10
360.0
 20
260.0
 30
0.0
 11
360.0
 21
560.0
 31
0.0
  0
LINE
  5
60D
330
1F
100
AcDbEntity
  8
HOJO
100
AcDbLine
 10
2360.0
 20
260.0
 30
0.0
 11
2360.0
 21
560.0
 31
0.0
  0
LINE
  5
60F
330
1F
100
AcDbEntity
  8
HOJO
100
AcDbLine
 10
3160.0
 20
260.0
 30
0.0
 11
3160.0
 21
560.0
 31
0.0
  0
LINE
  5
610
330
1F
100
AcDbEntity
  8
HOJO
100
AcDbLine
 10
3660.0
 20
260.0
 30
0.0
 11
3660.0
 21
560.0
 31
0.0
  0
LINE
  5
E73
330
1F
100
AcDbEntity
  8
3C1
100
AcDbLine
 10
2970.0
 20
1651.0
 30
0.0
 11
2970.0
 21
2249.0
 31
0.0
  0
LINE
  5
E74
330
1F
100
AcDbEntity
  8
3C1
100
AcDbLine
 10
2970.0
 20
2249.0
 30
0.0
 11
4270.0
 21
2249.0
 31
0.0
  0
LINE
  5
E75
330
1F
100
AcDbEntity
  8
3C1
100
AcDbLine
 10
4270.0
 20
2249.0
 30
0.0
 11
3972.0
 21
2249.0
 31
0.0
  0
LINE
  5
E76
330
1F
100
AcDbEntity
  8
3C1
100
AcDbLine
 10
4270.0
 20
2249.0
 30
0.0
 11
4270.0
 21
1651.0
 31
0.0
  0
LINE
  5
E77
330
1F
100
AcDbEntity
  8
3C1
100
AcDbLine
 10
4270.0
 20
1651.0
 30
0.0
 11
2970.0
 21
1651.0
 31
0.0
  0
LINE
  5
E7A
330
1F
100
AcDbEntity
  8
3C1
100
AcDbLine
 10
3070.0
 20
1711.0
 30
0.0
 11
3070.0
 21
2189.0
 31
0.0
  0
LINE
  5
E7B
330
1F
100
AcDbEntity
  8
3C1
100
AcDbLine
 10
4170.0
 20
2189.0
 30
0.0
 11
4170.0
 21
1711.0
 31
0.0
  0
LINE
  5
E7C
330
1F
100
AcDbEntity
  8
3C1
100
AcDbLine
 10
3130.0
 20
1726.0
 30
0.0
 11
3130.0
 21
2174.0
 31
0.0
  0
LINE
  5
E7D
330
1F
100
AcDbEntity
  8
3C1
100
AcDbLine
 10
4110.0
 20
2174.0
 30
0.0
 11
4110.0
 21
1726.0
 31
0.0
  0
LINE
  5
E7E
330
1F
100
AcDbEntity
  8
3C1
100
AcDbLine
 10
3070.0
 20
2189.0
 30
0.0
 11
4170.0
 21
2189.0
 31
0.0
  0
LINE
  5
E7F
330
1F
100
AcDbEntity
  8
3C1
100
AcDbLine
 10
4170.0
 20
1711.0
 30
0.0
 11
3070.0
 21
1711.0
 31
0.0
  0
LINE
  5
E80
330
1F
100
AcDbEntity
  8
3C1
100
AcDbLine
 10
4110.0
 20
1726.0
 30
0.0
 11
3130.0
 21
1726.0
 31
0.0
  0
LINE
  5
E81
330
1F
100
AcDbEntity
  8
3C1
100
AcDbLine
 10
3130.0
 20
2174.0
 30
0.0
 11
4110.0
 21
2174.0
 31
0.0
  0
LINE
  5
E82
330
1F
100
AcDbEntity
  8
3C1
100
AcDbLine
 10
3070.0
 20
2189.0
 30
0.0
 11
3130.0
 21
2174.0
 31
0.0
  0
LINE
  5
E83
330
1F
100
AcDbEntity
  8
3C1
100
AcDbLine
 10
3130.0
 20
1726.0
 30
0.0
 11
3070.0
 21
1711.0
 31
0.0
  0
LINE
  5
E85
330
1F
100
AcDbEntity
  8
3C1
100
AcDbLine
 10
4110.0
 20
1726.0
 30
0.0
 11
4170.0
 21
1711.0
 31
0.0
  0
LINE
  5
E86
330
1F
100
AcDbEntity
  8
3C1
100
AcDbLine
 10
4110.0
 20
2174.0
 30
0.0
 11
4170.0
 21
2189.0
 31
0.0
  0
LINE
  5
E88
330
1F
100
AcDbEntity
  8
3C1
100
AcDbLine
 10
2170.0
 20
1651.0
 30
0.0
 11
2170.0
 21
2249.0
 31
0.0
  0
LINE
  5
E89
330
1F
100
AcDbEntity
  8
3C1
100
AcDbLine
 10
2060.0
 20
1651.0
 30
0.0
 11
2060.0
 21
2249.0
 31
0.0
  0
LINE
  5
E8A
330
1F
100
AcDbEntity
  8
3C1
100
AcDbLine
 10
2060.0
 20
2249.0
 30
0.0
 11
2170.0
 21
2249.0
 31
0.0
  0
LINE
  5
E8C
330
1F
100
AcDbEntity
  8
3C1
100
AcDbLine
 10
2060.0
 20
1651.0
 30
0.0
 11
2170.0
 21
1651.0
 31
0.0
  0
LINE
  5
E8D
330
1F
100
AcDbEntity
  8
3C1
100
AcDbLine
 10
2120.0
 20
1651.0
 30
0.0
 11
2120.0
 21
2249.0
 31
0.0
  0
LINE
  5
E8F
330
1F
100
AcDbEntity
  8
4H1
100
AcDbLine
 10
2110.0
 20
2174.0
 30
0.0
 11
2170.0
 21
2189.0
 31
0.0
  0
LINE
  5
E90
330
1F
100
AcDbEntity
  8
4H1
100
AcDbLine
 10
2110.0
 20
1726.0
 30
0.0
 11
2170.0
 21
1711.0
 31
0.0
  0
LINE
  5
E91
330
1F
100
AcDbEntity
  8
4H1
100
AcDbLine
 10
2110.0
 20
2174.0
 30
0.0
 11
2110.0
 21
1726.0
 31
0.0
  0
LINE
  5
1161
330
1F
100
AcDbEntity
  8
MOJI
100
AcDbLine
 10
3676.953265172657
 20
1546.611128792556
 30
0.0
 11
3676.953265172657
 21
1546.611128792556
 31
0.0
  0
LINE
  5
118C
330
1F
100
AcDbEntity
  8
SUNPO
100
AcDbLine
 10
3379.446624029148
 20
1550.341926821376
 30
0.0
 11
3379.446624029148
 21
1614.938969035467
 31
0.0
  0
LINE
  5
118E
330
1F
100
AcDbEntity
  8
SUNPO
100
AcDbLine
 10
3379.446624029148
 20
2349.658073178623
 30
0.0
 11
3379.446624029148
 21
2285.061030964532
 31
0.0
  0
LINE
  5
11FC
330
1F
100
AcDbEntity
  8
3C1
100
AcDbLine
 10
1349.467842459455
 20
2174.0
 30
0.0
 11
1349.467842459455
 21
1726.0
 31
0.0
  0
LINE
  5
11FD
330
1F
100
AcDbEntity
  8
3C1
100
AcDbLine
 10
1349.467842459455
 20
1726.0
 30
0.0
 11
1409.467842459455
 21
1711.0
 31
0.0
  0
LINE
  5
11FE
330
1F
100
AcDbEntity
  8
3C1
100
AcDbLine
 10
1349.467842459455
 20
2174.0
 30
0.0
 11
1409.467842459455
 21
2189.0
 31
0.0
  0
LINE
  5
1200
330
1F
100
AcDbEntity
  8
3C1
100
AcDbLine
 10
1299.467842459455
 20
1651.0
 30
0.0
 11
1409.467842459455
 21
1651.0
 31
0.0
  0
LINE
  5
1201
330
1F
100
AcDbEntity
  8
3C1
100
AcDbLine
 10
1299.467842459455
 20
2249.0
 30
0.0
 11
1409.467842459455
 21
2249.0
 31
0.0
  0
LINE
  5
1202
330
1F
100
AcDbEntity
  8
3C1
100
AcDbLine
 10
1299.467842459455
 20
1651.0
 30
0.0
 11
1299.467842459455
 21
2249.0
 31
0.0
  0
LINE
  5
1203
330
1F
100
AcDbEntity
  8
3C1
100
AcDbLine
 10
1409.467842459455
 20
1651.0
 30
0.0
 11
1409.467842459455
 21
1711.0
 31
0.0
  0
LINE
  5
1204
330
1F
100
AcDbEntity
  8
3C1
100
AcDbLine
 10
1409.467842459455
 20
2189.0
 30
0.0
 11
1409.467842459455
 21
2249.0
 31
0.0
  0
CIRCLE
  5
12A1
330
1F
100
AcDbEntity
  8
MOJI
100
AcDbCircle
 10
3620.0
 20
1871.0
 30
0.0
 40
20.0
  0
LINE
  5
1521
330
1F
100
AcDbEntity
  8
SUNPO
 62
   144
100
AcDbLine
 10
2950.0
 20
2189.0
 30
0.0
 11
2802.34726391341
 21
2189.0
 31
0.0
  0
LINE
  5
1522
330
1F
100
AcDbEntity
  8
SUNPO
 62
   144
100
AcDbLine
 10
2950.0
 20
2174.0
 30
0.0
 11
2802.34726391341
 21
2174.0
 31
0.0
  0
LINE
  5
1523
330
1F
100
AcDbEntity
  8
SUNPO
 62
   144
100
AcDbLine
 10
2812.347263913411
 20
2233.0
 30
0.0
 11
2812.347263913411
 21
2277.0
 31
0.0
  0
LINE
  5
1524
330
1F
100
AcDbEntity
  8
SUNPO
 62
   144
100
AcDbLine
 10
2812.347263913411
 20
2130.0
 30
0.0
 11
2812.347263913411
 21
2086.0
 31
0.0
  0
LINE
  5
1526
330
1F
100
AcDbEntity
  8
SUNPO
 62
   144
100
AcDbLine
 10
2812.347263913411
 20
2189.0
 30
0.0
 11
2812.347263913411
 21
2174.0
 31
0.0
  0
SOLID
  5
1527
330
1F
100
AcDbEntity
  8
SUNPO
 62
   144
100
AcDbTrace
 10
2805.013930580077
 20
2233.0
 30
0.0
 11
2819.680597246744
 21
2233.0
 31
0.0
 12
2812.347263913411
 22
2189.0
 32
0.0
 13
2812.347263913411
 23
2189.0
 33
0.0
  0
SOLID
  5
1528
330
1F
100
AcDbEntity
  8
SUNPO
 62
   144
100
AcDbTrace
 10
2805.013930580077
 20
2130.0
 30
0.0
 11
2819.680597246744
 21
2130.0
 31
0.0
 12
2812.347263913411
 22
2174.0
 32
0.0
 13
2812.347263913411
 23
2174.0
 33
0.0
  0
LINE
  5
1529
330
1F
100
AcDbEntity
  8
SUNPO
 62
   144
100
AcDbLine
 10
2950.0
 20
1711.0
 30
0.0
 11
2802.34726391341
 21
1711.0
 31
0.0
  0
LINE
  5
152A
330
1F
100
AcDbEntity
  8
SUNPO
 62
   144
100
AcDbLine
 10
2950.0
 20
1726.0
 30
0.0
 11
2802.34726391341
 21
1726.0
 31
0.0
  0
LINE
  5
152B
330
1F
100
AcDbEntity
  8
SUNPO
 62
   144
100
AcDbLine
 10
2812.347263913411
 20
1667.0
 30
0.0
 11
2812.347263913411
 21
1623.0
 31
0.0
  0
LINE
  5
152C
330
1F
100
AcDbEntity
  8
SUNPO
 62
   144
100
AcDbLine
 10
2812.347263913411
 20
1770.0
 30
0.0
 11
2812.347263913411
 21
1814.0
 31
0.0
  0
LINE
  5
152E
330
1F
100
AcDbEntity
  8
SUNPO
 62
   144
100
AcDbLine
 10
2812.347263913411
 20
1711.0
 30
0.0
 11
2812.347263913411
 21
1726.0
 31
0.0
  0
SOLID
  5
152F
330
1F
100
AcDbEntity
  8
SUNPO
 62
   144
100
AcDbTrace
 10
2805.013930580077
 20
1667.0
 30
0.0
 11
2819.680597246744
 21
1667.0
 31
0.0
 12
2812.347263913411
 22
1711.0
 32
0.0
 13
2812.347263913411
 23
1711.0
 33
0.0
  0
SOLID
  5
1530
330
1F
100
AcDbEntity
  8
SUNPO
 62
   144
100
AcDbTrace
 10
2805.013930580077
 20
1770.0
 30
0.0
 11
2819.680597246744
 21
1770.0
 31
0.0
 12
2812.347263913411
 22
1726.0
 32
0.0
 13
2812.347263913411
 23
1726.0
 33
0.0
  0
LINE
  5
1531
330
1F
100
AcDbEntity
  8
SUNPO
 62
   144
100
AcDbLine
 10
2950.0
 20
2249.0
 30
0.0
 11
2637.503422232899
 21
2249.0
 31
0.0
  0
LINE
  5
1532
330
1F
100
AcDbEntity
  8
SUNPO
 62
   144
100
AcDbLine
 10
2950.0
 20
2189.0
 30
0.0
 11
2637.503422232899
 21
2189.0
 31
0.0
  0
LINE
  5
1533
330
1F
100
AcDbEntity
  8
SUNPO
 62
   144
100
AcDbLine
 10
2647.503422232899
 20
2293.0
 30
0.0
 11
2647.503422232899
 21
2337.0
 31
0.0
  0
LINE
  5
1534
330
1F
100
AcDbEntity
  8
SUNPO
 62
   144
100
AcDbLine
 10
2647.503422232899
 20
2145.0
 30
0.0
 11
2647.503422232899
 21
2101.0
 31
0.0
  0
LINE
  5
1536
330
1F
100
AcDbEntity
  8
SUNPO
 62
   144
100
AcDbLine
 10
2647.503422232899
 20
2249.0
 30
0.0
 11
2647.503422232899
 21
2189.0
 31
0.0
  0
SOLID
  5
1537
330
1F
100
AcDbEntity
  8
SUNPO
 62
   144
100
AcDbTrace
 10
2640.170088899566
 20
2293.0
 30
0.0
 11
2654.836755566233
 21
2293.0
 31
0.0
 12
2647.503422232899
 22
2249.0
 32
0.0
 13
2647.503422232899
 23
2249.0
 33
0.0
  0
SOLID
  5
1538
330
1F
100
AcDbEntity
  8
SUNPO
 62
   144
100
AcDbTrace
 10
2640.170088899566
 20
2145.0
 30
0.0
 11
2654.836755566233
 21
2145.0
 31
0.0
 12
2647.503422232899
 22
2189.0
 32
0.0
 13
2647.503422232899
 23
2189.0
 33
0.0
  0
LINE
  5
1539
330
1F
100
AcDbEntity
  8
SUNPO
 62
   144
100
AcDbLine
 10
2950.0
 20
1651.0
 30
0.0
 11
2637.503422232899
 21
1651.0
 31
0.0
  0
LINE
  5
153A
330
1F
100
AcDbEntity
  8
SUNPO
 62
   144
100
AcDbLine
 10
2950.0
 20
1711.0
 30
0.0
 11
2637.503422232899
 21
1711.0
 31
0.0
  0
LINE
  5
153B
330
1F
100
AcDbEntity
  8
SUNPO
 62
   144
100
AcDbLine
 10
2647.503422232899
 20
1607.0
 30
0.0
 11
2647.503422232899
 21
1563.0
 31
0.0
  0
LINE
  5
153C
330
1F
100
AcDbEntity
  8
SUNPO
 62
   144
100
AcDbLine
 10
2647.503422232899
 20
1755.0
 30
0.0
 11
2647.503422232899
 21
1799.0
 31
0.0
  0
LINE
  5
153E
330
1F
100
AcDbEntity
  8
SUNPO
 62
   144
100
AcDbLine
 10
2647.503422232899
 20
1651.0
 30
0.0
 11
2647.503422232899
 21
1711.0
 31
0.0
  0
SOLID
  5
153F
330
1F
100
AcDbEntity
  8
SUNPO
 62
   144
100
AcDbTrace
 10
2640.170088899566
 20
1607.0
 30
0.0
 11
2654.836755566233
 21
1607.0
 31
0.0
 12
2647.503422232899
 22
1651.0
 32
0.0
 13
2647.503422232899
 23
1651.0
 33
0.0
  0
SOLID
  5
1540
330
1F
100
AcDbEntity
  8
SUNPO
 62
   144
100
AcDbTrace
 10
2640.170088899566
 20
1755.0
 30
0.0
 11
2654.836755566233
 21
1755.0
 31
0.0
 12
2647.503422232899
 22
1711.0
 32
0.0
 13
2647.503422232899
 23
1711.0
 33
0.0
  0
TEXT
  5
1541
330
1F
100
AcDbEntity
  8
SUNPO
100
AcDbText
 10
3686.302349130836
 20
1964.321722572109
 30
0.0
 40
50.0
  1
φ40
  7
ADD
100
AcDbText
1001
ACAD
1000
MTEXTBEGIN
1070
    73
1070
     1
1070
    44
1040
1.0
1070
    74
1070
     0
1000
MTEXTEND
  0
SOLID
  5
1542
330
1F
100
AcDbEntity
  8
MOJI
100
AcDbTrace
 10
3656.741161845437
 20
1905.042294651422
 30
0.0
 11
3634.480160722118
 21
1884.319171600405
 31
0.0
 12
3648.816851606008
 22
1911.141909985957
 32
0.0
 13
3648.816851606008
 23
1911.141909985957
 33
0.0
1001
ACAD
1000
DSTYLE
1002
{
1070
     5
1000

1070
    40
1040
20.0
1070
    77
1070
     0
1070
   147
1040
0.625
1002
}
  0
LINE
  5
1544
330
1F
100
AcDbEntity
  8
SUNPO
 62
   144
100
AcDbLine
 10
3440.0
 20
1651.0
 30
0.0
 11
3774.462063596455
 21
1650.999999999999
 31
0.0
  0
LINE
  5
1545
330
1F
100
AcDbEntity
  8
SUNPO
 62
   144
100
AcDbLine
 10
3640.0
 20
1871.0
 30
0.0
 11
3774.462063596455
 21
1871.0
 31
0.0
  0
LINE
  5
1546
330
1F
100
AcDbEntity
  8
SUNPO
 62
   144
100
AcDbLine
 10
3764.462063596455
 20
1695.0
 30
0.0
 11
3764.462063596455
 21
1827.0
 31
0.0
  0
SOLID
  5
1547
330
1F
100
AcDbEntity
  8
SUNPO
 62
   144
100
AcDbTrace
 10
3757.128730263121
 20
1695.0
 30
0.0
 11
3771.795396929788
 21
1695.0
 31
0.0
 12
3764.462063596455
 22
1650.999999999999
 32
0.0
 13
3764.462063596455
 23
1650.999999999999
 33
0.0
  0
SOLID
  5
1548
330
1F
100
AcDbEntity
  8
SUNPO
 62
   144
100
AcDbTrace
 10
3757.128730263121
 20
1827.0
 30
0.0
 11
3771.795396929788
 21
1827.0
 31
0.0
 12
3764.462063596455
 22
1871.0
 32
0.0
 13
3764.462063596455
 23
1871.0
 33
0.0
  0
LINE
  5
154A
330
1F
100
AcDbEntity
  8
SUNPO
 62
   144
100
AcDbLine
 10
2970.0
 20
1891.0
 30
0.0
 11
2970.0
 21
1960.0
 31
0.0
  0
LINE
  5
154B
330
1F
100
AcDbEntity
  8
SUNPO
 62
   144
100
AcDbLine
 10
3620.0
 20
1891.0
 30
0.0
 11
3620.0
 21
1960.0
 31
0.0
  0
LINE
  5
154C
330
1F
100
AcDbEntity
  8
SUNPO
 62
   144
100
AcDbLine
 10
3014.0
 20
1950.0
 30
0.0
 11
3576.0
 21
1950.0
 31
0.0
  0
SOLID
  5
154D
330
1F
100
AcDbEntity
  8
SUNPO
 62
   144
100
AcDbTrace
 10
3014.0
 20
1957.333333333333
 30
0.0
 11
3014.0
 21
1942.666666666666
 31
0.0
 12
2970.0
 22
1950.0
 32
0.0
 13
2970.0
 23
1950.0
 33
0.0
  0
SOLID
  5
154E
330
1F
100
AcDbEntity
  8
SUNPO
 62
   144
100
AcDbTrace
 10
3576.0
 20
1957.333333333333
 30
0.0
 11
3576.0
 21
1942.666666666666
 31
0.0
 12
3620.0
 22
1950.0
 32
0.0
 13
3620.0
 23
1950.0
 33
0.0
  0
TEXT
  5
1550
330
1F
100
AcDbEntity
  8
SUNPO
100
AcDbText
 10
2405.028933016268
 20
420.4266345845353
 30
0.0
 40
50.0
  1
600型
  7
ADD
100
AcDbText
1001
ACAD
1000
MTEXTBEGIN
1070
    73
1070
     1
1070
    44
1040
1.0
1070
    74
1070
     0
1000
MTEXTEND
  0
TEXT
  5
1551
330
1F
100
AcDbEntity
  8
SUNPO
100
AcDbText
 10
2400.267028254363
 20
337.093301251202
 30
0.0
 40
50.0
  1
1300×598×110
  7
ADD
100
AcDbText
1001
ACAD
1000
MTEXTBEGIN
1070
    73
1070
     1
1070
    44
1040
1.0
1070
    74
1070
     0
1000
MTEXTEND
  0
TEXT
  5
1552
330
1F
100
AcDbEntity
  8
SUNPO
100
AcDbText
 10
667.1509190805151
 20
421.9779850496943
 30
0.0
 40
50.0
  1
B型柵渠　調整パネル板
  7
ADD
100
AcDbText
1001
ACAD
1000
MTEXTBEGIN
1070
    73
1070
     1
1070
    44
1040
1.0
1070
    74
1070
     0
1000
MTEXTEND
  0
TEXT
  5
1553
330
1F
100
AcDbEntity
  8
SUNPO
100
AcDbText
 10
1221.522331156867
 20
2685.175410342148
 30
0.0
 40
50.0
  1
B-B断面
  7
ADD
100
AcDbText
1001
ACAD
1000
MTEXTBEGIN
1070
    73
1070
     1
1070
    44
1040
1.0
1070
    74
1070
     0
1000
MTEXTEND
  0
LINE
  5
1554
330
1F
100
AcDbEntity
  8
SUNPO
 62
   144
100
AcDbLine
 10
1349.467842459455
 20
2174.0
 30
0.0
 11
1349.467842459455
 21
2062.499412094241
 31
0.0
  0
LINE
  5
1555
330
1F
100
AcDbEntity
  8
SUNPO
 62
   144
100
AcDbLine
 10
1409.467842459455
 20
2174.0
 30
0.0
 11
1409.467842459455
 21
2062.499412094241
 31
0.0
  0
LINE
  5
1556
330
1F
100
AcDbEntity
  8
SUNPO
 62
   144
100
AcDbLine
 10
1305.467842459455
 20
2072.499412094241
 30
0.0
 11
1261.467842459454
 21
2072.499412094241
 31
0.0
  0
LINE
  5
1557
330
1F
100
AcDbEntity
  8
SUNPO
 62
   144
100
AcDbLine
 10
1453.467842459455
 20
2072.499412094241
 30
0.0
 11
1497.467842459455
 21
2072.499412094241
 31
0.0
  0
LINE
  5
1559
330
1F
100
AcDbEntity
  8
SUNPO
 62
   144
100
AcDbLine
 10
1349.467842459455
 20
2072.499412094241
 30
0.0
 11
1409.467842459455
 21
2072.499412094241
 31
0.0
  0
SOLID
  5
155A
330
1F
100
AcDbEntity
  8
SUNPO
 62
   144
100
AcDbTrace
 10
1305.467842459455
 20
2079.832745427574
 30
0.0
 11
1305.467842459455
 21
2065.166078760907
 31
0.0
 12
1349.467842459455
 22
2072.499412094241
 32
0.0
 13
1349.467842459455
 23
2072.499412094241
 33
0.0
  0
SOLID
  5
155B
330
1F
100
AcDbEntity
  8
SUNPO
 62
   144
100
AcDbTrace
 10
1453.467842459455
 20
2079.832745427574
 30
0.0
 11
1453.467842459455
 21
2065.166078760907
 31
0.0
 12
1409.467842459455
 22
2072.499412094241
 32
0.0
 13
1409.467842459455
 23
2072.499412094241
 33
0.0
  0
LINE
  5
155C
330
1F
100
AcDbEntity
  8
SUNPO
 62
   144
100
AcDbLine
 10
1299.467842459455
 20
2269.0
 30
0.0
 11
1299.467842459455
 21
2408.732443147173
 31
0.0
  0
LINE
  5
155D
330
1F
100
AcDbEntity
  8
SUNPO
 62
   144
100
AcDbLine
 10
1349.467842459455
 20
2269.0
 30
0.0
 11
1349.467842459455
 21
2408.732443147173
 31
0.0
  0
LINE
  5
155E
330
1F
100
AcDbEntity
  8
SUNPO
 62
   144
100
AcDbLine
 10
1255.467842459454
 20
2398.732443147173
 30
0.0
 11
1211.467842459454
 21
2398.732443147173
 31
0.0
  0
LINE
  5
155F
330
1F
100
AcDbEntity
  8
SUNPO
 62
   144
100
AcDbLine
 10
1393.467842459455
 20
2398.732443147173
 30
0.0
 11
1437.467842459454
 21
2398.732443147173
 31
0.0
  0
LINE
  5
1561
330
1F
100
AcDbEntity
  8
SUNPO
 62
   144
100
AcDbLine
 10
1299.467842459455
 20
2398.732443147173
 30
0.0
 11
1349.467842459455
 21
2398.732443147173
 31
0.0
  0
SOLID
  5
1562
330
1F
100
AcDbEntity
  8
SUNPO
 62
   144
100
AcDbTrace
 10
1255.467842459454
 20
2406.065776480506
 30
0.0
 11
1255.467842459454
 21
2391.39910981384
 31
0.0
 12
1299.467842459455
 22
2398.732443147173
 32
0.0
 13
1299.467842459455
 23
2398.732443147173
 33
0.0
  0
SOLID
  5
1563
330
1F
100
AcDbEntity
  8
SUNPO
 62
   144
100
AcDbTrace
 10
1393.467842459455
 20
2406.065776480506
 30
0.0
 11
1393.467842459455
 21
2391.39910981384
 31
0.0
 12
1349.467842459455
 22
2398.732443147173
 32
0.0
 13
1349.467842459455
 23
2398.732443147173
 33
0.0
  0
LINE
  5
1564
330
1F
100
AcDbEntity
  8
SUNPO
 62
   144
100
AcDbLine
 10
1299.467842459455
 20
2269.0
 30
0.0
 11
1299.467842459455
 21
2561.04531740457
 31
0.0
  0
LINE
  5
1565
330
1F
100
AcDbEntity
  8
SUNPO
 62
   144
100
AcDbLine
 10
1409.467842459455
 20
2269.0
 30
0.0
 11
1409.467842459455
 21
2561.04531740457
 31
0.0
  0
LINE
  5
1566
330
1F
100
AcDbEntity
  8
SUNPO
 62
   144
100
AcDbLine
 10
1329.467842459455
 20
2551.04531740457
 30
0.0
 11
1379.467842459455
 21
2551.04531740457
 31
0.0
  0
SOLID
  5
1568
330
1F
100
AcDbEntity
  8
SUNPO
 62
   144
100
AcDbTrace
 10
1329.467842459455
 20
2556.04531740457
 30
0.0
 11
1329.467842459455
 21
2546.04531740457
 31
0.0
 12
1299.467842459455
 22
2551.04531740457
 32
0.0
 13
1299.467842459455
 23
2551.04531740457
 33
0.0
  0
SOLID
  5
1569
330
1F
100
AcDbEntity
  8
SUNPO
 62
   144
100
AcDbTrace
 10
1379.467842459455
 20
2556.04531740457
 30
0.0
 11
1379.467842459455
 21
2546.04531740457
 31
0.0
 12
1409.467842459455
 22
2551.04531740457
 32
0.0
 13
1409.467842459455
 23
2551.04531740457
 33
0.0
  0
TEXT
  5
156A
330
1F
100
AcDbEntity
  8
SUNPO
100
AcDbText
 10
3483.553208665691
 20
1527.475532520085
 30
0.0
 40
50.0
  1
B
  7
ADD
100
AcDbText
1001
ACAD
1000
MTEXTBEGIN
1070
    73
1070
     1
1070
    44
1040
1.0
1070
    74
1070
     0
1000
MTEXTEND
  0
TEXT
  5
156B
330
1F
100
AcDbEntity
  8
SUNPO
100
AcDbText
 10
3478.210605569712
 20
2321.920559743288
 30
0.0
 40
50.0
  1
B
  7
ADD
100
AcDbText
1001
ACAD
1000
MTEXTBEGIN
1070
    73
1070
     1
1070
    44
1040
1.0
1070
    74
1070
     0
1000
MTEXTEND
  0
LINE
  5
156C
330
1F
100
AcDbEntity
  8
SUNPO
 62
   144
100
AcDbLine
 10
2120.0
 20
2269.0
 30
0.0
 11
2120.0
 21
2352.23916016285
 31
0.0
  0
LINE
  5
156D
330
1F
100
AcDbEntity
  8
SUNPO
 62
   144
100
AcDbLine
 10
2170.0
 20
2269.0
 30
0.0
 11
2170.0
 21
2352.23916016285
 31
0.0
  0
LINE
  5
156E
330
1F
100
AcDbEntity
  8
SUNPO
 62
   144
100
AcDbLine
 10
2076.0
 20
2342.23916016285
 30
0.0
 11
2032.0
 21
2342.23916016285
 31
0.0
  0
LINE
  5
156F
330
1F
100
AcDbEntity
  8
SUNPO
 62
   144
100
AcDbLine
 10
2214.0
 20
2342.23916016285
 30
0.0
 11
2258.0
 21
2342.23916016285
 31
0.0
  0
LINE
  5
1571
330
1F
100
AcDbEntity
  8
SUNPO
 62
   144
100
AcDbLine
 10
2120.0
 20
2342.23916016285
 30
0.0
 11
2170.0
 21
2342.23916016285
 31
0.0
  0
SOLID
  5
1572
330
1F
100
AcDbEntity
  8
SUNPO
 62
   144
100
AcDbTrace
 10
2076.0
 20
2349.572493496184
 30
0.0
 11
2076.0
 21
2334.905826829517
 31
0.0
 12
2120.0
 22
2342.23916016285
 32
0.0
 13
2120.0
 23
2342.23916016285
 33
0.0
  0
SOLID
  5
1573
330
1F
100
AcDbEntity
  8
SUNPO
 62
   144
100
AcDbTrace
 10
2214.0
 20
2349.572493496184
 30
0.0
 11
2214.0
 21
2334.905826829517
 31
0.0
 12
2170.0
 22
2342.23916016285
 32
0.0
 13
2170.0
 23
2342.23916016285
 33
0.0
  0
LINE
  5
1574
330
1F
100
AcDbEntity
  8
SUNPO
 62
   144
100
AcDbLine
 10
2060.0
 20
2269.0
 30
0.0
 11
2060.0
 21
2425.478320325701
 31
0.0
  0
LINE
  5
1575
330
1F
100
AcDbEntity
  8
SUNPO
 62
   144
100
AcDbLine
 10
2120.0
 20
2269.0
 30
0.0
 11
2120.0
 21
2425.478320325701
 31
0.0
  0
LINE
  5
1576
330
1F
100
AcDbEntity
  8
SUNPO
 62
   144
100
AcDbLine
 10
2016.0
 20
2415.478320325701
 30
0.0
 11
1972.0
 21
2415.478320325701
 31
0.0
  0
LINE
  5
1577
330
1F
100
AcDbEntity
  8
SUNPO
 62
   144
100
AcDbLine
 10
2164.0
 20
2415.478320325701
 30
0.0
 11
2208.0
 21
2415.478320325701
 31
0.0
  0
LINE
  5
1579
330
1F
100
AcDbEntity
  8
SUNPO
 62
   144
100
AcDbLine
 10
2060.0
 20
2415.478320325701
 30
0.0
 11
2120.0
 21
2415.478320325701
 31
0.0
  0
SOLID
  5
157A
330
1F
100
AcDbEntity
  8
SUNPO
 62
   144
100
AcDbTrace
 10
2016.0
 20
2422.811653659034
 30
0.0
 11
2016.0
 21
2408.144986992367
 31
0.0
 12
2060.0
 22
2415.478320325701
 32
0.0
 13
2060.0
 23
2415.478320325701
 33
0.0
  0
SOLID
  5
157B
330
1F
100
AcDbEntity
  8
SUNPO
 62
   144
100
AcDbTrace
 10
2164.0
 20
2422.811653659034
 30
0.0
 11
2164.0
 21
2408.144986992367
 31
0.0
 12
2120.0
 22
2415.478320325701
 32
0.0
 13
2120.0
 23
2415.478320325701
 33
0.0
  0
LINE
  5
157C
330
1F
100
AcDbEntity
  8
SUNPO
 62
   144
100
AcDbLine
 10
2060.0
 20
2269.0
 30
0.0
 11
2060.0
 21
2561.04531740457
 31
0.0
  0
LINE
  5
157D
330
1F
100
AcDbEntity
  8
SUNPO
 62
   144
100
AcDbLine
 10
2170.0
 20
2269.0
 30
0.0
 11
2170.0
 21
2561.04531740457
 31
0.0
  0
LINE
  5
157E
330
1F
100
AcDbEntity
  8
SUNPO
 62
   144
100
AcDbLine
 10
2090.0
 20
2551.04531740457
 30
0.0
 11
2140.0
 21
2551.04531740457
 31
0.0
  0
SOLID
  5
1580
330
1F
100
AcDbEntity
  8
SUNPO
 62
   144
100
AcDbTrace
 10
2090.0
 20
2556.04531740457
 30
0.0
 11
2090.0
 21
2546.04531740457
 31
0.0
 12
2060.0
 22
2551.04531740457
 32
0.0
 13
2060.0
 23
2551.04531740457
 33
0.0
  0
SOLID
  5
1581
330
1F
100
AcDbEntity
  8
SUNPO
 62
   144
100
AcDbTrace
 10
2140.0
 20
2556.04531740457
 30
0.0
 11
2140.0
 21
2546.04531740457
 31
0.0
 12
2170.0
 22
2551.04531740457
 32
0.0
 13
2170.0
 23
2551.04531740457
 33
0.0
  0
SOLID
  5
1582
330
1F
100
AcDbEntity
  8
MOJI
100
AcDbTrace
 10
-3441.501648419777
 20
2344.658073178623
 30
0.0
 11
-3471.501648419776
 21
2349.658073178623
 31
0.0
 12
-3441.501648419777
 22
2354.658073178623
 32
0.0
 13
-3441.501648419777
 23
2354.658073178623
 33
0.0
210
0.0
220
0.0
230
-1.0
1001
ACAD
1000
DSTYLE
1002
{
1070
     5
1000

1070
    40
1040
20.0
1070
    77
1070
     0
1070
   147
1040
0.625
1002
}
  0
SOLID
  5
1584
330
1F
100
AcDbEntity
  8
MOJI
100
AcDbTrace
 10
3441.501648419777
 20
1555.341926821376
 30
0.0
 11
3471.501648419776
 21
1550.341926821376
 31
0.0
 12
3441.501648419777
 22
1545.341926821376
 32
0.0
 13
3441.501648419777
 23
1545.341926821376
 33
0.0
1001
ACAD
1000
DSTYLE
1002
{
1070
     5
1000

1070
    40
1040
20.0
1070
    77
1070
     0
1070
   147
1040
0.625
1002
}
  0
LINE
  5
1586
330
1F
100
AcDbEntity
  8
SUNPO
 62
   144
100
AcDbLine
 10
4170.0
 20
2269.0
 30
0.0
 11
4170.0
 21
2371.490032659865
 31
0.0
  0
LINE
  5
1587
330
1F
100
AcDbEntity
  8
SUNPO
 62
   144
100
AcDbLine
 10
4270.0
 20
2269.0
 30
0.0
 11
4270.0
 21
2371.490032659865
 31
0.0
  0
LINE
  5
1588
330
1F
100
AcDbEntity
  8
SUNPO
 62
   144
100
AcDbLine
 10
4200.0
 20
2371.490032659865
 30
0.0
 11
4240.0
 21
2371.490032659865
 31
0.0
  0
SOLID
  5
158A
330
1F
100
AcDbEntity
  8
SUNPO
 62
   144
100
AcDbTrace
 10
4200.0
 20
2376.490032659865
 30
0.0
 11
4200.0
 21
2366.490032659865
 31
0.0
 12
4170.0
 22
2371.490032659865
 32
0.0
 13
4170.0
 23
2371.490032659865
 33
0.0
  0
SOLID
  5
158B
330
1F
100
AcDbEntity
  8
SUNPO
 62
   144
100
AcDbTrace
 10
4240.0
 20
2376.490032659865
 30
0.0
 11
4240.0
 21
2366.490032659865
 31
0.0
 12
4270.0
 22
2371.490032659865
 32
0.0
 13
4270.0
 23
2371.490032659865
 33
0.0
  0
LINE
  5
158C
330
1F
100
AcDbEntity
  8
SUNPO
 62
   144
100
AcDbLine
 10
4110.0
 20
2269.0
 30
0.0
 11
4110.0
 21
2315.467507741586
 31
0.0
  0
LINE
  5
158D
330
1F
100
AcDbEntity
  8
SUNPO
 62
   144
100
AcDbLine
 10
4170.0
 20
2269.0
 30
0.0
 11
4170.0
 21
2315.467507741586
 31
0.0
  0
LINE
  5
158E
330
1F
100
AcDbEntity
  8
SUNPO
 62
   144
100
AcDbLine
 10
4072.0
 20
2305.467507741587
 30
0.0
 11
4034.0
 21
2305.467507741587
 31
0.0
  0
LINE
  5
158F
330
1F
100
AcDbEntity
  8
SUNPO
 62
   144
100
AcDbLine
 10
4208.0
 20
2305.467507741587
 30
0.0
 11
4246.0
 21
2305.467507741587
 31
0.0
  0
LINE
  5
1591
330
1F
100
AcDbEntity
  8
SUNPO
 62
   144
100
AcDbLine
 10
4110.0
 20
2305.467507741587
 30
0.0
 11
4170.0
 21
2305.467507741587
 31
0.0
  0
SOLID
  5
1592
330
1F
100
AcDbEntity
  8
SUNPO
 62
   144
100
AcDbTrace
 10
4072.0
 20
2311.80084107492
 30
0.0
 11
4072.0
 21
2299.134174408253
 31
0.0
 12
4110.0
 22
2305.467507741587
 32
0.0
 13
4110.0
 23
2305.467507741587
 33
0.0
  0
SOLID
  5
1593
330
1F
100
AcDbEntity
  8
SUNPO
 62
   144
100
AcDbTrace
 10
4208.0
 20
2311.80084107492
 30
0.0
 11
4208.0
 21
2299.134174408253
 31
0.0
 12
4170.0
 22
2305.467507741587
 32
0.0
 13
4170.0
 23
2305.467507741587
 33
0.0
  0
LINE
  5
1594
330
1F
100
AcDbEntity
  8
SUNPO
 62
   144
100
AcDbLine
 10
3070.0
 20
2269.0
 30
0.0
 11
3070.0
 21
2315.467507741586
 31
0.0
  0
LINE
  5
1595
330
1F
100
AcDbEntity
  8
SUNPO
 62
   144
100
AcDbLine
 10
3130.0
 20
2269.0
 30
0.0
 11
3130.0
 21
2315.467507741586
 31
0.0
  0
LINE
  5
1596
330
1F
100
AcDbEntity
  8
SUNPO
 62
   144
100
AcDbLine
 10
3026.0
 20
2305.467507741587
 30
0.0
 11
2982.0
 21
2305.467507741587
 31
0.0
  0
LINE
  5
1597
330
1F
100
AcDbEntity
  8
SUNPO
 62
   144
100
AcDbLine
 10
3174.0
 20
2305.467507741587
 30
0.0
 11
3218.0
 21
2305.467507741587
 31
0.0
  0
LINE
  5
1599
330
1F
100
AcDbEntity
  8
SUNPO
 62
   144
100
AcDbLine
 10
3070.0
 20
2305.467507741587
 30
0.0
 11
3130.0
 21
2305.467507741587
 31
0.0
  0
SOLID
  5
159A
330
1F
100
AcDbEntity
  8
SUNPO
 62
   144
100
AcDbTrace
 10
3026.0
 20
2312.80084107492
 30
0.0
 11
3026.0
 21
2298.134174408253
 31
0.0
 12
3070.0
 22
2305.467507741587
 32
0.0
 13
3070.0
 23
2305.467507741587
 33
0.0
  0
SOLID
  5
159B
330
1F
100
AcDbEntity
  8
SUNPO
 62
   144
100
AcDbTrace
 10
3174.0
 20
2312.80084107492
 30
0.0
 11
3174.0
 21
2298.134174408253
 31
0.0
 12
3130.0
 22
2305.467507741587
 32
0.0
 13
3130.0
 23
2305.467507741587
 33
0.0
  0
LINE
  5
159C
330
1F
100
AcDbEntity
  8
SUNPO
 62
   144
100
AcDbLine
 10
2970.0
 20
2269.0
 30
0.0
 11
2970.0
 21
2381.490032659865
 31
0.0
  0
LINE
  5
159D
330
1F
100
AcDbEntity
  8
SUNPO
 62
   144
100
AcDbLine
 10
3070.0
 20
2269.0
 30
0.0
 11
3070.0
 21
2381.490032659865
 31
0.0
  0
LINE
  5
159E
330
1F
100
AcDbEntity
  8
SUNPO
 62
   144
100
AcDbLine
 10
3000.0
 20
2371.490032659865
 30
0.0
 11
3040.0
 21
2371.490032659865
 31
0.0
  0
SOLID
  5
15A0
330
1F
100
AcDbEntity
  8
SUNPO
 62
   144
100
AcDbTrace
 10
3000.0
 20
2376.490032659865
 30
0.0
 11
3000.0
 21
2366.490032659865
 31
0.0
 12
2970.0
 22
2371.490032659865
 32
0.0
 13
2970.0
 23
2371.490032659865
 33
0.0
  0
SOLID
  5
15A1
330
1F
100
AcDbEntity
  8
SUNPO
 62
   144
100
AcDbTrace
 10
3040.0
 20
2376.490032659865
 30
0.0
 11
3040.0
 21
2366.490032659865
 31
0.0
 12
3070.0
 22
2371.490032659865
 32
0.0
 13
3070.0
 23
2371.490032659865
 33
0.0
  0
LINE
  5
15A2
330
1F
100
AcDbEntity
  8
SUNPO
 62
   144
100
AcDbLine
 10
2970.0
 20
2269.0
 30
0.0
 11
2970.0
 21
2561.04531740457
 31
0.0
  0
LINE
  5
15A3
330
1F
100
AcDbEntity
  8
SUNPO
 62
   144
100
AcDbLine
 10
4270.0
 20
2269.0
 30
0.0
 11
4270.0
 21
2561.04531740457
 31
0.0
  0
LINE
  5
15A4
330
1F
100
AcDbEntity
  8
SUNPO
 62
   144
100
AcDbLine
 10
3014.0
 20
2551.04531740457
 30
0.0
 11
4226.0
 21
2551.04531740457
 31
0.0
  0
SOLID
  5
15A5
330
1F
100
AcDbEntity
  8
SUNPO
 62
   144
100
AcDbTrace
 10
3014.0
 20
2558.378650737904
 30
0.0
 11
3014.0
 21
2543.711984071236
 31
0.0
 12
2970.0
 22
2551.04531740457
 32
0.0
 13
2970.0
 23
2551.04531740457
 33
0.0
  0
SOLID
  5
15A6
330
1F
100
AcDbEntity
  8
SUNPO
 62
   144
100
AcDbTrace
 10
4226.0
 20
2558.378650737904
 30
0.0
 11
4226.0
 21
2543.711984071236
 31
0.0
 12
4270.0
 22
2551.04531740457
 32
0.0
 13
4270.0
 23
2551.04531740457
 33
0.0
  0
LINE
  5
15A8
330
1F
100
AcDbEntity
  8
SUNPO
 62
   144
100
AcDbLine
 10
2950.0
 20
1651.0
 30
0.0
 11
2476.326693309462
 21
1651.0
 31
0.0
  0
LINE
  5
15A9
330
1F
100
AcDbEntity
  8
SUNPO
 62
   144
100
AcDbLine
 10
2950.0
 20
2249.0
 30
0.0
 11
2476.326693309462
 21
2249.0
 31
0.0
  0
LINE
  5
15AA
330
1F
100
AcDbEntity
  8
SUNPO
 62
   144
100
AcDbLine
 10
2486.326693309462
 20
1695.0
 30
0.0
 11
2486.326693309462
 21
2205.0
 31
0.0
  0
SOLID
  5
15AB
330
1F
100
AcDbEntity
  8
SUNPO
 62
   144
100
AcDbTrace
 10
2478.993359976128
 20
1695.0
 30
0.0
 11
2493.660026642795
 21
1695.0
 31
0.0
 12
2486.326693309462
 22
1651.0
 32
0.0
 13
2486.326693309462
 23
1651.0
 33
0.0
  0
SOLID
  5
15AC
330
1F
100
AcDbEntity
  8
SUNPO
 62
   144
100
AcDbTrace
 10
2478.993359976128
 20
2205.0
 30
0.0
 11
2493.660026642795
 21
2205.0
 31
0.0
 12
2486.326693309462
 22
2249.0
 32
0.0
 13
2486.326693309462
 23
2249.0
 33
0.0
  0
TEXT
  5
15AE
330
1F
100
AcDbEntity
  8
SUNPO
100
AcDbText
 10
3246.680311730542
 20
359.2274732162223
 30
0.0
 40
70.0
  1
１／２０
  7
ADD
100
AcDbText
1001
ACAD
1000
MTEXTBEGIN
1070
    73
1070
     1
1070
    44
1040
1.0
1070
    74
1070
     0
1000
MTEXTEND
  0
TEXT
  5
15AF
330
1F
100
AcDbEntity
  8
SUNPO
100
AcDbText
 10
381.8862574011546
 20
488.6918916770627
 30
0.0
 40
50.0
  1
製品名
  7
ADD
100
AcDbText
1001
ACAD
1000
MTEXTBEGIN
1070
    73
1070
     1
1070
    44
1040
1.0
1070
    74
1070
     0
1000
MTEXTEND
  0
TEXT
  5
15B0
330
1F
100
AcDbEntity
  8
SUNPO
100
AcDbText
 10
2376.290169028722
 20
494.4531736811823
 30
0.0
 40
50.0
  1
型式
  7
ADD
100
AcDbText
1001
ACAD
1000
MTEXTBEGIN
1070
    73
1070
     1
1070
    44
1040
1.0
1070
    74
1070
     0
1000
MTEXTEND
  0
TEXT
  5
15B1
330
1F
100
AcDbEntity
  8
SUNPO
100
AcDbText
 10
3177.510249231658
 20
488.6918916770627
 30
0.0
 40
50.0
  1
縮尺
  7
ADD
100
AcDbText
1001
ACAD
1000
MTEXTBEGIN
1070
    73
1070
     1
1070
    44
1040
1.0
1070
    74
1070
     0
1000
MTEXTEND
  0
TEXT
  5
15B2
330
1F
100
AcDbEntity
  8
SUNPO
100
AcDbText
 10
3730.870883051572
 20
352.2726133092145
 30
0.0
 40
100.0
  1
千葉県コンクリート製品協同組合
  7
ADD
100
AcDbText
1001
ACAD
1000
MTEXTBEGIN
1070
    73
1070
     1
1070
    44
1040
1.0
1070
    74
1070
     0
1000
MTEXTEND
  0
LINE
  5
15B3
330
1F
100
AcDbEntity
  8
HOJO
100
AcDbLine
 10
360.0
 20
260.0
 30
0.0
 11
5580.0
 21
260.0
 31
0.0
  0
LINE
  5
15B4
330
1F
100
AcDbEntity
  8
HOJO
100
AcDbLine
 10
5580.0
 20
260.0
 30
0.0
 11
5580.0
 21
3940.0
 31
0.0
  0
LINE
  5
15B5
330
1F
100
AcDbEntity
  8
HOJO
100
AcDbLine
 10
5580.0
 20
3940.0
 30
0.0
 11
360.0
 21
3940.0
 31
0.0
  0
LINE
  5
15B6
330
1F
100
AcDbEntity
  8
HOJO
100
AcDbLine
 10
360.0
 20
3940.0
 30
0.0
 11
360.0
 21
260.0
 31
0.0
  0
LINE
  5
15B7
330
1F
100
AcDbEntity
  8
HOJO
100
AcDbLine
 10
0.0
 20
0.0
 30
0.0
 11
5940.0
 21
0.0
 31
0.0
  0
LINE
  5
15B8
330
1F
100
AcDbEntity
  8
HOJO
100
AcDbLine
 10
5940.0
 20
0.0
 30
0.0
 11
5940.0
 21
4200.0
 31
0.0
  0
LINE
  5
15B9
330
1F
100
AcDbEntity
  8
HOJO
100
AcDbLine
 10
5940.0
 20
4200.0
 30
0.0
 11
0.0
 21
4200.0
 31
0.0
  0
LINE
  5
15BA
330
1F
100
AcDbEntity
  8
HOJO
100
AcDbLine
 10
0.0
 20
4200.0
 30
0.0
 11
0.0
 21
0.0
 31
0.0
  0
TEXT
  5
15BB
330
1F
100
AcDbEntity
  8
SUNPO
 62
     7
100
AcDbText
 10
2473.826693309461
 20
1878.571428571429
 30
0.0
 40
50.0
  1
598
 50
90.0
  7
ADD
100
AcDbText
1001
ACAD
1000
MTEXTBEGIN
1070
    73
1070
     1
1070
    44
1040
1.0
1070
    74
1070
     0
1000
MTEXTEND
  0
TEXT
  5
15BC
330
1F
100
AcDbEntity
  8
SUNPO
 62
     7
100
AcDbText
 10
3521.190476190476
 20
2563.545317404571
 30
0.0
 40
50.0
  1
1300
  7
ADD
100
AcDbText
1001
ACAD
1000
MTEXTBEGIN
1070
    73
1070
     1
1070
    44
1040
1.0
1070
    74
1070
     0
1000
MTEXTEND
  0
TEXT
  5
15BD
330
1F
100
AcDbEntity
  8
SUNPO
 62
     7
100
AcDbText
 10
2953.152870633907
 20
2404.492087975737
 30
0.0
 40
50.0
  1
100
  7
ADD
100
AcDbText
1001
ACAD
1000
MTEXTBEGIN
1070
    73
1070
     1
1070
    44
1040
1.0
1070
    74
1070
     0
1000
MTEXTEND
  0
TEXT
  5
15BE
330
1F
100
AcDbEntity
  8
SUNPO
 62
     7
100
AcDbText
 10
3131.45552690057
 20
2324.050163814045
 30
0.0
 40
50.0
  1
60
  7
ADD
100
AcDbText
1001
ACAD
1000
MTEXTBEGIN
1070
    73
1070
     1
1070
    44
1040
1.0
1070
    74
1070
     0
1000
MTEXTEND
  0
TEXT
  5
15BF
330
1F
100
AcDbEntity
  8
SUNPO
 62
     7
100
AcDbText
 10
4010.44300824919
 20
2316.402206419552
 30
0.0
 40
50.0
  1
60
  7
ADD
100
AcDbText
1001
ACAD
1000
MTEXTBEGIN
1070
    73
1070
     1
1070
    44
1040
1.0
1070
    74
1070
     0
1000
MTEXTEND
  0
TEXT
  5
15C0
330
1F
100
AcDbEntity
  8
SUNPO
 62
     7
100
AcDbText
 10
4145.000000000001
 20
2408.990032659865
 30
0.0
 40
50.0
  1
100
  7
ADD
100
AcDbText
1001
ACAD
1000
MTEXTBEGIN
1070
    73
1070
     1
1070
    44
1040
1.0
1070
    74
1070
     0
1000
MTEXTEND
  0
LINE
  5
15C1
330
1F
100
AcDbEntity
  8
MOJI
100
AcDbLine
 10
3441.501648419777
 20
1550.341926821376
 30
0.0
 11
3379.446624029148
 21
1550.341926821376
 31
0.0
1001
ACAD
1000
DSTYLE
1002
{
1070
     5
1000

1070
    40
1040
20.0
1070
    77
1070
     0
1070
   147
1040
0.625
1002
}
  0
LINE
  5
15C2
330
1F
100
AcDbEntity
  8
MOJI
100
AcDbLine
 10
3441.501648419777
 20
2349.658073178623
 30
0.0
 11
3379.446624029148
 21
2349.658073178623
 31
0.0
210
0.0
220
0.0
230
-1.0
1001
ACAD
1000
DSTYLE
1002
{
1070
     5
1000

1070
    40
1040
20.0
1070
    77
1070
     0
1070
   147
1040
0.625
1002
}
  0
TEXT
  5
15C3
330
1F
100
AcDbEntity
  8
SUNPO
 62
     7
100
AcDbText
 10
2040.0
 20
2588.54531740457
 30
0.0
 40
50.0
  1
110
  7
ADD
100
AcDbText
1001
ACAD
1000
MTEXTBEGIN
1070
    73
1070
     1
1070
    44
1040
1.0
1070
    74
1070
     0
1000
MTEXTEND
  0
TEXT
  5
15C4
330
1F
100
AcDbEntity
  8
SUNPO
 62
     7
100
AcDbText
 10
1957.796835139911
 20
2417.978320325701
 30
0.0
 40
50.0
  1
60
  7
ADD
100
AcDbText
1001
ACAD
1000
MTEXTBEGIN
1070
    73
1070
     1
1070
    44
1040
1.0
1070
    74
1070
     0
1000
MTEXTEND
  0
TEXT
  5
15C5
330
1F
100
AcDbEntity
  8
SUNPO
 62
     7
100
AcDbText
 10
2172.656165493037
 20
2349.749365959349
 30
0.0
 40
50.0
  1
50
  7
ADD
100
AcDbText
1001
ACAD
1000
MTEXTBEGIN
1070
    73
1070
     1
1070
    44
1040
1.0
1070
    74
1070
     0
1000
MTEXTEND
  0
TEXT
  5
15C6
330
1F
100
AcDbEntity
  8
SUNPO
 62
     7
100
AcDbText
 10
1279.467842459454
 20
2588.54531740457
 30
0.0
 40
50.0
  1
110
  7
ADD
100
AcDbText
1001
ACAD
1000
MTEXTBEGIN
1070
    73
1070
     1
1070
    44
1040
1.0
1070
    74
1070
     0
1000
MTEXTEND
  0
TEXT
  5
15C7
330
1F
100
AcDbEntity
  8
SUNPO
 62
     7
100
AcDbText
 10
1195.004351032141
 20
2411.232443147173
 30
0.0
 40
50.0
  1
50
  7
ADD
100
AcDbText
1001
ACAD
1000
MTEXTBEGIN
1070
    73
1070
     1
1070
    44
1040
1.0
1070
    74
1070
     0
1000
MTEXTEND
  0
TEXT
  5
15C8
330
1F
100
AcDbEntity
  8
SUNPO
 62
     7
100
AcDbText
 10
1426.111796495062
 20
2084.999412094241
 30
0.0
 40
50.0
  1
60
  7
ADD
100
AcDbText
1001
ACAD
1000
MTEXTBEGIN
1070
    73
1070
     1
1070
    44
1040
1.0
1070
    74
1070
     0
1000
MTEXTEND
  0
TEXT
  5
15C9
330
1F
100
AcDbEntity
  8
SUNPO
 62
     7
100
AcDbText
 10
3222.380952380952
 20
1962.5
 30
0.0
 40
50.0
  1
650
  7
ADD
100
AcDbText
1001
ACAD
1000
MTEXTBEGIN
1070
    73
1070
     1
1070
    44
1040
1.0
1070
    74
1070
     0
1000
MTEXTEND
  0
TEXT
  5
15CA
330
1F
100
AcDbEntity
  8
SUNPO
 62
     7
100
AcDbText
 10
3751.962063596454
 20
1689.571428571429
 30
0.0
 40
50.0
  1
220
 50
90.0
  7
ADD
100
AcDbText
1001
ACAD
1000
MTEXTBEGIN
1070
    73
1070
     1
1070
    44
1040
1.0
1070
    74
1070
     0
1000
MTEXTEND
  0
LINE
  5
15CB
330
1F
100
AcDbEntity
  8
MOJI
100
AcDbLine
 10
3652.779006725722
 20
1908.09210231869
 30
0.0
 11
3688.982031003112
 21
1955.125231499032
 31
0.0
1001
ACAD
1000
DSTYLE
1002
{
1070
     5
1000

1070
    40
1040
20.0
1070
    77
1070
     0
1070
   147
1040
0.625
1002
}
  0
LINE
  5
15CC
330
1F
100
AcDbEntity
  8
MOJI
100
AcDbLine
 10
3688.982031003112
 20
1955.125231499032
 30
0.0
 11
3810.123252548636
 21
1955.125231499032
 31
0.0
1001
ACAD
1000
DSTYLE
1002
{
1070
     5
1000

1070
    40
1040
20.0
1070
    77
1070
     0
1070
   147
1040
0.625
1002
}
  0
TEXT
  5
15CD
330
1F
100
AcDbEntity
  8
SUNPO
 62
     7
100
AcDbText
 10
2635.003422232899
 20
1548.683995051487
 30
0.0
 40
50.0
  1
60
 50
90.0
  7
ADD
100
AcDbText
1001
ACAD
1000
MTEXTBEGIN
1070
    73
1070
     1
1070
    44
1040
1.0
1070
    74
1070
     0
1000
MTEXTEND
  0
TEXT
  5
15CE
330
1F
100
AcDbEntity
  8
SUNPO
 62
     7
100
AcDbText
 10
2635.003422232899
 20
2260.738081551349
 30
0.0
 40
50.0
  1
60
 50
90.0
  7
ADD
100
AcDbText
1001
ACAD
1000
MTEXTBEGIN
1070
    73
1070
     1
1070
    44
1040
1.0
1070
    74
1070
     0
1000
MTEXTEND
  0
TEXT
  5
15CF
330
1F
100
AcDbEntity
  8
SUNPO
 62
     7
100
AcDbText
 10
2799.84726391341
 20
1703.154494509852
 30
0.0
 40
50.0
  1
15
 50
90.0
  7
ADD
100
AcDbText
1001
ACAD
1000
MTEXTBEGIN
1070
    73
1070
     1
1070
    44
1040
1.0
1070
    74
1070
     0
1000
MTEXTEND
  0
TEXT
  5
15D0
330
1F
100
AcDbEntity
  8
SUNPO
 62
     7
100
AcDbText
 10
2799.84726391341
 20
2093.404761904762
 30
0.0
 40
50.0
  1
15
 50
90.0
  7
ADD
100
AcDbText
1001
ACAD
1000
MTEXTBEGIN
1070
    73
1070
     1
1070
    44
1040
1.0
1070
    74
1070
     0
1000
MTEXTEND
  0
VIEWPORT
  5
72
330
1B
100
AcDbEntity
 67
     1
  8
0
100
AcDbViewport
 10
429.8380103383459
 20
277.0
 30
0.0
 40
948.9782706766918
 41
628.4520000000001
 68
     1
 69
     1
1001
ACAD
1000
MVIEW
1002
{
1070
    16
1010
0.0
1020
0.0
1030
0.0
1010
0.0
1020
0.0
1030
1.0
1040
0.0
1040
628.4520000000001
1040
429.8380103383459
1040
277.0
1040
50.0
1040
0.0
1040
0.0
1070
     0
1070
   100
1070
     1
1070
     1
1070
     0
1070
     0
1070
     0
1070
     0
1040
0.0
1040
0.0
1040
0.0
1040
10.0
1040
10.0
1040
10.0
1040
10.0
1070
     0
1002
{
1002
}
1002
}
  0
VIEWPORT
  5
74
330
1B
100
AcDbEntity
 67
     1
  8
VIEWPORT
100
AcDbViewport
 10
414.3779638919211
 20
277.3177265058034
 30
0.0
 40
840.0353682728887
 41
567.2285469943826
 68
     2
 69
     2
1001
ACAD
1000
MVIEW
1002
{
1070
    16
1010
0.0
1020
0.0
1030
0.0
1010
0.0
1020
0.0
1030
1.0
1040
0.0
1040
579.5583043546323
1040
424.4938908624541
1040
286.1973242720074
1040
50.0
1040
0.0
1040
0.0
1070
     0
1070
   100
1070
     1
1070
     1
1070
     0
1070
     0
1070
     0
1070
     0
1040
0.0
1040
0.0
1040
0.0
1040
10.0
1040
10.0
1040
10.0
1040
10.0
1070
     0
1002
{
1002
}
1002
}
  0
ENDSEC
  0
SECTION
  2
OBJECTS
  0
DICTIONARY
  5
C
330
0
100
AcDbDictionary
  3
ACAD_GROUP
350
D
  3
ACAD_LAYOUT
350
1A
  3
ACAD_MLINESTYLE
350
17
  3
ACAD_PLOTSETTINGS
350
19
  3
ACADDIM
350
118A
  3
DWGPROPS
350
4C7
1001
ACAD
1000
TREAT_AS_HARD
1070
     0
  0
DICTIONARY
  5
14A4
330
1F
100
AcDbDictionary
  3
ACAD_LAYOUTSELFREF
350
15D3
1001
ACAD
1000
TREAT_AS_HARD
1070
     1
  0
DICTIONARY
  5
14A6
330
1B
100
AcDbDictionary
  3
ACAD_LAYOUTSELFREF
350
15D2
1001
ACAD
1000
TREAT_AS_HARD
1070
     1
  0
DICTIONARY
  5
D
102
{ACAD_REACTORS
330
C
102
}
330
C
100
AcDbDictionary
1001
ACAD
1000
TREAT_AS_HARD
1070
     0
  0
DICTIONARY
  5
1A
102
{ACAD_REACTORS
330
C
102
}
330
C
100
AcDbDictionary
1001
ACAD
1000
TREAT_AS_HARD
1070
     0
  0
DICTIONARY
  5
17
102
{ACAD_REACTORS
330
C
102
}
330
C
100
AcDbDictionary
  3
STANDARD
350
18
1001
ACAD
1000
TREAT_AS_HARD
1070
     0
  0
DICTIONARY
  5
19
102
{ACAD_REACTORS
330
C
102
}
330
C
100
AcDbDictionary
1001
ACAD
1000
TREAT_AS_HARD
1070
     0
  0
XRECORD
  5
118A
102
{ACAD_REACTORS
330
C
102
}
330
C
100
AcDbXrecord
 90
   990106
  3

 60
     0
 61
     0
 62
     1
 63
     3
 64
     0
 65
     0
 66
     0
 67
     3
 68
     1
 69
     0
 70
     0
 71
     0
 72
     0
 40
10.40475799952823
170
     0
340
117C
  0
XRECORD
  5
4C7
102
{ACAD_REACTORS
330
C
102
}
330
C
100
AcDbXrecord
  1
DWGPROPS COOKIE
  2
印刷用テスト
  3
AutoCAD2000による建築設計
  4
鈴木 裕二
  6

  7

  8
U2
  9

300
=
301
=
302
=
303
=
304
=
305
=
306
=
307
=
308
=
309
=
 40
0.7653446875
 41
2451285.4846114
 42
2451333.689743032
  1

 90
        0
  0
XRECORD
  5
15D3
102
{ACAD_REACTORS
330
14A4
102
}
330
14A4
100
AcDbXrecord
340
1F
  0
XRECORD
  5
15D2
102
{ACAD_REACTORS
330
14A6
102
}
330
14A6
100
AcDbXrecord
340
1B
  0
MLINESTYLE
  5
18
102
{ACAD_REACTORS
330
17
102
}
330
17
100
AcDbMlineStyle
  2
STANDARD
 70
     0
  3

 62
   256
 51
90.0
 52
90.0
 71
     2
 49
0.5
 62
   256
  6
BYLAYER
 49
-0.5
 62
   256
  6
BYLAYER
  0
ENDSEC
  0
EOF
