  0
SECTION
  2
HEADER
  9
$ACADVER
  1
AC1012
  9
$DWGCODEPAGE
  3
dos932
  9
$INSBASE
 10
0.0
 20
0.0
 30
0.0
  9
$EXTMIN
 10
-0.2718908761999046
 20
-0.1922558694768668
 30
-0.0015258207003583
  9
$EXTMAX
 10
5940.317247512655
 20
4200.438327852546
 30
0.0000000349246037
  9
$LIMMIN
 10
0.0
 20
0.0
  9
$LIMMAX
 10
5940.0
 20
4200.0
  9
$ORTHOMODE
 70
     0
  9
$REGENMODE
 70
     1
  9
$FILLMODE
 70
     1
  9
$QTEXTMODE
 70
     0
  9
$MIRRTEXT
 70
     1
  9
$DRAGMODE
 70
     2
  9
$LTSCALE
 40
20.0
  9
$OSMODE
 70
    37
  9
$ATTMODE
 70
     1
  9
$TEXTSIZE
 40
0.0
  9
$TRACEWID
 40
0.05
  9
$TEXTSTYLE
  7
STANDARD
  9
$CLAYER
  8
0
  9
$CELTYPE
  6
CONTINUOUS
  9
$CECOLOR
 62
   256
  9
$CELTSCALE
 40
1.0
  9
$DELOBJ
 70
     1
  9
$DISPSILH
 70
     0
  9
$DIMSCALE
 40
20.0
  9
$DIMASZ
 40
0.18
  9
$DIMEXO
 40
0.0625
  9
$DIMDLI
 40
0.38
  9
$DIMRND
 40
0.0
  9
$DIMDLE
 40
0.0
  9
$DIMEXE
 40
0.18
  9
$DIMTP
 40
0.0
  9
$DIMTM
 40
0.0
  9
$DIMTXT
 40
0.18
  9
$DIMCEN
 40
0.09
  9
$DIMTSZ
 40
0.0
  9
$DIMTOL
 70
     0
  9
$DIMLIM
 70
     0
  9
$DIMTIH
 70
     1
  9
$DIMTOH
 70
     1
  9
$DIMSE1
 70
     0
  9
$DIMSE2
 70
     0
  9
$DIMTAD
 70
     0
  9
$DIMZIN
 70
     0
  9
$DIMBLK
  1

  9
$DIMASO
 70
     1
  9
$DIMSHO
 70
     1
  9
$DIMPOST
  1

  9
$DIMAPOST
  1

  9
$DIMALT
 70
     0
  9
$DIMALTD
 70
     2
  9
$DIMALTF
 40
25.4
  9
$DIMLFAC
 40
1.0
  9
$DIMTOFL
 70
     0
  9
$DIMTVP
 40
0.0
  9
$DIMTIX
 70
     0
  9
$DIMSOXD
 70
     0
  9
$DIMSAH
 70
     0
  9
$DIMBLK1
  1

  9
$DIMBLK2
  1

  9
$DIMSTYLE
  2
STANDARD
  9
$DIMCLRD
 70
     0
  9
$DIMCLRE
 70
     0
  9
$DIMCLRT
 70
     0
  9
$DIMTFAC
 40
1.0
  9
$DIMGAP
 40
0.09
  9
$DIMJUST
 70
     0
  9
$DIMSD1
 70
     0
  9
$DIMSD2
 70
     0
  9
$DIMTOLJ
 70
     1
  9
$DIMTZIN
 70
     0
  9
$DIMALTZ
 70
     0
  9
$DIMALTTZ
 70
     0
  9
$DIMFIT
 70
     3
  9
$DIMUPT
 70
     0
  9
$DIMUNIT
 70
     2
  9
$DIMDEC
 70
     4
  9
$DIMTDEC
 70
     4
  9
$DIMALTU
 70
     2
  9
$DIMALTTD
 70
     2
  9
$DIMTXSTY
  7
STANDARD
  9
$DIMAUNIT
 70
     0
  9
$LUNITS
 70
     2
  9
$LUPREC
 70
     4
  9
$SKETCHINC
 40
0.1
  9
$FILLETRAD
 40
0.0
  9
$AUNITS
 70
     0
  9
$AUPREC
 70
     0
  9
$MENU
  1
.
  9
$ELEVATION
 40
0.0
  9
$PELEVATION
 40
0.0
  9
$THICKNESS
 40
0.0
  9
$LIMCHECK
 70
     0
  9
$BLIPMODE
 70
     0
  9
$CHAMFERA
 40
0.0
  9
$CHAMFERB
 40
0.0
  9
$CHAMFERC
 40
0.0
  9
$CHAMFERD
 40
0.0
  9
$SKPOLY
 70
     0
  9
$TDCREATE
 40
2451858.366085555
  9
$TDUPDATE
 40
2451858.380389803
  9
$TDINDWG
 40
0.0143061111
  9
$TDUSRTIMER
 40
0.0143061111
  9
$USRTIMER
 70
     1
  9
$ANGBASE
 50
0.0
  9
$ANGDIR
 70
     0
  9
$PDMODE
 70
     0
  9
$PDSIZE
 40
40.0
  9
$PLINEWID
 40
0.0
  9
$COORDS
 70
     1
  9
$SPLFRAME
 70
     0
  9
$SPLINETYPE
 70
     6
  9
$SPLINESEGS
 70
     8
  9
$ATTDIA
 70
     0
  9
$ATTREQ
 70
     1
  9
$HANDLING
 70
 10241
  9
$HANDSEED
  5
9D7B
  9
$SURFTAB1
 70
     6
  9
$SURFTAB2
 70
     6
  9
$SURFTYPE
 70
     6
  9
$SURFU
 70
     6
  9
$SURFV
 70
     6
  9
$UCSNAME
  2

  9
$UCSORG
 10
0.0
 20
0.0
 30
0.0
  9
$UCSXDIR
 10
1.0
 20
0.0
 30
0.0
  9
$UCSYDIR
 10
0.0
 20
1.0
 30
0.0
  9
$PUCSNAME
  2

  9
$PUCSORG
 10
0.0
 20
0.0
 30
0.0
  9
$PUCSXDIR
 10
1.0
 20
0.0
 30
0.0
  9
$PUCSYDIR
 10
0.0
 20
1.0
 30
0.0
  9
$USERI1
 70
     0
  9
$USERI2
 70
     0
  9
$USERI3
 70
     0
  9
$USERI4
 70
     0
  9
$USERI5
 70
     0
  9
$USERR1
 40
0.0
  9
$USERR2
 40
0.0
  9
$USERR3
 40
0.0
  9
$USERR4
 40
0.0
  9
$USERR5
 40
0.0
  9
$WORLDVIEW
 70
     1
  9
$SHADEDGE
 70
     3
  9
$SHADEDIF
 70
    70
  9
$TILEMODE
 70
     1
  9
$MAXACTVP
 70
    64
  9
$PINSBASE
 10
0.0
 20
0.0
 30
0.0
  9
$PLIMCHECK
 70
     0
  9
$PEXTMIN
 10
1.000000000000000E+20
 20
1.000000000000000E+20
 30
1.000000000000000E+20
  9
$PEXTMAX
 10
-1.000000000000000E+20
 20
-1.000000000000000E+20
 30
-1.000000000000000E+20
  9
$PLIMMIN
 10
0.0
 20
0.0
  9
$PLIMMAX
 10
12.0
 20
9.0
  9
$UNITMODE
 70
     0
  9
$VISRETAIN
 70
     1
  9
$PLINEGEN
 70
     0
  9
$PSLTSCALE
 70
     1
  9
$TREEDEPTH
 70
  3020
  9
$PICKSTYLE
 70
     1
  9
$CMLSTYLE
  2
STANDARD
  9
$CMLJUST
 70
     0
  9
$CMLSCALE
 40
1.0
  9
$SAVEIMAGES
 70
     1
  0
ENDSEC
  0
SECTION
  2
CLASSES
  0
CLASS
  1
ACDBDICTIONARYWDFLT
  2
AcDbDictionaryWithDefault
  3
AutoCAD 2000
 90
    32768
280
     0
281
     0
  0
CLASS
  1
ACDBPLACEHOLDER
  2
AcDbPlaceHolder
  3
AutoCAD 2000
 90
    32768
280
     0
281
     0
  0
CLASS
  1
LAYOUT
  2
AcDbLayout
  3
AutoCAD 2000
 90
    32768
280
     0
281
     0
  0
CLASS
  1
LONG_TRANSACTION
  2
AcDbLongTransaction
  3
AutoCAD 2000
 90
    32768
280
     0
281
     0
  0
CLASS
  1
LWPOLYLINE
  2
AcDbPolyline
  3
AutoCAD 2000
 90
    32768
280
     0
281
     1
  0
CLASS
  1
HATCH
  2
AcDbHatch
  3
AutoCAD 2000
 90
    32768
280
     0
281
     1
  0
CLASS
  1
XRECORD
  2
AcDbXrecord
  3
AutoCAD 2000
 90
    32768
280
     0
281
     0
  0
ENDSEC
  0
SECTION
  2
TABLES
  0
TABLE
  2
VPORT
  5
1F4
330
0
100
AcDbSymbolTable
 70
     6
  0
VPORT
  5
9D76
330
1F4
100
AcDbSymbolTableRecord
100
AcDbViewportTableRecord
  2
*ACTIVE
 70
     0
 10
0.0
 20
0.0
 11
1.0
 21
1.0
 12
2970.022678318228
 22
2100.123035991535
 13
0.0
 23
0.0
 14
1.0
 24
1.0
 15
0.0
 25
0.0
 16
0.0
 26
0.0
 36
1.0
 17
0.0
 27
0.0
 37
0.0
 40
4234.542593885822
 41
1.577075098814229
 42
50.0
 43
0.0
 44
0.0
 50
0.0
 51
0.0
 71
     0
 72
   100
 73
     1
 74
     1
 75
     0
 76
     0
 77
     0
 78
     0
  0
ENDTAB
  0
TABLE
  2
LTYPE
  5
1F6
330
0
100
AcDbSymbolTable
 70
     9
  0
LTYPE
  5
1F7
330
1F6
100
AcDbSymbolTableRecord
100
AcDbLinetypeTableRecord
  2
BYBLOCK
 70
     0
  3

 72
    65
 73
     0
 40
0.0
  0
LTYPE
  5
1F8
330
1F6
100
AcDbSymbolTableRecord
100
AcDbLinetypeTableRecord
  2
BYLAYER
 70
     0
  3

 72
    65
 73
     0
 40
0.0
  0
LTYPE
  5
1F9
330
1F6
100
AcDbSymbolTableRecord
100
AcDbLinetypeTableRecord
  2
CONTINUOUS
 70
     0
  3
実線
 72
    65
 73
     0
 40
0.0
  0
LTYPE
  5
1FA
330
1F6
100
AcDbSymbolTableRecord
100
AcDbLinetypeTableRecord
  2
DOT
 70
     0
  3
--  --  --  --  --  --  --  --     
 72
    65
 73
     2
 40
10.0
 49
4.0
 74
     0
 49
-6.0
 74
     0
  0
LTYPE
  5
1FB
330
1F6
100
AcDbSymbolTableRecord
100
AcDbLinetypeTableRecord
  2
DASHED
 70
     0
  3
----    ----    ----    ----    
 72
    65
 73
     2
 40
10.0
 49
6.0
 74
     0
 49
-4.0
 74
     0
  0
LTYPE
  5
1FC
330
1F6
100
AcDbSymbolTableRecord
100
AcDbLinetypeTableRecord
  2
DASHED2
 70
     0
  3
------  ------  ------  ------ 
 72
    65
 73
     2
 40
15.0
 49
10.0
 74
     0
 49
-5.0
 74
     0
  0
LTYPE
  5
1FD
330
1F6
100
AcDbSymbolTableRecord
100
AcDbLinetypeTableRecord
  2
CENTER
 70
     0
  3
----- - ----- - ----- - ----- - 
 72
    65
 73
     4
 40
9.0
 49
6.0
 74
     0
 49
-1.0
 74
     0
 49
1.0
 74
     0
 49
-1.0
 74
     0
  0
LTYPE
  5
1FE
330
1F6
100
AcDbSymbolTableRecord
100
AcDbLinetypeTableRecord
  2
CENTER2
 70
     0
  3
----------  --  ----------  --  
 72
    65
 73
     4
 40
18.0
 49
12.0
 74
     0
 49
-2.0
 74
     0
 49
2.0
 74
     0
 49
-2.0
 74
     0
  0
LTYPE
  5
1FF
330
1F6
100
AcDbSymbolTableRecord
100
AcDbLinetypeTableRecord
  2
PHANTOM
 70
     0
  3
--- - - --- - - --- - - --- - - 
 72
    65
 73
     6
 40
10.0
 49
5.0
 74
     0
 49
-1.0
 74
     0
 49
1.0
 74
     0
 49
-1.0
 74
     0
 49
1.0
 74
     0
 49
-1.0
 74
     0
  0
LTYPE
  5
200
330
1F6
100
AcDbSymbolTableRecord
100
AcDbLinetypeTableRecord
  2
PHANTOM2
 70
     0
  3
--------  -  -  --------  -  - 
 72
    65
 73
     6
 40
16.0
 49
6.0
 74
     0
 49
-2.0
 74
     0
 49
2.0
 74
     0
 49
-2.0
 74
     0
 49
2.0
 74
     0
 49
-2.0
 74
     0
  0
LTYPE
  5
201
330
1F6
100
AcDbSymbolTableRecord
100
AcDbLinetypeTableRecord
  2
HIDDEN
 70
     0
  3
-   -   -   -   -   -   -   -   
 72
    65
 73
     2
 40
2.5
 49
0.5
 74
     0
 49
-2.0
 74
     0
  0
ENDTAB
  0
TABLE
  2
LAYER
  5
607
330
0
100
AcDbSymbolTable
 70
     8
  0
LAYER
  5
608
330
607
100
AcDbSymbolTableRecord
100
AcDbLayerTableRecord
  2
0
 70
     0
 62
     7
  6
CONTINUOUS
  0
LAYER
  5
609
330
607
100
AcDbSymbolTableRecord
100
AcDbLayerTableRecord
  2
0-3C1
 70
     0
 62
     7
  6
CONTINUOUS
  0
LAYER
  5
60A
330
607
100
AcDbSymbolTableRecord
100
AcDbLayerTableRecord
  2
0-ADD
 70
     0
 62
    -7
  6
CONTINUOUS
  0
LAYER
  5
60B
330
607
100
AcDbSymbolTableRecord
100
AcDbLayerTableRecord
  2
1-HOJO
 70
     0
 62
     7
  6
CONTINUOUS
  0
LAYER
  5
60C
330
607
100
AcDbSymbolTableRecord
100
AcDbLayerTableRecord
  2
1-KIJUN
 70
     0
 62
     7
  6
CONTINUOUS
  0
LAYER
  5
60D
330
607
100
AcDbSymbolTableRecord
100
AcDbLayerTableRecord
  2
1-SUNPO
 70
     0
 62
     7
  6
CONTINUOUS
  0
LAYER
  5
60E
330
607
100
AcDbSymbolTableRecord
100
AcDbLayerTableRecord
  2
1-ADD
 70
     0
 62
    -7
  6
CONTINUOUS
  0
LAYER
  5
9D02
330
607
100
AcDbSymbolTableRecord
100
AcDbLayerTableRecord
  2
MOJI
 70
     0
 62
     7
  6
CONTINUOUS
  0
ENDTAB
  0
TABLE
  2
STYLE
  5
202
330
0
100
AcDbSymbolTable
 70
     4
  0
STYLE
  5
203
330
202
100
AcDbSymbolTableRecord
100
AcDbTextStyleTableRecord
  2
STANDARD
 70
     0
 40
0.0
 41
1.0
 50
0.0
 71
     0
 42
0.0
  3
txt.shx
  4
extfont.shx
  0
STYLE
  5
204
330
202
100
AcDbSymbolTableRecord
100
AcDbTextStyleTableRecord
  2
TATEGAKI
 70
     4
 40
0.0
 41
1.0
 50
0.0
 71
     0
 42
0.0
  3
txt.shx
  4
extfont.shx
  0
STYLE
  5
205
330
202
100
AcDbSymbolTableRecord
100
AcDbTextStyleTableRecord
  2
MT
 70
     0
 40
0.0
 41
1.0
 50
0.0
 71
     0
 42
0.0
  3
MS Gothic
  4

  0
STYLE
  5
206
330
202
100
AcDbSymbolTableRecord
100
AcDbTextStyleTableRecord
  2
TMT
 70
     4
 40
0.0
 41
1.0
 50
0.0
 71
     0
 42
0.0
  3
@MS Gothic
  4

  0
ENDTAB
  0
TABLE
  2
VIEW
  5
207
330
0
100
AcDbSymbolTable
 70
     0
  0
ENDTAB
  0
TABLE
  2
UCS
  5
208
330
0
100
AcDbSymbolTable
 70
     0
  0
ENDTAB
  0
TABLE
  2
APPID
  5
209
330
0
100
AcDbSymbolTable
 70
     1
  0
APPID
  5
20A
330
209
100
AcDbSymbolTableRecord
100
AcDbRegAppTableRecord
  2
ACAD
 70
     0
  0
ENDTAB
  0
TABLE
  2
DIMSTYLE
  5
20B
330
0
100
AcDbSymbolTable
 70
     1
  0
DIMSTYLE
105
20C
330
20B
100
AcDbSymbolTableRecord
100
AcDbDimStyleTableRecord
  2
STANDARD
 70
     0
  3

  4

  5

  6

  7

 40
1.0
 41
0.18
 42
0.0625
 43
0.38
 44
0.18
 45
0.0
 46
0.0
 47
0.0
 48
0.0
140
0.18
141
0.09
142
0.0
143
25.4
144
1.0
145
0.0
146
1.0
147
0.09
 71
     0
 72
     0
 73
     1
 74
     1
 75
     0
 76
     0
 77
     0
 78
     0
170
     0
171
     2
172
     0
173
     0
174
     0
175
     0
176
     0
177
     0
178
     0
270
     2
271
     4
272
     4
273
     2
274
     2
340
0
275
     0
280
     0
281
     0
282
     0
283
     1
284
     0
285
     0
286
     0
287
     3
288
     0
  0
ENDTAB
  0
TABLE
  2
BLOCK_RECORD
  5
20D
330
0
100
AcDbSymbolTable
 70
     1
  0
BLOCK_RECORD
  5
20E
102
{ACAD_XDICTIONARY
360
9D77
102
}
330
20D
100
AcDbSymbolTableRecord
100
AcDbBlockTableRecord
  2
*MODEL_SPACE
  0
BLOCK_RECORD
  5
20F
102
{ACAD_XDICTIONARY
360
9D79
102
}
330
20D
100
AcDbSymbolTableRecord
100
AcDbBlockTableRecord
  2
*PAPER_SPACE
  0
BLOCK_RECORD
  5
210
330
20D
100
AcDbSymbolTableRecord
100
AcDbBlockTableRecord
  2
REVDATE
  0
ENDTAB
  0
ENDSEC
  0
SECTION
  2
BLOCKS
  0
BLOCK
  5
60F
330
20E
100
AcDbEntity
  8
0
100
AcDbBlockBegin
  2
*MODEL_SPACE
 70
     0
 10
0.0
 20
0.0
 30
0.0
  3
*MODEL_SPACE
  1

  0
ENDBLK
  5
610
330
20E
100
AcDbEntity
  8
0
100
AcDbBlockEnd
  0
BLOCK
  5
611
330
20F
100
AcDbEntity
 67
     1
  8
0
100
AcDbBlockBegin
  2
*PAPER_SPACE
 70
     0
 10
0.0
 20
0.0
 30
0.0
  3
*PAPER_SPACE
  1

  0
ENDBLK
  5
612
330
20F
100
AcDbEntity
 67
     1
  8
0
100
AcDbBlockEnd
  0
BLOCK
  5
613
330
210
100
AcDbEntity
  8
0
100
AcDbBlockBegin
  2
REVDATE
 70
     2
 10
0.0
 20
0.0
 30
0.0
  3
REVDATE
  1
REVDATE
  0
ATTDEF
  5
614
330
210
100
AcDbEntity
  8
0
 62
     0
100
AcDbText
 10
0.0
 20
0.0
 30
0.0
 40
1.0
  1

100
AcDbAttributeDefinition
  3

  2
USER
 70
     8
  0
ATTDEF
  5
615
330
210
100
AcDbEntity
  8
0
 62
     0
100
AcDbText
 10
0.0
 20
0.0
 30
0.0
 40
1.0
  1

100
AcDbAttributeDefinition
  3

  2
REVDATE
 70
     8
  0
ATTDEF
  5
616
330
210
100
AcDbEntity
  8
0
 62
     0
100
AcDbText
 10
0.0
 20
0.0
 30
0.0
 40
1.0
  1

100
AcDbAttributeDefinition
  3

  2
FNAME
 70
     8
  0
ENDBLK
  5
617
330
210
100
AcDbEntity
  8
0
100
AcDbBlockEnd
  0
ENDSEC
  0
SECTION
  2
ENTITIES
  0
LINE
  5
618
330
20E
100
AcDbEntity
  8
1-HOJO
  6
CONTINUOUS
 62
     5
100
AcDbLine
 10
0.0
 20
0.0
 30
0.0
 11
5940.0
 21
0.0
 31
0.0
  0
LINE
  5
619
330
20E
100
AcDbEntity
  8
1-HOJO
  6
CONTINUOUS
 62
     5
100
AcDbLine
 10
5940.0
 20
0.0
 30
0.0
 11
5940.0
 21
4200.0
 31
0.0
  0
LINE
  5
61A
330
20E
100
AcDbEntity
  8
1-HOJO
  6
CONTINUOUS
 62
     5
100
AcDbLine
 10
5940.0
 20
4200.0
 30
0.0
 11
0.0
 21
4200.0
 31
0.0
  0
LINE
  5
61B
330
20E
100
AcDbEntity
  8
1-HOJO
  6
CONTINUOUS
 62
     5
100
AcDbLine
 10
0.0
 20
4200.0
 30
0.0
 11
0.0
 21
0.0
 31
0.0
  0
LINE
  5
61C
330
20E
100
AcDbEntity
  8
1-HOJO
  6
CONTINUOUS
 62
     5
100
AcDbLine
 10
360.0
 20
260.0
 30
0.0
 11
5580.0
 21
260.0
 31
0.0
  0
LINE
  5
61D
330
20E
100
AcDbEntity
  8
1-HOJO
  6
CONTINUOUS
 62
     5
100
AcDbLine
 10
5580.0
 20
260.0
 30
0.0
 11
5580.0
 21
3940.0
 31
0.0
  0
LINE
  5
61E
330
20E
100
AcDbEntity
  8
1-HOJO
  6
CONTINUOUS
 62
     5
100
AcDbLine
 10
5580.0
 20
3940.0
 30
0.0
 11
360.0
 21
3940.0
 31
0.0
  0
LINE
  5
61F
330
20E
100
AcDbEntity
  8
1-HOJO
  6
CONTINUOUS
 62
     5
100
AcDbLine
 10
360.0
 20
3940.0
 30
0.0
 11
360.0
 21
260.0
 31
0.0
  0
LINE
  5
620
330
20E
100
AcDbEntity
  8
1-HOJO
  6
CONTINUOUS
 62
     5
100
AcDbLine
 10
360.0
 20
260.0
 30
0.0
 11
5580.0
 21
260.0
 31
0.0
  0
LINE
  5
621
330
20E
100
AcDbEntity
  8
1-HOJO
  6
CONTINUOUS
 62
     5
100
AcDbLine
 10
360.0
 20
560.0
 30
0.0
 11
5580.0
 21
560.0
 31
0.0
  0
LINE
  5
622
330
20E
100
AcDbEntity
  8
1-HOJO
  6
CONTINUOUS
 62
     5
100
AcDbLine
 10
360.0
 20
260.0
 30
0.0
 11
360.0
 21
560.0
 31
0.0
  0
LINE
  5
623
330
20E
100
AcDbEntity
  8
1-HOJO
  6
CONTINUOUS
 62
     5
100
AcDbLine
 10
2360.0
 20
260.0
 30
0.0
 11
2360.0
 21
560.0
 31
0.0
  0
LINE
  5
624
330
20E
100
AcDbEntity
  8
1-HOJO
  6
CONTINUOUS
 62
     5
100
AcDbLine
 10
3160.0
 20
260.0
 30
0.0
 11
3160.0
 21
560.0
 31
0.0
  0
LINE
  5
625
330
20E
100
AcDbEntity
  8
1-HOJO
  6
CONTINUOUS
 62
     5
100
AcDbLine
 10
3660.0
 20
260.0
 30
0.0
 11
3660.0
 21
560.0
 31
0.0
  0
LINE
  5
626
330
20E
100
AcDbEntity
  8
1-SUNPO
  6
CONTINUOUS
100
AcDbLine
 10
2474.35
 20
2801.56
 30
0.0
 11
4474.35
 21
2801.56
 31
0.0
  0
LINE
  5
627
330
20E
100
AcDbEntity
  8
1-SUNPO
  6
CONTINUOUS
100
AcDbLine
 10
2474.35
 20
2629.01
 30
0.0
 11
2474.35
 21
2801.56
 31
0.0
  0
LINE
  5
628
330
20E
100
AcDbEntity
  8
1-SUNPO
  6
CONTINUOUS
100
AcDbLine
 10
4474.35
 20
2629.01
 30
0.0
 11
4474.35
 21
2801.56
 31
0.0
  0
LINE
  5
629
330
20E
100
AcDbEntity
  8
1-SUNPO
  6
CONTINUOUS
100
AcDbLine
 10
1881.8
 20
2215.26
 30
0.0
 11
1866.799999999999
 21
2241.239999999999
 31
0.0
  0
LINE
  5
62A
330
20E
100
AcDbEntity
  8
1-SUNPO
  6
CONTINUOUS
100
AcDbLine
 10
1586.46
 20
2736.39
 30
0.0
 11
1625.099999999999
 21
2746.739999999999
 31
0.0
  0
LINE
  5
62B
330
20E
100
AcDbEntity
  8
1-SUNPO
  6
CONTINUOUS
100
AcDbLine
 10
1586.46
 20
2746.739999999999
 30
0.0
 11
1625.099999999999
 21
2736.39
 31
0.0
  0
LINE
  5
62C
330
20E
100
AcDbEntity
  8
1-SUNPO
  6
CONTINUOUS
100
AcDbLine
 10
1558.78
 20
2741.56
 30
0.0
 11
1578.1
 21
2746.739999999999
 31
0.0
  0
LINE
  5
62D
330
20E
100
AcDbEntity
  8
1-SUNPO
  6
CONTINUOUS
100
AcDbLine
 10
1558.78
 20
2741.56
 30
0.0
 11
1578.1
 21
2736.39
 31
0.0
  0
LINE
  5
62E
330
20E
100
AcDbEntity
  8
1-SUNPO
  6
CONTINUOUS
100
AcDbLine
 10
1886.459999999999
 20
2736.39
 30
0.0
 11
1925.1
 21
2746.739999999999
 31
0.0
  0
LINE
  5
62F
330
20E
100
AcDbEntity
  8
1-SUNPO
  6
CONTINUOUS
100
AcDbLine
 10
1886.459999999999
 20
2746.739999999999
 30
0.0
 11
1925.1
 21
2736.39
 31
0.0
  0
LINE
  5
630
330
20E
100
AcDbEntity
  8
1-SUNPO
  6
CONTINUOUS
100
AcDbLine
 10
1952.779999999999
 20
2741.56
 30
0.0
 11
1933.46
 21
2746.739999999999
 31
0.0
  0
LINE
  5
631
330
20E
100
AcDbEntity
  8
1-SUNPO
  6
CONTINUOUS
100
AcDbLine
 10
1952.779999999999
 20
2741.56
 30
0.0
 11
1933.46
 21
2736.39
 31
0.0
  0
LINE
  5
632
330
20E
100
AcDbEntity
  8
1-SUNPO
  6
CONTINUOUS
100
AcDbLine
 10
2474.35
 20
2801.56
 30
0.0
 11
2493.67
 21
2806.739999999999
 31
0.0
  0
LINE
  5
633
330
20E
100
AcDbEntity
  8
1-SUNPO
  6
CONTINUOUS
100
AcDbLine
 10
2474.35
 20
2801.56
 30
0.0
 11
2493.67
 21
2796.39
 31
0.0
  0
LINE
  5
634
330
20E
100
AcDbEntity
  8
1-SUNPO
  6
CONTINUOUS
100
AcDbLine
 10
4474.35
 20
2801.56
 30
0.0
 11
4455.029999999999
 21
2806.739999999999
 31
0.0
  0
LINE
  5
635
330
20E
100
AcDbEntity
  8
1-SUNPO
  6
CONTINUOUS
100
AcDbLine
 10
4474.35
 20
2801.56
 30
0.0
 11
4455.029999999999
 21
2796.39
 31
0.0
  0
LINE
  5
636
330
20E
100
AcDbEntity
  8
0-3C1
  6
CONTINUOUS
100
AcDbLine
 10
2474.35
 20
2161.56
 30
0.0
 11
4474.35
 21
2161.56
 31
0.0
  0
LINE
  5
637
330
20E
100
AcDbEntity
  8
0-3C1
  6
DASHED2
100
AcDbLine
 10
2474.35
 20
2201.56
 30
0.0
 11
4474.35
 21
2201.56
 31
0.0
  0
LINE
  5
638
330
20E
100
AcDbEntity
  8
1-SUNPO
  6
CONTINUOUS
100
AcDbLine
 10
1558.78
 20
2741.56
 30
0.0
 11
1952.779999999999
 21
2741.56
 31
0.0
  0
LINE
  5
639
330
20E
100
AcDbEntity
  8
0-3C1
  6
CONTINUOUS
100
AcDbLine
 10
1952.779999999999
 20
2501.56
 30
0.0
 11
1905.78
 21
2501.56
 31
0.0
  0
LINE
  5
63A
330
20E
100
AcDbEntity
  8
0-3C1
  6
CONTINUOUS
100
AcDbLine
 10
1955.78
 20
2601.56
 30
0.0
 11
1952.779999999999
 21
2501.56
 31
0.0
  0
LINE
  5
63B
330
20E
100
AcDbEntity
  8
0-3C1
  6
CONTINUOUS
100
AcDbLine
 10
1847.419999999999
 20
2201.56
 30
0.0
 11
1755.78
 21
2201.56
 31
0.0
  0
LINE
  5
63C
330
20E
100
AcDbEntity
  8
0-3C1
  6
CONTINUOUS
100
AcDbLine
 10
1897.39
 20
2249.9
 30
0.0
 11
1905.78
 21
2501.56
 31
0.0
  0
LINE
  5
63D
330
20E
100
AcDbEntity
  8
0-3C1
  6
CONTINUOUS
100
AcDbLine
 10
1935.78
 20
2141.56
 30
0.0
 11
1755.78
 21
2141.56
 31
0.0
  0
LINE
  5
63E
330
20E
100
AcDbEntity
  8
0-3C1
  6
CONTINUOUS
100
AcDbLine
 10
1935.78
 20
2141.56
 30
0.0
 11
1955.78
 21
2161.56
 31
0.0
  0
LINE
  5
63F
330
20E
100
AcDbEntity
  8
0-3C1
  6
CONTINUOUS
100
AcDbLine
 10
1960.78
 20
2436.56
 30
0.0
 11
1955.78
 21
2161.56
 31
0.0
  0
LINE
  5
640
330
20E
100
AcDbEntity
  8
0-3C1
  6
CONTINUOUS
100
AcDbLine
 10
2000.78
 20
2476.56
 30
0.0
 11
1960.78
 21
2436.56
 31
0.0
  0
LINE
  5
641
330
20E
100
AcDbEntity
  8
0-3C1
  6
CONTINUOUS
100
AcDbLine
 10
1558.78
 20
2501.56
 30
0.0
 11
1605.78
 21
2501.56
 31
0.0
  0
LINE
  5
642
330
20E
100
AcDbEntity
  8
0-3C1
  6
CONTINUOUS
100
AcDbLine
 10
1555.78
 20
2601.56
 30
0.0
 11
1558.78
 21
2501.56
 31
0.0
  0
LINE
  5
643
330
20E
100
AcDbEntity
  8
0-3C1
  6
CONTINUOUS
100
AcDbLine
 10
1664.14
 20
2201.56
 30
0.0
 11
1755.78
 21
2201.56
 31
0.0
  0
LINE
  5
644
330
20E
100
AcDbEntity
  8
0-3C1
  6
CONTINUOUS
100
AcDbLine
 10
1614.17
 20
2249.9
 30
0.0
 11
1605.78
 21
2501.56
 31
0.0
  0
LINE
  5
645
330
20E
100
AcDbEntity
  8
0-3C1
  6
CONTINUOUS
100
AcDbLine
 10
1575.779999999999
 20
2141.56
 30
0.0
 11
1755.78
 21
2141.56
 31
0.0
  0
LINE
  5
646
330
20E
100
AcDbEntity
  8
0-3C1
  6
CONTINUOUS
100
AcDbLine
 10
1575.779999999999
 20
2141.56
 30
0.0
 11
1555.78
 21
2161.56
 31
0.0
  0
LINE
  5
647
330
20E
100
AcDbEntity
  8
0-3C1
  6
CONTINUOUS
100
AcDbLine
 10
1550.78
 20
2436.56
 30
0.0
 11
1555.78
 21
2161.56
 31
0.0
  0
LINE
  5
648
330
20E
100
AcDbEntity
  8
0-3C1
  6
CONTINUOUS
100
AcDbLine
 10
1510.78
 20
2476.56
 30
0.0
 11
1550.78
 21
2436.56
 31
0.0
  0
LINE
  5
649
330
20E
100
AcDbEntity
  8
1-SUNPO
  6
CONTINUOUS
100
AcDbLine
 10
2130.78
 20
2141.56
 30
0.0
 11
2130.78
 21
2201.56
 31
0.0
  0
LINE
  5
64A
330
20E
100
AcDbEntity
  8
1-SUNPO
  6
CONTINUOUS
100
AcDbLine
 10
2060.78
 20
2141.56
 30
0.0
 11
2130.78
 21
2141.56
 31
0.0
  0
LINE
  5
64B
330
20E
100
AcDbEntity
  8
1-SUNPO
  6
CONTINUOUS
100
AcDbLine
 10
2060.78
 20
2201.56
 30
0.0
 11
2130.78
 21
2201.56
 31
0.0
  0
LINE
  5
64C
330
20E
100
AcDbEntity
  8
1-SUNPO
  6
CONTINUOUS
100
AcDbLine
 10
2130.78
 20
2141.56
 30
0.0
 11
2125.599999999999
 21
2160.88
 31
0.0
  0
LINE
  5
64D
330
20E
100
AcDbEntity
  8
1-SUNPO
  6
CONTINUOUS
100
AcDbLine
 10
2130.78
 20
2141.56
 30
0.0
 11
2135.949999999999
 21
2160.88
 31
0.0
  0
LINE
  5
64E
330
20E
100
AcDbEntity
  8
1-SUNPO
  6
CONTINUOUS
100
AcDbLine
 10
2130.78
 20
2201.56
 30
0.0
 11
2125.599999999999
 21
2182.239999999999
 31
0.0
  0
LINE
  5
64F
330
20E
100
AcDbEntity
  8
1-SUNPO
  6
CONTINUOUS
100
AcDbLine
 10
2130.78
 20
2201.56
 30
0.0
 11
2135.949999999999
 21
2182.239999999999
 31
0.0
  0
LINE
  5
650
330
20E
100
AcDbEntity
  8
1-SUNPO
  6
CONTINUOUS
100
AcDbLine
 10
2130.78
 20
2201.56
 30
0.0
 11
2130.78
 21
2501.56
 31
0.0
  0
LINE
  5
651
330
20E
100
AcDbEntity
  8
1-SUNPO
  6
CONTINUOUS
100
AcDbLine
 10
2060.78
 20
2501.56
 30
0.0
 11
2130.78
 21
2501.56
 31
0.0
  0
LINE
  5
652
330
20E
100
AcDbEntity
  8
1-SUNPO
  6
CONTINUOUS
100
AcDbLine
 10
2130.78
 20
2201.56
 30
0.0
 11
2125.599999999999
 21
2220.88
 31
0.0
  0
LINE
  5
653
330
20E
100
AcDbEntity
  8
1-SUNPO
  6
CONTINUOUS
100
AcDbLine
 10
2130.78
 20
2201.56
 30
0.0
 11
2135.949999999999
 21
2220.88
 31
0.0
  0
LINE
  5
654
330
20E
100
AcDbEntity
  8
1-SUNPO
  6
CONTINUOUS
100
AcDbLine
 10
2130.78
 20
2501.56
 30
0.0
 11
2125.599999999999
 21
2482.24
 31
0.0
  0
LINE
  5
655
330
20E
100
AcDbEntity
  8
1-SUNPO
  6
CONTINUOUS
100
AcDbLine
 10
2130.78
 20
2501.56
 30
0.0
 11
2135.949999999999
 21
2482.24
 31
0.0
  0
LINE
  5
656
330
20E
100
AcDbEntity
  8
1-SUNPO
  6
CONTINUOUS
100
AcDbLine
 10
2130.78
 20
2501.56
 30
0.0
 11
2130.78
 21
2601.56
 31
0.0
  0
LINE
  5
657
330
20E
100
AcDbEntity
  8
1-SUNPO
  6
CONTINUOUS
100
AcDbLine
 10
2060.78
 20
2601.56
 30
0.0
 11
2130.78
 21
2601.56
 31
0.0
  0
LINE
  5
658
330
20E
100
AcDbEntity
  8
1-SUNPO
  6
CONTINUOUS
100
AcDbLine
 10
2130.78
 20
2501.56
 30
0.0
 11
2125.599999999999
 21
2520.88
 31
0.0
  0
LINE
  5
659
330
20E
100
AcDbEntity
  8
1-SUNPO
  6
CONTINUOUS
100
AcDbLine
 10
2130.78
 20
2501.56
 30
0.0
 11
2135.949999999999
 21
2520.88
 31
0.0
  0
LINE
  5
65A
330
20E
100
AcDbEntity
  8
1-SUNPO
  6
CONTINUOUS
100
AcDbLine
 10
2130.78
 20
2601.56
 30
0.0
 11
2125.599999999999
 21
2582.24
 31
0.0
  0
LINE
  5
65B
330
20E
100
AcDbEntity
  8
1-SUNPO
  6
CONTINUOUS
100
AcDbLine
 10
2130.78
 20
2601.56
 30
0.0
 11
2135.949999999999
 21
2582.24
 31
0.0
  0
LINE
  5
65C
330
20E
100
AcDbEntity
  8
1-SUNPO
  6
CONTINUOUS
100
AcDbLine
 10
1380.78
 20
2601.56
 30
0.0
 11
1380.78
 21
2476.56
 31
0.0
  0
LINE
  5
65D
330
20E
100
AcDbEntity
  8
1-SUNPO
  6
CONTINUOUS
100
AcDbLine
 10
1380.78
 20
2476.56
 30
0.0
 11
1375.6
 21
2495.88
 31
0.0
  0
LINE
  5
65E
330
20E
100
AcDbEntity
  8
1-SUNPO
  6
CONTINUOUS
100
AcDbLine
 10
1380.78
 20
2476.56
 30
0.0
 11
1385.95
 21
2495.88
 31
0.0
  0
LINE
  5
65F
330
20E
100
AcDbEntity
  8
1-SUNPO
  6
CONTINUOUS
100
AcDbLine
 10
1380.78
 20
2601.56
 30
0.0
 11
1375.6
 21
2582.24
 31
0.0
  0
LINE
  5
660
330
20E
100
AcDbEntity
  8
1-SUNPO
  6
CONTINUOUS
100
AcDbLine
 10
1380.78
 20
2601.56
 30
0.0
 11
1385.95
 21
2582.24
 31
0.0
  0
LINE
  5
661
330
20E
100
AcDbEntity
  8
1-SUNPO
  6
CONTINUOUS
100
AcDbLine
 10
1280.78
 20
2601.56
 30
0.0
 11
1280.78
 21
2141.56
 31
0.0
  0
LINE
  5
662
330
20E
100
AcDbEntity
  8
1-SUNPO
  6
CONTINUOUS
100
AcDbLine
 10
1450.779999999999
 20
2601.56
 30
0.0
 11
1280.78
 21
2601.56
 31
0.0
  0
LINE
  5
663
330
20E
100
AcDbEntity
  8
1-SUNPO
  6
CONTINUOUS
100
AcDbLine
 10
1280.78
 20
2141.56
 30
0.0
 11
1275.6
 21
2160.88
 31
0.0
  0
LINE
  5
664
330
20E
100
AcDbEntity
  8
1-SUNPO
  6
CONTINUOUS
100
AcDbLine
 10
1280.78
 20
2141.56
 30
0.0
 11
1285.95
 21
2160.88
 31
0.0
  0
LINE
  5
665
330
20E
100
AcDbEntity
  8
1-SUNPO
  6
CONTINUOUS
100
AcDbLine
 10
1280.78
 20
2601.56
 30
0.0
 11
1275.6
 21
2582.24
 31
0.0
  0
LINE
  5
666
330
20E
100
AcDbEntity
  8
1-SUNPO
  6
CONTINUOUS
100
AcDbLine
 10
1280.78
 20
2601.56
 30
0.0
 11
1285.95
 21
2582.24
 31
0.0
  0
LINE
  5
667
330
20E
100
AcDbEntity
  8
1-SUNPO
  6
CONTINUOUS
100
AcDbLine
 10
1935.78
 20
2011.56
 30
0.0
 11
1755.78
 21
2011.56
 31
0.0
  0
LINE
  5
668
330
20E
100
AcDbEntity
  8
1-SUNPO
  6
CONTINUOUS
100
AcDbLine
 10
1575.779999999999
 20
2011.56
 30
0.0
 11
1935.78
 21
2011.56
 31
0.0
  0
LINE
  5
669
330
20E
100
AcDbEntity
  8
1-SUNPO
  6
CONTINUOUS
100
AcDbLine
 10
1575.779999999999
 20
2081.56
 30
0.0
 11
1575.779999999999
 21
2011.56
 31
0.0
  0
LINE
  5
66A
330
20E
100
AcDbEntity
  8
1-SUNPO
  6
CONTINUOUS
100
AcDbLine
 10
1935.78
 20
2081.56
 30
0.0
 11
1935.78
 21
2011.56
 31
0.0
  0
LINE
  5
66B
330
20E
100
AcDbEntity
  8
1-SUNPO
  6
CONTINUOUS
100
AcDbLine
 10
1575.779999999999
 20
2011.56
 30
0.0
 11
1595.099999999999
 21
2016.739999999999
 31
0.0
  0
LINE
  5
66C
330
20E
100
AcDbEntity
  8
1-SUNPO
  6
CONTINUOUS
100
AcDbLine
 10
1575.779999999999
 20
2011.56
 30
0.0
 11
1595.099999999999
 21
2006.39
 31
0.0
  0
LINE
  5
66D
330
20E
100
AcDbEntity
  8
1-SUNPO
  6
CONTINUOUS
100
AcDbLine
 10
1935.78
 20
2011.56
 30
0.0
 11
1916.46
 21
2016.739999999999
 31
0.0
  0
LINE
  5
66E
330
20E
100
AcDbEntity
  8
1-SUNPO
  6
CONTINUOUS
100
AcDbLine
 10
1935.78
 20
2011.56
 30
0.0
 11
1916.46
 21
2006.39
 31
0.0
  0
LINE
  5
66F
330
20E
100
AcDbEntity
  8
1-SUNPO
  6
CONTINUOUS
100
AcDbLine
 10
1955.78
 20
2081.56
 30
0.0
 11
1955.78
 21
2011.56
 31
0.0
  0
LINE
  5
670
330
20E
100
AcDbEntity
  8
1-SUNPO
  6
CONTINUOUS
100
AcDbLine
 10
1955.78
 20
2011.56
 30
0.0
 11
1975.1
 21
2016.739999999999
 31
0.0
  0
LINE
  5
671
330
20E
100
AcDbEntity
  8
1-SUNPO
  6
CONTINUOUS
100
AcDbLine
 10
1955.78
 20
2011.56
 30
0.0
 11
1975.1
 21
2006.39
 31
0.0
  0
LINE
  5
672
330
20E
100
AcDbEntity
  8
1-SUNPO
  6
CONTINUOUS
100
AcDbLine
 10
1935.78
 20
2011.56
 30
0.0
 11
2016.2
 21
2011.56
 31
0.0
  0
LINE
  5
673
330
20E
100
AcDbEntity
  8
0-3C1
  6
CONTINUOUS
100
AcDbLine
 10
1589.18
 20
2249.06
 30
0.0
 11
1580.79
 21
2500.73
 31
0.0
  0
LINE
  5
674
330
20E
100
AcDbEntity
  8
0-3C1
  6
CONTINUOUS
100
AcDbLine
 10
1664.14
 20
2176.559999999999
 30
0.0
 11
1755.78
 21
2176.559999999999
 31
0.0
  0
LINE
  5
675
330
20E
100
AcDbEntity
  8
0-3C1
  6
CONTINUOUS
100
AcDbLine
 10
2474.35
 20
2141.56
 30
0.0
 11
4474.35
 21
2141.56
 31
0.0
  0
LINE
  5
676
330
20E
100
AcDbEntity
  8
0-3C1
  6
CONTINUOUS
100
AcDbLine
 10
2474.35
 20
2601.56
 30
0.0
 11
2474.35
 21
2141.56
 31
0.0
  0
LINE
  5
677
330
20E
100
AcDbEntity
  8
0-3C1
  6
CONTINUOUS
100
AcDbLine
 10
2474.35
 20
2601.56
 30
0.0
 11
4474.35
 21
2601.56
 31
0.0
  0
LINE
  5
678
330
20E
100
AcDbEntity
  8
0-3C1
  6
CONTINUOUS
100
AcDbLine
 10
2474.35
 20
2476.56
 30
0.0
 11
4474.35
 21
2476.56
 31
0.0
  0
LINE
  5
679
330
20E
100
AcDbEntity
  8
0-3C1
  6
DASHED2
100
AcDbLine
 10
2474.35
 20
2501.56
 30
0.0
 11
4474.35
 21
2501.56
 31
0.0
  0
LINE
  5
67A
330
20E
100
AcDbEntity
  8
0-3C1
  6
CONTINUOUS
100
AcDbLine
 10
4474.35
 20
2601.56
 30
0.0
 11
4474.35
 21
2141.56
 31
0.0
  0
LINE
  5
67B
330
20E
100
AcDbEntity
  8
1-SUNPO
  6
CONTINUOUS
100
AcDbLine
 10
1558.78
 20
2671.559999999999
 30
0.0
 11
1558.78
 21
2741.56
 31
0.0
  0
LINE
  5
67C
330
20E
100
AcDbEntity
  8
1-SUNPO
  6
CONTINUOUS
100
AcDbLine
 10
1605.78
 20
2671.559999999999
 30
0.0
 11
1605.78
 21
2741.56
 31
0.0
  0
LINE
  5
67D
330
20E
100
AcDbEntity
  8
1-SUNPO
  6
CONTINUOUS
100
AcDbLine
 10
1905.78
 20
2671.559999999999
 30
0.0
 11
1905.78
 21
2741.56
 31
0.0
  0
LINE
  5
67E
330
20E
100
AcDbEntity
  8
1-SUNPO
  6
CONTINUOUS
100
AcDbLine
 10
1952.779999999999
 20
2671.559999999999
 30
0.0
 11
1952.779999999999
 21
2741.56
 31
0.0
  0
LINE
  5
67F
330
20E
100
AcDbEntity
  8
1-SUNPO
  6
CONTINUOUS
100
AcDbLine
 10
1510.78
 20
2741.56
 30
0.0
 11
1555.78
 21
2741.56
 31
0.0
  0
LINE
  5
680
330
20E
100
AcDbEntity
  8
1-SUNPO
  6
CONTINUOUS
100
AcDbLine
 10
1510.78
 20
2671.559999999999
 30
0.0
 11
1510.78
 21
2741.56
 31
0.0
  0
LINE
  5
681
330
20E
100
AcDbEntity
  8
1-SUNPO
  6
CONTINUOUS
100
AcDbLine
 10
1555.78
 20
2671.559999999999
 30
0.0
 11
1555.78
 21
2741.56
 31
0.0
  0
LINE
  5
682
330
20E
100
AcDbEntity
  8
1-SUNPO
  6
CONTINUOUS
100
AcDbLine
 10
1510.78
 20
2741.56
 30
0.0
 11
1530.1
 21
2746.739999999999
 31
0.0
  0
LINE
  5
683
330
20E
100
AcDbEntity
  8
1-SUNPO
  6
CONTINUOUS
100
AcDbLine
 10
1510.78
 20
2741.56
 30
0.0
 11
1530.1
 21
2736.39
 31
0.0
  0
LINE
  5
684
330
20E
100
AcDbEntity
  8
1-SUNPO
  6
CONTINUOUS
100
AcDbLine
 10
1555.78
 20
2741.56
 30
0.0
 11
1536.46
 21
2746.739999999999
 31
0.0
  0
LINE
  5
685
330
20E
100
AcDbEntity
  8
1-SUNPO
  6
CONTINUOUS
100
AcDbLine
 10
1555.78
 20
2741.56
 30
0.0
 11
1536.46
 21
2736.39
 31
0.0
  0
LINE
  5
686
330
20E
100
AcDbEntity
  8
1-SUNPO
  6
CONTINUOUS
100
AcDbLine
 10
1955.78
 20
2741.56
 30
0.0
 11
2000.78
 21
2741.56
 31
0.0
  0
LINE
  5
687
330
20E
100
AcDbEntity
  8
1-SUNPO
  6
CONTINUOUS
100
AcDbLine
 10
1955.78
 20
2671.559999999999
 30
0.0
 11
1955.78
 21
2741.56
 31
0.0
  0
LINE
  5
688
330
20E
100
AcDbEntity
  8
1-SUNPO
  6
CONTINUOUS
100
AcDbLine
 10
2000.78
 20
2671.559999999999
 30
0.0
 11
2000.78
 21
2741.56
 31
0.0
  0
LINE
  5
689
330
20E
100
AcDbEntity
  8
1-SUNPO
  6
CONTINUOUS
100
AcDbLine
 10
1955.78
 20
2741.56
 30
0.0
 11
1975.1
 21
2746.739999999999
 31
0.0
  0
LINE
  5
68A
330
20E
100
AcDbEntity
  8
1-SUNPO
  6
CONTINUOUS
100
AcDbLine
 10
1955.78
 20
2741.56
 30
0.0
 11
1975.1
 21
2736.39
 31
0.0
  0
LINE
  5
68B
330
20E
100
AcDbEntity
  8
1-SUNPO
  6
CONTINUOUS
100
AcDbLine
 10
2000.78
 20
2741.56
 30
0.0
 11
1981.46
 21
2746.739999999999
 31
0.0
  0
LINE
  5
68C
330
20E
100
AcDbEntity
  8
1-SUNPO
  6
CONTINUOUS
100
AcDbLine
 10
2000.78
 20
2741.56
 30
0.0
 11
1981.46
 21
2736.39
 31
0.0
  0
LINE
  5
68D
330
20E
100
AcDbEntity
  8
1-SUNPO
  6
CONTINUOUS
100
AcDbLine
 10
1510.78
 20
2891.56
 30
0.0
 11
2000.78
 21
2891.56
 31
0.0
  0
LINE
  5
68E
330
20E
100
AcDbEntity
  8
1-SUNPO
  6
CONTINUOUS
100
AcDbLine
 10
1510.78
 20
2671.559999999999
 30
0.0
 11
1510.78
 21
2891.56
 31
0.0
  0
LINE
  5
68F
330
20E
100
AcDbEntity
  8
1-SUNPO
  6
CONTINUOUS
100
AcDbLine
 10
2000.78
 20
2671.559999999999
 30
0.0
 11
2000.78
 21
2891.56
 31
0.0
  0
LINE
  5
690
330
20E
100
AcDbEntity
  8
1-SUNPO
  6
CONTINUOUS
100
AcDbLine
 10
1510.78
 20
2891.56
 30
0.0
 11
1530.1
 21
2896.739999999999
 31
0.0
  0
LINE
  5
691
330
20E
100
AcDbEntity
  8
1-SUNPO
  6
CONTINUOUS
100
AcDbLine
 10
1510.78
 20
2891.56
 30
0.0
 11
1530.1
 21
2886.39
 31
0.0
  0
LINE
  5
692
330
20E
100
AcDbEntity
  8
1-SUNPO
  6
CONTINUOUS
100
AcDbLine
 10
2000.78
 20
2891.56
 30
0.0
 11
1981.46
 21
2896.739999999999
 31
0.0
  0
LINE
  5
693
330
20E
100
AcDbEntity
  8
1-SUNPO
  6
CONTINUOUS
100
AcDbLine
 10
2000.78
 20
2891.56
 30
0.0
 11
1981.46
 21
2886.39
 31
0.0
  0
LINE
  5
694
330
20E
100
AcDbEntity
  8
0-3C1
  6
CONTINUOUS
100
AcDbLine
 10
1997.779999999999
 20
2601.56
 30
0.0
 11
1955.78
 21
2601.56
 31
0.0
  0
LINE
  5
695
330
20E
100
AcDbEntity
  8
0-3C1
  6
CONTINUOUS
100
AcDbLine
 10
2000.78
 20
2598.56
 30
0.0
 11
2000.78
 21
2476.56
 31
0.0
  0
LINE
  5
696
330
20E
100
AcDbEntity
  8
1-SUNPO
  6
CONTINUOUS
100
AcDbLine
 10
1997.779999999999
 20
2601.56
 30
0.0
 11
2000.78
 21
2598.56
 31
0.0
  0
LINE
  5
697
330
20E
100
AcDbEntity
  8
0-3C1
  6
CONTINUOUS
100
AcDbLine
 10
1513.78
 20
2601.56
 30
0.0
 11
1555.78
 21
2601.56
 31
0.0
  0
LINE
  5
698
330
20E
100
AcDbEntity
  8
0-3C1
  6
CONTINUOUS
100
AcDbLine
 10
1510.78
 20
2598.56
 30
0.0
 11
1510.78
 21
2476.56
 31
0.0
  0
LINE
  5
699
330
20E
100
AcDbEntity
  8
1-SUNPO
  6
CONTINUOUS
100
AcDbLine
 10
1513.78
 20
2601.56
 30
0.0
 11
1510.78
 21
2598.56
 31
0.0
  0
LINE
  5
69A
330
20E
100
AcDbEntity
  8
1-SUNPO
  6
CONTINUOUS
100
AcDbLine
 10
1881.8
 20
2215.26
 30
0.0
 11
1855.819999999999
 21
2230.26
 31
0.0
  0
LINE
  5
69B
330
20E
100
AcDbEntity
  8
1-SUNPO
  6
CONTINUOUS
100
AcDbLine
 10
1881.8
 20
2215.26
 30
0.0
 11
1836.54
 21
2260.53
 31
0.0
  0
LINE
  5
69C
330
20E
100
AcDbEntity
  8
1-SUNPO
  6
CONTINUOUS
100
AcDbLine
 10
1895.78
 20
2238.86
 30
0.0
 11
1895.78
 21
2410.239999999999
 31
0.0
  0
LINE
  5
69D
330
20E
100
AcDbEntity
  8
1-SUNPO
  6
CONTINUOUS
100
AcDbLine
 10
1895.78
 20
2410.239999999999
 30
0.0
 11
1915.099999999999
 21
2415.42
 31
0.0
  0
LINE
  5
69E
330
20E
100
AcDbEntity
  8
1-SUNPO
  6
CONTINUOUS
100
AcDbLine
 10
1895.78
 20
2410.239999999999
 30
0.0
 11
1915.099999999999
 21
2405.07
 31
0.0
  0
LINE
  5
69F
330
20E
100
AcDbEntity
  8
1-SUNPO
  6
CONTINUOUS
100
AcDbLine
 10
1615.78
 20
2410.239999999999
 30
0.0
 11
1635.099999999999
 21
2415.42
 31
0.0
  0
LINE
  5
6A0
330
20E
100
AcDbEntity
  8
1-SUNPO
  6
CONTINUOUS
100
AcDbLine
 10
1615.78
 20
2410.239999999999
 30
0.0
 11
1635.099999999999
 21
2405.07
 31
0.0
  0
LINE
  5
6A1
330
20E
100
AcDbEntity
  8
1-SUNPO
  6
CONTINUOUS
100
AcDbLine
 10
1955.78
 20
2410.239999999999
 30
0.0
 11
1895.78
 21
2410.239999999999
 31
0.0
  0
LINE
  5
6A2
330
20E
100
AcDbEntity
  8
1-SUNPO
  6
CONTINUOUS
100
AcDbLine
 10
1895.78
 20
2238.86
 30
0.0
 11
1895.78
 21
2410.239999999999
 31
0.0
  0
LINE
  5
6A3
330
20E
100
AcDbEntity
  8
1-SUNPO
  6
CONTINUOUS
100
AcDbLine
 10
1955.78
 20
2410.239999999999
 30
0.0
 11
1936.46
 21
2415.42
 31
0.0
  0
LINE
  5
6A4
330
20E
100
AcDbEntity
  8
1-SUNPO
  6
CONTINUOUS
100
AcDbLine
 10
1955.78
 20
2410.239999999999
 30
0.0
 11
1936.46
 21
2405.07
 31
0.0
  0
LINE
  5
6A5
330
20E
100
AcDbEntity
  8
1-SUNPO
  6
CONTINUOUS
100
AcDbLine
 10
1895.78
 20
2410.239999999999
 30
0.0
 11
1876.46
 21
2415.42
 31
0.0
  0
LINE
  5
6A6
330
20E
100
AcDbEntity
  8
1-SUNPO
  6
CONTINUOUS
100
AcDbLine
 10
1895.78
 20
2410.239999999999
 30
0.0
 11
1876.46
 21
2405.07
 31
0.0
  0
LINE
  5
6A7
330
20E
100
AcDbEntity
  8
1-SUNPO
  6
CONTINUOUS
100
AcDbLine
 10
1615.78
 20
2238.86
 30
0.0
 11
1615.78
 21
2410.239999999999
 31
0.0
  0
LINE
  5
6A8
330
20E
100
AcDbEntity
  8
1-SUNPO
  6
CONTINUOUS
100
AcDbLine
 10
1895.78
 20
2410.239999999999
 30
0.0
 11
1615.78
 21
2410.239999999999
 31
0.0
  0
LINE
  5
6A9
330
20E
100
AcDbEntity
  8
1-SUNPO
  6
CONTINUOUS
100
AcDbLine
 10
1960.78
 20
2410.239999999999
 30
0.0
 11
1980.1
 21
2415.42
 31
0.0
  0
LINE
  5
6AA
330
20E
100
AcDbEntity
  8
1-SUNPO
  6
CONTINUOUS
100
AcDbLine
 10
1960.78
 20
2410.239999999999
 30
0.0
 11
1980.1
 21
2405.07
 31
0.0
  0
LINE
  5
6AB
330
20E
100
AcDbEntity
  8
1-SUNPO
  6
CONTINUOUS
100
AcDbLine
 10
1955.78
 20
2410.239999999999
 30
0.0
 11
1955.78
 21
2448.76
 31
0.0
  0
LINE
  5
6AC
330
20E
100
AcDbEntity
  8
1-SUNPO
  6
CONTINUOUS
100
AcDbLine
 10
1960.78
 20
2410.239999999999
 30
0.0
 11
1960.78
 21
2448.76
 31
0.0
  0
LINE
  5
6AD
330
20E
100
AcDbEntity
  8
1-SUNPO
  6
CONTINUOUS
100
AcDbLine
 10
1550.78
 20
2436.56
 30
0.0
 11
1473.45
 21
2436.56
 31
0.0
  0
LINE
  5
6AE
330
20E
100
AcDbEntity
  8
1-SUNPO
  6
CONTINUOUS
100
AcDbLine
 10
1575.779999999999
 20
2141.56
 30
0.0
 11
1494.609999999999
 21
2141.56
 31
0.0
  0
LINE
  5
6AF
330
20E
100
AcDbEntity
  8
1-SUNPO
  6
CONTINUOUS
100
AcDbLine
 10
1434.48
 20
2476.56
 30
0.0
 11
1380.78
 21
2476.56
 31
0.0
  0
LINE
  5
6B0
330
20E
100
AcDbEntity
  8
1-SUNPO
  6
CONTINUOUS
100
AcDbLine
 10
1434.48
 20
2601.56
 30
0.0
 11
1380.78
 21
2601.56
 31
0.0
  0
LINE
  5
6B1
330
20E
100
AcDbEntity
  8
1-SUNPO
  6
CONTINUOUS
100
AcDbLine
 10
1434.48
 20
2141.56
 30
0.0
 11
1280.78
 21
2141.56
 31
0.0
  0
LINE
  5
6B2
330
20E
100
AcDbEntity
  8
1-KIJUN
  6
CENTER2
100
AcDbLine
 10
1755.78
 20
2637.13
 30
0.0
 11
1755.78
 21
2470.01
 31
0.0
  0
LINE
  5
6B3
330
20E
100
AcDbEntity
  8
1-KIJUN
  6
CENTER2
100
AcDbLine
 10
1755.78
 20
2400.27
 30
0.0
 11
1755.78
 21
2090.829999999999
 31
0.0
  0
ARC
  5
6B4
330
20E
100
AcDbEntity
  8
0-3C1
  6
CONTINUOUS
100
AcDbCircle
 10
1847.419999999999
 20
2251.56
 30
0.0
 40
50.0
100
AcDbArc
 50
270.0
 51
358.09082
  0
ARC
  5
6B5
330
20E
100
AcDbEntity
  8
0-3C1
  6
CONTINUOUS
100
AcDbCircle
 10
1664.14
 20
2251.56
 30
0.0
 40
50.0
100
AcDbArc
 50
181.9091799999999
 51
270.0
  0
ARC
  5
6B6
330
20E
100
AcDbEntity
  8
0-3C1
  6
CONTINUOUS
100
AcDbCircle
 10
1664.14
 20
2251.56
 30
0.0
 40
75.0
100
AcDbArc
 50
181.9091799999999
 51
270.0
  0
ARC
  5
6B7
330
20E
100
AcDbEntity
  8
1-SUNPO
  6
CONTINUOUS
100
AcDbCircle
 10
1550.78
 20
2436.56
 30
0.0
 40
43.27
100
AcDbArc
 50
135.0
 51
180.0
  0
ARC
  5
6B8
330
20E
100
AcDbEntity
  8
1-SUNPO
  6
CONTINUOUS
100
AcDbCircle
 10
1575.779999999999
 20
2141.56
 30
0.0
 40
21.07
100
AcDbArc
 50
135.0
 51
180.0
  0
MTEXT
  5
6B9
330
20E
100
AcDbEntity
  8
MOJI
100
AcDbMText
 10
3809.85
 20
363.73
 30
0.0
 40
78.0
 41
0.0
 71
     7
 72
     1
  1
千葉県コンクリート製品協同組合
1001
ACAD
1000
MTEXTBEGIN
1070
    73
1070
     1
1070
    44
1040
1.0
1070
    74
1070
     0
1000
MTEXTEND
  0
MTEXT
  5
6BA
330
20E
100
AcDbEntity
  8
MOJI
100
AcDbMText
 10
3173.61
 20
506.92
 30
0.0
 40
31.2
 41
0.0
 71
     7
 72
     1
  1
縮尺
1001
ACAD
1000
MTEXTBEGIN
1070
    73
1070
     1
1070
    44
1040
1.0
1070
    74
1070
     0
1000
MTEXTEND
  0
MTEXT
  5
6BB
330
20E
100
AcDbEntity
  8
MOJI
100
AcDbMText
 10
373.72
 20
505.86
 30
0.0
 40
31.2
 41
0.0
 71
     7
 72
     1
  1
製品名
1001
ACAD
1000
MTEXTBEGIN
1070
    73
1070
     1
1070
    44
1040
1.0
1070
    74
1070
     0
1000
MTEXTEND
  0
MTEXT
  5
6BC
330
20E
100
AcDbEntity
  8
MOJI
100
AcDbMText
 10
2373.19
 20
505.86
 30
0.0
 40
31.2
 41
0.0
 71
     7
 72
     1
  1
型式
1001
ACAD
1000
MTEXTBEGIN
1070
    73
1070
     1
1070
    44
1040
1.0
1070
    74
1070
     0
1000
MTEXTEND
  0
MTEXT
  5
6BD
330
20E
100
AcDbEntity
  8
MOJI
100
AcDbMText
 10
3237.55
 20
376.17
 30
0.0
 40
62.4
 41
0.0
 71
     7
 72
     1
  1
１／２０
1001
ACAD
1000
MTEXTBEGIN
1070
    73
1070
     1
1070
    44
1040
1.0
1070
    74
1070
     0
1000
MTEXTEND
  0
MTEXT
  5
6D4
330
20E
100
AcDbEntity
  8
MOJI
100
AcDbMText
 10
710.0
 20
360.0
 30
0.0
 40
78.0
 41
0.0
 71
     7
 72
     1
  1
千葉県型側溝（歩道用）
1001
ACAD
1000
MTEXTBEGIN
1070
    73
1070
     1
1070
    44
1040
1.0
1070
    74
1070
     0
1000
MTEXTEND
  0
MTEXT
  5
6D5
330
20E
100
AcDbEntity
  8
MOJI
100
AcDbMText
 10
2540.0
 20
360.0
 30
0.0
 40
78.0
 41
0.0
 71
     7
 72
     1
  1
\W0.700;CH1-30-30
1001
ACAD
1000
MTEXTBEGIN
1070
    73
1070
     1
1070
    44
1040
1.0
1070
    74
1070
     0
1000
MTEXTEND
  0
TEXT
  5
9D60
330
20E
100
AcDbEntity
  8
0
  6
CONTINUOUS
100
AcDbText
 10
1788.19
 20
2266.96
 30
0.0
 40
39.0
  1
50R
 41
0.7
100
AcDbText
  0
TEXT
  5
9D61
330
20E
100
AcDbEntity
  8
0
  6
CONTINUOUS
100
AcDbText
 10
1718.28
 20
2751.56
 30
0.0
 40
39.0
  1
300
 41
0.8
100
AcDbText
  0
TEXT
  5
9D62
330
20E
100
AcDbEntity
  8
0
  6
CONTINUOUS
100
AcDbText
 10
3424.35
 20
2811.56
 30
0.0
 40
39.0
  1
2000
 41
0.8
100
AcDbText
  0
TEXT
  5
9D63
330
20E
100
AcDbEntity
  8
0
  6
CONTINUOUS
100
AcDbText
 10
1557.28
 20
2751.56
 30
0.0
 40
39.0
  1
47
 41
0.8
100
AcDbText
  0
TEXT
  5
9D64
330
20E
100
AcDbEntity
  8
0
  6
CONTINUOUS
100
AcDbText
 10
1904.279999999999
 20
2751.56
 30
0.0
 40
39.0
  1
47
 41
0.8
100
AcDbText
  0
TEXT
  5
9D65
330
20E
100
AcDbEntity
  8
0
  6
CONTINUOUS
100
AcDbText
 10
2120.78
 20
2146.56
 30
0.0
 40
39.0
  1
60
 50
90.0
 41
0.8
100
AcDbText
  0
TEXT
  5
9D66
330
20E
100
AcDbEntity
  8
0
  6
CONTINUOUS
100
AcDbText
 10
2120.78
 20
2314.06
 30
0.0
 40
39.0
  1
300
 50
90.0
 41
0.8
100
AcDbText
  0
TEXT
  5
9D67
330
20E
100
AcDbEntity
  8
0
  6
CONTINUOUS
100
AcDbText
 10
2120.78
 20
2514.06
 30
0.0
 40
39.0
  1
100
 50
90.0
 41
0.8
100
AcDbText
  0
TEXT
  5
9D68
330
20E
100
AcDbEntity
  8
0
  6
CONTINUOUS
100
AcDbText
 10
1370.78
 20
2501.56
 30
0.0
 40
39.0
  1
125
 50
90.0
 41
0.8
100
AcDbText
  0
TEXT
  5
9D69
330
20E
100
AcDbEntity
  8
0
  6
CONTINUOUS
100
AcDbText
 10
1270.78
 20
2334.06
 30
0.0
 40
39.0
  1
460
 50
90.0
 41
0.8
100
AcDbText
  0
TEXT
  5
9D6A
330
20E
100
AcDbEntity
  8
0
  6
CONTINUOUS
100
AcDbText
 10
1718.28
 20
2021.56
 30
0.0
 40
39.0
  1
360
 41
0.8
100
AcDbText
  0
TEXT
  5
9D6B
330
20E
100
AcDbEntity
  8
0
  6
CONTINUOUS
100
AcDbText
 10
1963.51
 20
2021.56
 30
0.0
 40
39.0
  1
20
 41
0.8
100
AcDbText
  0
TEXT
  5
9D6C
330
20E
100
AcDbEntity
  8
0
  6
CONTINUOUS
100
AcDbText
 10
1508.28
 20
2751.56
 30
0.0
 40
39.0
  1
45
 41
0.8
100
AcDbText
  0
TEXT
  5
9D6D
330
20E
100
AcDbEntity
  8
0
  6
CONTINUOUS
100
AcDbText
 10
1953.28
 20
2751.56
 30
0.0
 40
39.0
  1
45
 41
0.8
100
AcDbText
  0
TEXT
  5
9D6E
330
20E
100
AcDbEntity
  8
0
  6
CONTINUOUS
100
AcDbText
 10
1544.78
 20
2794.96
 30
0.0
 40
39.0
  1
3
 41
0.8
100
AcDbText
  0
TEXT
  5
9D6F
330
20E
100
AcDbEntity
  8
0
  6
CONTINUOUS
100
AcDbText
 10
1940.22
 20
2794.96
 30
0.0
 40
39.0
  1
3
 41
0.8
100
AcDbText
  0
TEXT
  5
9D70
330
20E
100
AcDbEntity
  8
0
  6
CONTINUOUS
100
AcDbText
 10
1718.28
 20
2901.559999999999
 30
0.0
 40
39.0
  1
490
 41
0.8
100
AcDbText
  0
TEXT
  5
9D71
330
20E
100
AcDbEntity
  8
0
  6
CONTINUOUS
100
AcDbText
 10
1718.28
 20
2420.239999999999
 30
0.0
 40
39.0
  1
280
 41
0.8
100
AcDbText
  0
TEXT
  5
9D72
330
20E
100
AcDbEntity
  8
0
  6
CONTINUOUS
100
AcDbText
 10
1945.78
 20
2455.519999999999
 30
0.0
 40
39.0
  1
5
 41
0.8
100
AcDbText
  0
TEXT
  5
9D73
330
20E
100
AcDbEntity
  8
0
  6
CONTINUOUS
100
AcDbText
 10
1480.05
 20
2151.559999999999
 30
0.0
 40
39.0
  1
45°
100
AcDbText
  0
TEXT
  5
9D74
330
20E
100
AcDbEntity
  8
0
  6
CONTINUOUS
100
AcDbText
 10
1436.16
 20
2446.559999999999
 30
0.0
 40
39.0
  1
45°
100
AcDbText
  0
TEXT
  5
9D75
330
20E
100
AcDbEntity
  8
0
  6
CONTINUOUS
100
AcDbText
 10
1900.78
 20
2420.239999999999
 30
0.0
 40
39.0
  1
60
 41
0.8
100
AcDbText
  0
ENDSEC
  0
SECTION
  2
OBJECTS
  0
DICTIONARY
  5
6D6
330
0
100
AcDbDictionary
  3
ACAD_GROUP
350
6D7
  3
ACAD_MLINESTYLE
350
6D8
  3
ACAD_LAYOUT
350
9D05
  3
ACAD_PLOTSETTINGS
350
9D06
1001
ACAD
1000
TREAT_AS_HARD
1070
     0
  0
DICTIONARY
  5
9D77
330
20E
100
AcDbDictionary
  3
ACAD_LAYOUTSELFREF
350
9D78
  0
DICTIONARY
  5
9D79
330
20F
100
AcDbDictionary
  3
ACAD_LAYOUTSELFREF
350
9D7A
  0
DICTIONARY
  5
6D7
102
{ACAD_REACTORS
330
6D6
102
}
330
6D6
100
AcDbDictionary
1001
ACAD
1000
TREAT_AS_HARD
1070
     0
  0
DICTIONARY
  5
6D8
102
{ACAD_REACTORS
330
6D6
102
}
330
6D6
100
AcDbDictionary
1001
ACAD
1000
TREAT_AS_HARD
1070
     0
  0
DICTIONARY
  5
9D05
102
{ACAD_REACTORS
330
6D6
102
}
330
6D6
100
AcDbDictionary
1001
ACAD
1000
TREAT_AS_HARD
1070
     0
  0
DICTIONARY
  5
9D06
102
{ACAD_REACTORS
330
6D6
102
}
330
6D6
100
AcDbDictionary
1001
ACAD
1000
TREAT_AS_HARD
1070
     0
  0
XRECORD
  5
9D78
102
{ACAD_REACTORS
330
9D77
102
}
330
9D77
100
AcDbXrecord
340
20E
  0
XRECORD
  5
9D7A
102
{ACAD_REACTORS
330
9D79
102
}
330
9D79
100
AcDbXrecord
340
20F
  0
ENDSEC
  0
EOF
