  0
SECTION
  2
HEADER
  9
$ACADVER
  1
AC1012
  9
$DWGCODEPAGE
  3
dos932
  9
$INSBASE
 10
0.0
 20
0.0
 30
0.0
  9
$EXTMIN
 10
-0.2718908761999046
 20
-0.1922558694768668
 30
-0.0015258207003583
  9
$EXTMAX
 10
5940.317247512655
 20
4200.438327852546
 30
0.0000000349246037
  9
$LIMMIN
 10
0.0
 20
0.0
  9
$LIMMAX
 10
5940.0
 20
4200.0
  9
$ORTHOMODE
 70
     0
  9
$REGENMODE
 70
     1
  9
$FILLMODE
 70
     1
  9
$QTEXTMODE
 70
     0
  9
$MIRRTEXT
 70
     1
  9
$DRAGMODE
 70
     2
  9
$LTSCALE
 40
20.0
  9
$OSMODE
 70
    37
  9
$ATTMODE
 70
     1
  9
$TEXTSIZE
 40
0.0
  9
$TRACEWID
 40
0.05
  9
$TEXTSTYLE
  7
STANDARD
  9
$CLAYER
  8
0
  9
$CELTYPE
  6
CONTINUOUS
  9
$CECOLOR
 62
   256
  9
$CELTSCALE
 40
1.0
  9
$DELOBJ
 70
     1
  9
$DISPSILH
 70
     0
  9
$DIMSCALE
 40
20.0
  9
$DIMASZ
 40
0.18
  9
$DIMEXO
 40
0.0625
  9
$DIMDLI
 40
0.38
  9
$DIMRND
 40
0.0
  9
$DIMDLE
 40
0.0
  9
$DIMEXE
 40
0.18
  9
$DIMTP
 40
0.0
  9
$DIMTM
 40
0.0
  9
$DIMTXT
 40
0.18
  9
$DIMCEN
 40
0.09
  9
$DIMTSZ
 40
0.0
  9
$DIMTOL
 70
     0
  9
$DIMLIM
 70
     0
  9
$DIMTIH
 70
     1
  9
$DIMTOH
 70
     1
  9
$DIMSE1
 70
     0
  9
$DIMSE2
 70
     0
  9
$DIMTAD
 70
     0
  9
$DIMZIN
 70
     0
  9
$DIMBLK
  1

  9
$DIMASO
 70
     1
  9
$DIMSHO
 70
     1
  9
$DIMPOST
  1

  9
$DIMAPOST
  1

  9
$DIMALT
 70
     0
  9
$DIMALTD
 70
     2
  9
$DIMALTF
 40
25.4
  9
$DIMLFAC
 40
1.0
  9
$DIMTOFL
 70
     0
  9
$DIMTVP
 40
0.0
  9
$DIMTIX
 70
     0
  9
$DIMSOXD
 70
     0
  9
$DIMSAH
 70
     0
  9
$DIMBLK1
  1

  9
$DIMBLK2
  1

  9
$DIMSTYLE
  2
STANDARD
  9
$DIMCLRD
 70
     0
  9
$DIMCLRE
 70
     0
  9
$DIMCLRT
 70
     0
  9
$DIMTFAC
 40
1.0
  9
$DIMGAP
 40
0.09
  9
$DIMJUST
 70
     0
  9
$DIMSD1
 70
     0
  9
$DIMSD2
 70
     0
  9
$DIMTOLJ
 70
     1
  9
$DIMTZIN
 70
     0
  9
$DIMALTZ
 70
     0
  9
$DIMALTTZ
 70
     0
  9
$DIMFIT
 70
     3
  9
$DIMUPT
 70
     0
  9
$DIMUNIT
 70
     2
  9
$DIMDEC
 70
     4
  9
$DIMTDEC
 70
     4
  9
$DIMALTU
 70
     2
  9
$DIMALTTD
 70
     2
  9
$DIMTXSTY
  7
STANDARD
  9
$DIMAUNIT
 70
     0
  9
$LUNITS
 70
     2
  9
$LUPREC
 70
     4
  9
$SKETCHINC
 40
0.1
  9
$FILLETRAD
 40
0.0
  9
$AUNITS
 70
     0
  9
$AUPREC
 70
     0
  9
$MENU
  1
.
  9
$ELEVATION
 40
0.0
  9
$PELEVATION
 40
0.0
  9
$THICKNESS
 40
0.0
  9
$LIMCHECK
 70
     0
  9
$BLIPMODE
 70
     0
  9
$CHAMFERA
 40
0.0
  9
$CHAMFERB
 40
0.0
  9
$CHAMFERC
 40
0.0
  9
$CHAMFERD
 40
0.0
  9
$SKPOLY
 70
     0
  9
$TDCREATE
 40
2451858.411699525
  9
$TDUPDATE
 40
2451858.415017731
  9
$TDINDWG
 40
0.0033194792
  9
$TDUSRTIMER
 40
0.0033194792
  9
$USRTIMER
 70
     1
  9
$ANGBASE
 50
0.0
  9
$ANGDIR
 70
     0
  9
$PDMODE
 70
     0
  9
$PDSIZE
 40
40.0
  9
$PLINEWID
 40
0.0
  9
$COORDS
 70
     1
  9
$SPLFRAME
 70
     0
  9
$SPLINETYPE
 70
     6
  9
$SPLINESEGS
 70
     8
  9
$ATTDIA
 70
     0
  9
$ATTREQ
 70
     1
  9
$HANDLING
 70
 10241
  9
$HANDSEED
  5
9D50
  9
$SURFTAB1
 70
     6
  9
$SURFTAB2
 70
     6
  9
$SURFTYPE
 70
     6
  9
$SURFU
 70
     6
  9
$SURFV
 70
     6
  9
$UCSNAME
  2

  9
$UCSORG
 10
0.0
 20
0.0
 30
0.0
  9
$UCSXDIR
 10
1.0
 20
0.0
 30
0.0
  9
$UCSYDIR
 10
0.0
 20
1.0
 30
0.0
  9
$PUCSNAME
  2

  9
$PUCSORG
 10
0.0
 20
0.0
 30
0.0
  9
$PUCSXDIR
 10
1.0
 20
0.0
 30
0.0
  9
$PUCSYDIR
 10
0.0
 20
1.0
 30
0.0
  9
$USERI1
 70
     0
  9
$USERI2
 70
     0
  9
$USERI3
 70
     0
  9
$USERI4
 70
     0
  9
$USERI5
 70
     0
  9
$USERR1
 40
0.0
  9
$USERR2
 40
0.0
  9
$USERR3
 40
0.0
  9
$USERR4
 40
0.0
  9
$USERR5
 40
0.0
  9
$WORLDVIEW
 70
     1
  9
$SHADEDGE
 70
     3
  9
$SHADEDIF
 70
    70
  9
$TILEMODE
 70
     1
  9
$MAXACTVP
 70
    64
  9
$PINSBASE
 10
0.0
 20
0.0
 30
0.0
  9
$PLIMCHECK
 70
     0
  9
$PEXTMIN
 10
1.000000000000000E+20
 20
1.000000000000000E+20
 30
1.000000000000000E+20
  9
$PEXTMAX
 10
-1.000000000000000E+20
 20
-1.000000000000000E+20
 30
-1.000000000000000E+20
  9
$PLIMMIN
 10
0.0
 20
0.0
  9
$PLIMMAX
 10
12.0
 20
9.0
  9
$UNITMODE
 70
     0
  9
$VISRETAIN
 70
     1
  9
$PLINEGEN
 70
     0
  9
$PSLTSCALE
 70
     1
  9
$TREEDEPTH
 70
  3020
  9
$PICKSTYLE
 70
     1
  9
$CMLSTYLE
  2
STANDARD
  9
$CMLJUST
 70
     0
  9
$CMLSCALE
 40
1.0
  9
$SAVEIMAGES
 70
     1
  0
ENDSEC
  0
SECTION
  2
CLASSES
  0
CLASS
  1
ACDBDICTIONARYWDFLT
  2
AcDbDictionaryWithDefault
  3
AutoCAD 2000
 90
    32768
280
     0
281
     0
  0
CLASS
  1
ACDBPLACEHOLDER
  2
AcDbPlaceHolder
  3
AutoCAD 2000
 90
    32768
280
     0
281
     0
  0
CLASS
  1
LAYOUT
  2
AcDbLayout
  3
AutoCAD 2000
 90
    32768
280
     0
281
     0
  0
CLASS
  1
LONG_TRANSACTION
  2
AcDbLongTransaction
  3
AutoCAD 2000
 90
    32768
280
     0
281
     0
  0
CLASS
  1
LWPOLYLINE
  2
AcDbPolyline
  3
AutoCAD 2000
 90
    32768
280
     0
281
     1
  0
CLASS
  1
HATCH
  2
AcDbHatch
  3
AutoCAD 2000
 90
    32768
280
     0
281
     1
  0
CLASS
  1
XRECORD
  2
AcDbXrecord
  3
AutoCAD 2000
 90
    32768
280
     0
281
     0
  0
ENDSEC
  0
SECTION
  2
TABLES
  0
TABLE
  2
VPORT
  5
1F4
330
0
100
AcDbSymbolTable
 70
     3
  0
VPORT
  5
9D4B
330
1F4
100
AcDbSymbolTableRecord
100
AcDbViewportTableRecord
  2
*ACTIVE
 70
     0
 10
0.0
 20
0.0
 11
1.0
 21
1.0
 12
2969.999907799067
 22
2073.870857656668
 13
0.0
 23
0.0
 14
1.0
 24
1.0
 15
0.0
 25
0.0
 16
0.0
 26
0.0
 36
1.0
 17
0.0
 27
0.0
 37
0.0
 40
4623.20368481324
 41
1.631215469613259
 42
50.0
 43
0.0
 44
0.0
 50
0.0
 51
0.0
 71
     0
 72
   100
 73
     1
 74
     1
 75
     0
 76
     0
 77
     0
 78
     0
  0
ENDTAB
  0
TABLE
  2
LTYPE
  5
1F6
330
0
100
AcDbSymbolTable
 70
     9
  0
LTYPE
  5
1F7
330
1F6
100
AcDbSymbolTableRecord
100
AcDbLinetypeTableRecord
  2
BYBLOCK
 70
     0
  3

 72
    65
 73
     0
 40
0.0
  0
LTYPE
  5
1F8
330
1F6
100
AcDbSymbolTableRecord
100
AcDbLinetypeTableRecord
  2
BYLAYER
 70
     0
  3

 72
    65
 73
     0
 40
0.0
  0
LTYPE
  5
1F9
330
1F6
100
AcDbSymbolTableRecord
100
AcDbLinetypeTableRecord
  2
CONTINUOUS
 70
     0
  3
実線
 72
    65
 73
     0
 40
0.0
  0
LTYPE
  5
1FA
330
1F6
100
AcDbSymbolTableRecord
100
AcDbLinetypeTableRecord
  2
DOT
 70
     0
  3
--  --  --  --  --  --  --  --     
 72
    65
 73
     2
 40
10.0
 49
4.0
 74
     0
 49
-6.0
 74
     0
  0
LTYPE
  5
1FB
330
1F6
100
AcDbSymbolTableRecord
100
AcDbLinetypeTableRecord
  2
DASHED
 70
     0
  3
----    ----    ----    ----    
 72
    65
 73
     2
 40
10.0
 49
6.0
 74
     0
 49
-4.0
 74
     0
  0
LTYPE
  5
1FC
330
1F6
100
AcDbSymbolTableRecord
100
AcDbLinetypeTableRecord
  2
DASHED2
 70
     0
  3
------  ------  ------  ------ 
 72
    65
 73
     2
 40
15.0
 49
10.0
 74
     0
 49
-5.0
 74
     0
  0
LTYPE
  5
1FD
330
1F6
100
AcDbSymbolTableRecord
100
AcDbLinetypeTableRecord
  2
CENTER
 70
     0
  3
----- - ----- - ----- - ----- - 
 72
    65
 73
     4
 40
9.0
 49
6.0
 74
     0
 49
-1.0
 74
     0
 49
1.0
 74
     0
 49
-1.0
 74
     0
  0
LTYPE
  5
1FE
330
1F6
100
AcDbSymbolTableRecord
100
AcDbLinetypeTableRecord
  2
CENTER2
 70
     0
  3
----------  --  ----------  --  
 72
    65
 73
     4
 40
18.0
 49
12.0
 74
     0
 49
-2.0
 74
     0
 49
2.0
 74
     0
 49
-2.0
 74
     0
  0
LTYPE
  5
1FF
330
1F6
100
AcDbSymbolTableRecord
100
AcDbLinetypeTableRecord
  2
PHANTOM
 70
     0
  3
--- - - --- - - --- - - --- - - 
 72
    65
 73
     6
 40
10.0
 49
5.0
 74
     0
 49
-1.0
 74
     0
 49
1.0
 74
     0
 49
-1.0
 74
     0
 49
1.0
 74
     0
 49
-1.0
 74
     0
  0
LTYPE
  5
200
330
1F6
100
AcDbSymbolTableRecord
100
AcDbLinetypeTableRecord
  2
PHANTOM2
 70
     0
  3
--------  -  -  --------  -  - 
 72
    65
 73
     6
 40
16.0
 49
6.0
 74
     0
 49
-2.0
 74
     0
 49
2.0
 74
     0
 49
-2.0
 74
     0
 49
2.0
 74
     0
 49
-2.0
 74
     0
  0
LTYPE
  5
201
330
1F6
100
AcDbSymbolTableRecord
100
AcDbLinetypeTableRecord
  2
HIDDEN
 70
     0
  3
-   -   -   -   -   -   -   -   
 72
    65
 73
     2
 40
2.5
 49
0.5
 74
     0
 49
-2.0
 74
     0
  0
ENDTAB
  0
TABLE
  2
LAYER
  5
7AC
330
0
100
AcDbSymbolTable
 70
     8
  0
LAYER
  5
7AD
330
7AC
100
AcDbSymbolTableRecord
100
AcDbLayerTableRecord
  2
0
 70
     0
 62
     7
  6
CONTINUOUS
  0
LAYER
  5
7AE
330
7AC
100
AcDbSymbolTableRecord
100
AcDbLayerTableRecord
  2
0-3C1
 70
     0
 62
     7
  6
CONTINUOUS
  0
LAYER
  5
7AF
330
7AC
100
AcDbSymbolTableRecord
100
AcDbLayerTableRecord
  2
0-ADD
 70
     0
 62
    -7
  6
CONTINUOUS
  0
LAYER
  5
7B0
330
7AC
100
AcDbSymbolTableRecord
100
AcDbLayerTableRecord
  2
1-HOJO
 70
     0
 62
     7
  6
CONTINUOUS
  0
LAYER
  5
7B1
330
7AC
100
AcDbSymbolTableRecord
100
AcDbLayerTableRecord
  2
1-KIJUN
 70
     0
 62
     7
  6
CONTINUOUS
  0
LAYER
  5
7B2
330
7AC
100
AcDbSymbolTableRecord
100
AcDbLayerTableRecord
  2
1-SUNPO
 70
     0
 62
     7
  6
CONTINUOUS
  0
LAYER
  5
7B3
330
7AC
100
AcDbSymbolTableRecord
100
AcDbLayerTableRecord
  2
1-ADD
 70
     0
 62
    -7
  6
CONTINUOUS
  0
LAYER
  5
9D02
330
7AC
100
AcDbSymbolTableRecord
100
AcDbLayerTableRecord
  2
MOJI
 70
     0
 62
     7
  6
CONTINUOUS
  0
ENDTAB
  0
TABLE
  2
STYLE
  5
202
330
0
100
AcDbSymbolTable
 70
     4
  0
STYLE
  5
203
330
202
100
AcDbSymbolTableRecord
100
AcDbTextStyleTableRecord
  2
STANDARD
 70
     0
 40
0.0
 41
1.0
 50
0.0
 71
     0
 42
0.0
  3
txt.shx
  4
extfont.shx
  0
STYLE
  5
204
330
202
100
AcDbSymbolTableRecord
100
AcDbTextStyleTableRecord
  2
TATEGAKI
 70
     4
 40
0.0
 41
1.0
 50
0.0
 71
     0
 42
0.0
  3
txt.shx
  4
extfont.shx
  0
STYLE
  5
205
330
202
100
AcDbSymbolTableRecord
100
AcDbTextStyleTableRecord
  2
MT
 70
     0
 40
0.0
 41
1.0
 50
0.0
 71
     0
 42
0.0
  3
MS Gothic
  4

  0
STYLE
  5
206
330
202
100
AcDbSymbolTableRecord
100
AcDbTextStyleTableRecord
  2
TMT
 70
     4
 40
0.0
 41
1.0
 50
0.0
 71
     0
 42
0.0
  3
@MS Gothic
  4

  0
ENDTAB
  0
TABLE
  2
VIEW
  5
207
330
0
100
AcDbSymbolTable
 70
     0
  0
ENDTAB
  0
TABLE
  2
UCS
  5
208
330
0
100
AcDbSymbolTable
 70
     0
  0
ENDTAB
  0
TABLE
  2
APPID
  5
209
330
0
100
AcDbSymbolTable
 70
     1
  0
APPID
  5
20A
330
209
100
AcDbSymbolTableRecord
100
AcDbRegAppTableRecord
  2
ACAD
 70
     0
  0
ENDTAB
  0
TABLE
  2
DIMSTYLE
  5
20B
330
0
100
AcDbSymbolTable
 70
     1
  0
DIMSTYLE
105
20C
330
20B
100
AcDbSymbolTableRecord
100
AcDbDimStyleTableRecord
  2
STANDARD
 70
     0
  3

  4

  5

  6

  7

 40
1.0
 41
0.18
 42
0.0625
 43
0.38
 44
0.18
 45
0.0
 46
0.0
 47
0.0
 48
0.0
140
0.18
141
0.09
142
0.0
143
25.4
144
1.0
145
0.0
146
1.0
147
0.09
 71
     0
 72
     0
 73
     1
 74
     1
 75
     0
 76
     0
 77
     0
 78
     0
170
     0
171
     2
172
     0
173
     0
174
     0
175
     0
176
     0
177
     0
178
     0
270
     2
271
     4
272
     4
273
     2
274
     2
340
0
275
     0
280
     0
281
     0
282
     0
283
     1
284
     0
285
     0
286
     0
287
     3
288
     0
  0
ENDTAB
  0
TABLE
  2
BLOCK_RECORD
  5
20D
330
0
100
AcDbSymbolTable
 70
     1
  0
BLOCK_RECORD
  5
20E
102
{ACAD_XDICTIONARY
360
9D4C
102
}
330
20D
100
AcDbSymbolTableRecord
100
AcDbBlockTableRecord
  2
*MODEL_SPACE
  0
BLOCK_RECORD
  5
20F
102
{ACAD_XDICTIONARY
360
9D4E
102
}
330
20D
100
AcDbSymbolTableRecord
100
AcDbBlockTableRecord
  2
*PAPER_SPACE
  0
BLOCK_RECORD
  5
210
330
20D
100
AcDbSymbolTableRecord
100
AcDbBlockTableRecord
  2
REVDATE
  0
ENDTAB
  0
ENDSEC
  0
SECTION
  2
BLOCKS
  0
BLOCK
  5
7B4
330
20E
100
AcDbEntity
  8
0
100
AcDbBlockBegin
  2
*MODEL_SPACE
 70
     0
 10
0.0
 20
0.0
 30
0.0
  3
*MODEL_SPACE
  1

  0
ENDBLK
  5
7B5
330
20E
100
AcDbEntity
  8
0
100
AcDbBlockEnd
  0
BLOCK
  5
7B6
330
20F
100
AcDbEntity
 67
     1
  8
0
100
AcDbBlockBegin
  2
*PAPER_SPACE
 70
     0
 10
0.0
 20
0.0
 30
0.0
  3
*PAPER_SPACE
  1

  0
ENDBLK
  5
7B7
330
20F
100
AcDbEntity
 67
     1
  8
0
100
AcDbBlockEnd
  0
BLOCK
  5
7B8
330
210
100
AcDbEntity
  8
0
100
AcDbBlockBegin
  2
REVDATE
 70
     2
 10
0.0
 20
0.0
 30
0.0
  3
REVDATE
  1
REVDATE
  0
ATTDEF
  5
7B9
330
210
100
AcDbEntity
  8
0
 62
     0
100
AcDbText
 10
0.0
 20
0.0
 30
0.0
 40
1.0
  1

100
AcDbAttributeDefinition
  3

  2
USER
 70
     8
  0
ATTDEF
  5
7BA
330
210
100
AcDbEntity
  8
0
 62
     0
100
AcDbText
 10
0.0
 20
0.0
 30
0.0
 40
1.0
  1

100
AcDbAttributeDefinition
  3

  2
REVDATE
 70
     8
  0
ATTDEF
  5
7BB
330
210
100
AcDbEntity
  8
0
 62
     0
100
AcDbText
 10
0.0
 20
0.0
 30
0.0
 40
1.0
  1

100
AcDbAttributeDefinition
  3

  2
FNAME
 70
     8
  0
ENDBLK
  5
7BC
330
210
100
AcDbEntity
  8
0
100
AcDbBlockEnd
  0
ENDSEC
  0
SECTION
  2
ENTITIES
  0
LINE
  5
7BD
330
20E
100
AcDbEntity
  8
1-HOJO
  6
CONTINUOUS
 62
     5
100
AcDbLine
 10
0.0
 20
0.0
 30
0.0
 11
5940.0
 21
0.0
 31
0.0
  0
LINE
  5
7BE
330
20E
100
AcDbEntity
  8
1-HOJO
  6
CONTINUOUS
 62
     5
100
AcDbLine
 10
5940.0
 20
0.0
 30
0.0
 11
5940.0
 21
4200.0
 31
0.0
  0
LINE
  5
7BF
330
20E
100
AcDbEntity
  8
1-HOJO
  6
CONTINUOUS
 62
     5
100
AcDbLine
 10
5940.0
 20
4200.0
 30
0.0
 11
0.0
 21
4200.0
 31
0.0
  0
LINE
  5
7C0
330
20E
100
AcDbEntity
  8
1-HOJO
  6
CONTINUOUS
 62
     5
100
AcDbLine
 10
0.0
 20
4200.0
 30
0.0
 11
0.0
 21
0.0
 31
0.0
  0
LINE
  5
7C1
330
20E
100
AcDbEntity
  8
1-HOJO
  6
CONTINUOUS
 62
     5
100
AcDbLine
 10
360.0
 20
260.0
 30
0.0
 11
5580.0
 21
260.0
 31
0.0
  0
LINE
  5
7C2
330
20E
100
AcDbEntity
  8
1-HOJO
  6
CONTINUOUS
 62
     5
100
AcDbLine
 10
5580.0
 20
260.0
 30
0.0
 11
5580.0
 21
3940.0
 31
0.0
  0
LINE
  5
7C3
330
20E
100
AcDbEntity
  8
1-HOJO
  6
CONTINUOUS
 62
     5
100
AcDbLine
 10
5580.0
 20
3940.0
 30
0.0
 11
360.0
 21
3940.0
 31
0.0
  0
LINE
  5
7C4
330
20E
100
AcDbEntity
  8
1-HOJO
  6
CONTINUOUS
 62
     5
100
AcDbLine
 10
360.0
 20
3940.0
 30
0.0
 11
360.0
 21
260.0
 31
0.0
  0
LINE
  5
7C5
330
20E
100
AcDbEntity
  8
1-HOJO
  6
CONTINUOUS
 62
     5
100
AcDbLine
 10
360.0
 20
260.0
 30
0.0
 11
5580.0
 21
260.0
 31
0.0
  0
LINE
  5
7C6
330
20E
100
AcDbEntity
  8
1-HOJO
  6
CONTINUOUS
 62
     5
100
AcDbLine
 10
360.0
 20
560.0
 30
0.0
 11
5580.0
 21
560.0
 31
0.0
  0
LINE
  5
7C7
330
20E
100
AcDbEntity
  8
1-HOJO
  6
CONTINUOUS
 62
     5
100
AcDbLine
 10
360.0
 20
260.0
 30
0.0
 11
360.0
 21
560.0
 31
0.0
  0
LINE
  5
7C8
330
20E
100
AcDbEntity
  8
1-HOJO
  6
CONTINUOUS
 62
     5
100
AcDbLine
 10
2360.0
 20
260.0
 30
0.0
 11
2360.0
 21
560.0
 31
0.0
  0
LINE
  5
7C9
330
20E
100
AcDbEntity
  8
1-HOJO
  6
CONTINUOUS
 62
     5
100
AcDbLine
 10
3160.0
 20
260.0
 30
0.0
 11
3160.0
 21
560.0
 31
0.0
  0
LINE
  5
7CA
330
20E
100
AcDbEntity
  8
1-HOJO
  6
CONTINUOUS
 62
     5
100
AcDbLine
 10
3660.0
 20
260.0
 30
0.0
 11
3660.0
 21
560.0
 31
0.0
  0
LINE
  5
7CB
330
20E
100
AcDbEntity
  8
1-SUNPO
  6
CONTINUOUS
100
AcDbLine
 10
2474.35
 20
2801.56
 30
0.0
 11
4474.35
 21
2801.56
 31
0.0
  0
LINE
  5
7CC
330
20E
100
AcDbEntity
  8
1-SUNPO
  6
CONTINUOUS
100
AcDbLine
 10
2474.35
 20
2629.01
 30
0.0
 11
2474.35
 21
2801.56
 31
0.0
  0
LINE
  5
7CD
330
20E
100
AcDbEntity
  8
1-SUNPO
  6
CONTINUOUS
100
AcDbLine
 10
4474.35
 20
2629.01
 30
0.0
 11
4474.35
 21
2801.56
 31
0.0
  0
LINE
  5
7CE
330
20E
100
AcDbEntity
  8
1-SUNPO
  6
CONTINUOUS
100
AcDbLine
 10
1876.76
 20
2020.3
 30
0.0
 11
1861.76
 21
2046.28
 31
0.0
  0
LINE
  5
7CF
330
20E
100
AcDbEntity
  8
1-SUNPO
  6
CONTINUOUS
100
AcDbLine
 10
1586.46
 20
2736.39
 30
0.0
 11
1625.099999999999
 21
2746.739999999999
 31
0.0
  0
LINE
  5
7D0
330
20E
100
AcDbEntity
  8
1-SUNPO
  6
CONTINUOUS
100
AcDbLine
 10
1586.46
 20
2746.739999999999
 30
0.0
 11
1625.099999999999
 21
2736.39
 31
0.0
  0
LINE
  5
7D1
330
20E
100
AcDbEntity
  8
1-SUNPO
  6
CONTINUOUS
100
AcDbLine
 10
1558.78
 20
2741.56
 30
0.0
 11
1578.1
 21
2746.739999999999
 31
0.0
  0
LINE
  5
7D2
330
20E
100
AcDbEntity
  8
1-SUNPO
  6
CONTINUOUS
100
AcDbLine
 10
1558.78
 20
2741.56
 30
0.0
 11
1578.1
 21
2736.39
 31
0.0
  0
LINE
  5
7D3
330
20E
100
AcDbEntity
  8
1-SUNPO
  6
CONTINUOUS
100
AcDbLine
 10
1886.459999999999
 20
2736.39
 30
0.0
 11
1925.1
 21
2746.739999999999
 31
0.0
  0
LINE
  5
7D4
330
20E
100
AcDbEntity
  8
1-SUNPO
  6
CONTINUOUS
100
AcDbLine
 10
1886.459999999999
 20
2746.739999999999
 30
0.0
 11
1925.1
 21
2736.39
 31
0.0
  0
LINE
  5
7D5
330
20E
100
AcDbEntity
  8
1-SUNPO
  6
CONTINUOUS
100
AcDbLine
 10
1952.779999999999
 20
2741.56
 30
0.0
 11
1933.46
 21
2746.739999999999
 31
0.0
  0
LINE
  5
7D6
330
20E
100
AcDbEntity
  8
1-SUNPO
  6
CONTINUOUS
100
AcDbLine
 10
1952.779999999999
 20
2741.56
 30
0.0
 11
1933.46
 21
2736.39
 31
0.0
  0
LINE
  5
7D7
330
20E
100
AcDbEntity
  8
1-SUNPO
  6
CONTINUOUS
100
AcDbLine
 10
2474.35
 20
2801.56
 30
0.0
 11
2493.67
 21
2806.739999999999
 31
0.0
  0
LINE
  5
7D8
330
20E
100
AcDbEntity
  8
1-SUNPO
  6
CONTINUOUS
100
AcDbLine
 10
2474.35
 20
2801.56
 30
0.0
 11
2493.67
 21
2796.39
 31
0.0
  0
LINE
  5
7D9
330
20E
100
AcDbEntity
  8
1-SUNPO
  6
CONTINUOUS
100
AcDbLine
 10
4474.35
 20
2801.56
 30
0.0
 11
4455.029999999999
 21
2806.739999999999
 31
0.0
  0
LINE
  5
7DA
330
20E
100
AcDbEntity
  8
1-SUNPO
  6
CONTINUOUS
100
AcDbLine
 10
4474.35
 20
2801.56
 30
0.0
 11
4455.029999999999
 21
2796.39
 31
0.0
  0
LINE
  5
7DB
330
20E
100
AcDbEntity
  8
0-3C1
  6
CONTINUOUS
100
AcDbLine
 10
2474.35
 20
1951.559999999999
 30
0.0
 11
4474.35
 21
1951.559999999999
 31
0.0
  0
LINE
  5
7DC
330
20E
100
AcDbEntity
  8
0-3C1
  6
DASHED2
100
AcDbLine
 10
2474.35
 20
2001.56
 30
0.0
 11
4474.35
 21
2001.56
 31
0.0
  0
LINE
  5
7DD
330
20E
100
AcDbEntity
  8
0-3C1
  6
CONTINUOUS
100
AcDbLine
 10
1952.779999999999
 20
2501.56
 30
0.0
 11
1905.78
 21
2501.56
 31
0.0
  0
LINE
  5
7DE
330
20E
100
AcDbEntity
  8
0-3C1
  6
CONTINUOUS
100
AcDbLine
 10
1955.78
 20
2601.56
 30
0.0
 11
1952.779999999999
 21
2501.56
 31
0.0
  0
LINE
  5
7DF
330
20E
100
AcDbEntity
  8
0-3C1
  6
CONTINUOUS
100
AcDbLine
 10
1935.78
 20
1931.56
 30
0.0
 11
1755.78
 21
1931.56
 31
0.0
  0
LINE
  5
7E0
330
20E
100
AcDbEntity
  8
0-3C1
  6
CONTINUOUS
100
AcDbLine
 10
1935.78
 20
1931.56
 30
0.0
 11
1955.78
 21
1951.559999999999
 31
0.0
  0
LINE
  5
7E1
330
20E
100
AcDbEntity
  8
0-3C1
  6
CONTINUOUS
100
AcDbLine
 10
1558.78
 20
2501.56
 30
0.0
 11
1605.78
 21
2501.56
 31
0.0
  0
LINE
  5
7E2
330
20E
100
AcDbEntity
  8
0-3C1
  6
CONTINUOUS
100
AcDbLine
 10
1555.78
 20
2601.56
 30
0.0
 11
1558.78
 21
2501.56
 31
0.0
  0
LINE
  5
7E3
330
20E
100
AcDbEntity
  8
0-3C1
  6
CONTINUOUS
100
AcDbLine
 10
1575.779999999999
 20
1931.56
 30
0.0
 11
1755.78
 21
1931.56
 31
0.0
  0
LINE
  5
7E4
330
20E
100
AcDbEntity
  8
0-3C1
  6
CONTINUOUS
100
AcDbLine
 10
1575.779999999999
 20
1931.56
 30
0.0
 11
1555.78
 21
1951.559999999999
 31
0.0
  0
LINE
  5
7E5
330
20E
100
AcDbEntity
  8
1-SUNPO
  6
CONTINUOUS
100
AcDbLine
 10
2060.78
 20
1931.56
 30
0.0
 11
2130.78
 21
1931.56
 31
0.0
  0
LINE
  5
7E6
330
20E
100
AcDbEntity
  8
1-SUNPO
  6
CONTINUOUS
100
AcDbLine
 10
2060.78
 20
2001.56
 30
0.0
 11
2130.78
 21
2001.56
 31
0.0
  0
LINE
  5
7E7
330
20E
100
AcDbEntity
  8
1-SUNPO
  6
CONTINUOUS
100
AcDbLine
 10
2130.78
 20
1931.56
 30
0.0
 11
2125.599999999999
 21
1950.88
 31
0.0
  0
LINE
  5
7E8
330
20E
100
AcDbEntity
  8
1-SUNPO
  6
CONTINUOUS
100
AcDbLine
 10
2130.78
 20
1931.56
 30
0.0
 11
2135.949999999999
 21
1950.88
 31
0.0
  0
LINE
  5
7E9
330
20E
100
AcDbEntity
  8
1-SUNPO
  6
CONTINUOUS
100
AcDbLine
 10
2130.78
 20
2001.56
 30
0.0
 11
2125.599999999999
 21
1982.24
 31
0.0
  0
LINE
  5
7EA
330
20E
100
AcDbEntity
  8
1-SUNPO
  6
CONTINUOUS
100
AcDbLine
 10
2130.78
 20
2001.56
 30
0.0
 11
2135.949999999999
 21
1982.24
 31
0.0
  0
LINE
  5
7EB
330
20E
100
AcDbEntity
  8
1-SUNPO
  6
CONTINUOUS
100
AcDbLine
 10
2060.78
 20
2501.56
 30
0.0
 11
2130.78
 21
2501.56
 31
0.0
  0
LINE
  5
7EC
330
20E
100
AcDbEntity
  8
1-SUNPO
  6
CONTINUOUS
100
AcDbLine
 10
2130.78
 20
2001.56
 30
0.0
 11
2125.599999999999
 21
2020.88
 31
0.0
  0
LINE
  5
7ED
330
20E
100
AcDbEntity
  8
1-SUNPO
  6
CONTINUOUS
100
AcDbLine
 10
2130.78
 20
2001.56
 30
0.0
 11
2135.949999999999
 21
2020.88
 31
0.0
  0
LINE
  5
7EE
330
20E
100
AcDbEntity
  8
1-SUNPO
  6
CONTINUOUS
100
AcDbLine
 10
2130.78
 20
2501.56
 30
0.0
 11
2125.599999999999
 21
2482.24
 31
0.0
  0
LINE
  5
7EF
330
20E
100
AcDbEntity
  8
1-SUNPO
  6
CONTINUOUS
100
AcDbLine
 10
2130.78
 20
2501.56
 30
0.0
 11
2135.949999999999
 21
2482.24
 31
0.0
  0
LINE
  5
7F0
330
20E
100
AcDbEntity
  8
1-SUNPO
  6
CONTINUOUS
100
AcDbLine
 10
2130.78
 20
2501.56
 30
0.0
 11
2130.78
 21
2601.56
 31
0.0
  0
LINE
  5
7F1
330
20E
100
AcDbEntity
  8
1-SUNPO
  6
CONTINUOUS
100
AcDbLine
 10
2060.78
 20
2601.56
 30
0.0
 11
2130.78
 21
2601.56
 31
0.0
  0
LINE
  5
7F2
330
20E
100
AcDbEntity
  8
1-SUNPO
  6
CONTINUOUS
100
AcDbLine
 10
2130.78
 20
2501.56
 30
0.0
 11
2125.599999999999
 21
2520.88
 31
0.0
  0
LINE
  5
7F3
330
20E
100
AcDbEntity
  8
1-SUNPO
  6
CONTINUOUS
100
AcDbLine
 10
2130.78
 20
2501.56
 30
0.0
 11
2135.949999999999
 21
2520.88
 31
0.0
  0
LINE
  5
7F4
330
20E
100
AcDbEntity
  8
1-SUNPO
  6
CONTINUOUS
100
AcDbLine
 10
2130.78
 20
2601.56
 30
0.0
 11
2125.599999999999
 21
2582.24
 31
0.0
  0
LINE
  5
7F5
330
20E
100
AcDbEntity
  8
1-SUNPO
  6
CONTINUOUS
100
AcDbLine
 10
2130.78
 20
2601.56
 30
0.0
 11
2135.949999999999
 21
2582.24
 31
0.0
  0
LINE
  5
7F6
330
20E
100
AcDbEntity
  8
1-SUNPO
  6
CONTINUOUS
100
AcDbLine
 10
1380.78
 20
2601.56
 30
0.0
 11
1380.78
 21
2476.56
 31
0.0
  0
LINE
  5
7F7
330
20E
100
AcDbEntity
  8
1-SUNPO
  6
CONTINUOUS
100
AcDbLine
 10
1380.78
 20
2476.56
 30
0.0
 11
1375.6
 21
2495.88
 31
0.0
  0
LINE
  5
7F8
330
20E
100
AcDbEntity
  8
1-SUNPO
  6
CONTINUOUS
100
AcDbLine
 10
1380.78
 20
2476.56
 30
0.0
 11
1385.95
 21
2495.88
 31
0.0
  0
LINE
  5
7F9
330
20E
100
AcDbEntity
  8
1-SUNPO
  6
CONTINUOUS
100
AcDbLine
 10
1380.78
 20
2601.56
 30
0.0
 11
1375.6
 21
2582.24
 31
0.0
  0
LINE
  5
7FA
330
20E
100
AcDbEntity
  8
1-SUNPO
  6
CONTINUOUS
100
AcDbLine
 10
1380.78
 20
2601.56
 30
0.0
 11
1385.95
 21
2582.24
 31
0.0
  0
LINE
  5
7FB
330
20E
100
AcDbEntity
  8
1-SUNPO
  6
CONTINUOUS
100
AcDbLine
 10
1450.779999999999
 20
2601.56
 30
0.0
 11
1280.78
 21
2601.56
 31
0.0
  0
LINE
  5
7FC
330
20E
100
AcDbEntity
  8
1-SUNPO
  6
CONTINUOUS
100
AcDbLine
 10
1280.78
 20
1931.56
 30
0.0
 11
1275.6
 21
1950.88
 31
0.0
  0
LINE
  5
7FD
330
20E
100
AcDbEntity
  8
1-SUNPO
  6
CONTINUOUS
100
AcDbLine
 10
1280.78
 20
1931.56
 30
0.0
 11
1285.95
 21
1950.88
 31
0.0
  0
LINE
  5
7FE
330
20E
100
AcDbEntity
  8
1-SUNPO
  6
CONTINUOUS
100
AcDbLine
 10
1280.78
 20
2601.56
 30
0.0
 11
1275.6
 21
2582.24
 31
0.0
  0
LINE
  5
7FF
330
20E
100
AcDbEntity
  8
1-SUNPO
  6
CONTINUOUS
100
AcDbLine
 10
1280.78
 20
2601.56
 30
0.0
 11
1285.95
 21
2582.24
 31
0.0
  0
LINE
  5
800
330
20E
100
AcDbEntity
  8
1-SUNPO
  6
CONTINUOUS
100
AcDbLine
 10
1935.78
 20
1801.56
 30
0.0
 11
1755.78
 21
1801.56
 31
0.0
  0
LINE
  5
801
330
20E
100
AcDbEntity
  8
1-SUNPO
  6
CONTINUOUS
100
AcDbLine
 10
1575.779999999999
 20
1801.56
 30
0.0
 11
1935.78
 21
1801.56
 31
0.0
  0
LINE
  5
802
330
20E
100
AcDbEntity
  8
1-SUNPO
  6
CONTINUOUS
100
AcDbLine
 10
1575.779999999999
 20
1871.559999999999
 30
0.0
 11
1575.779999999999
 21
1801.56
 31
0.0
  0
LINE
  5
803
330
20E
100
AcDbEntity
  8
1-SUNPO
  6
CONTINUOUS
100
AcDbLine
 10
1935.78
 20
1871.559999999999
 30
0.0
 11
1935.78
 21
1801.56
 31
0.0
  0
LINE
  5
804
330
20E
100
AcDbEntity
  8
1-SUNPO
  6
CONTINUOUS
100
AcDbLine
 10
1575.779999999999
 20
1801.56
 30
0.0
 11
1595.099999999999
 21
1806.739999999999
 31
0.0
  0
LINE
  5
805
330
20E
100
AcDbEntity
  8
1-SUNPO
  6
CONTINUOUS
100
AcDbLine
 10
1575.779999999999
 20
1801.56
 30
0.0
 11
1595.099999999999
 21
1796.39
 31
0.0
  0
LINE
  5
806
330
20E
100
AcDbEntity
  8
1-SUNPO
  6
CONTINUOUS
100
AcDbLine
 10
1935.78
 20
1801.56
 30
0.0
 11
1916.46
 21
1806.739999999999
 31
0.0
  0
LINE
  5
807
330
20E
100
AcDbEntity
  8
1-SUNPO
  6
CONTINUOUS
100
AcDbLine
 10
1935.78
 20
1801.56
 30
0.0
 11
1916.46
 21
1796.39
 31
0.0
  0
LINE
  5
808
330
20E
100
AcDbEntity
  8
1-SUNPO
  6
CONTINUOUS
100
AcDbLine
 10
1955.78
 20
1871.559999999999
 30
0.0
 11
1955.78
 21
1801.56
 31
0.0
  0
LINE
  5
809
330
20E
100
AcDbEntity
  8
1-SUNPO
  6
CONTINUOUS
100
AcDbLine
 10
1955.78
 20
1801.56
 30
0.0
 11
1975.1
 21
1806.739999999999
 31
0.0
  0
LINE
  5
80A
330
20E
100
AcDbEntity
  8
1-SUNPO
  6
CONTINUOUS
100
AcDbLine
 10
1955.78
 20
1801.56
 30
0.0
 11
1975.1
 21
1796.39
 31
0.0
  0
LINE
  5
80B
330
20E
100
AcDbEntity
  8
1-SUNPO
  6
CONTINUOUS
100
AcDbLine
 10
1935.78
 20
1801.56
 30
0.0
 11
2016.2
 21
1801.56
 31
0.0
  0
LINE
  5
80C
330
20E
100
AcDbEntity
  8
0-3C1
  6
CONTINUOUS
100
AcDbLine
 10
2474.35
 20
1931.56
 30
0.0
 11
4474.35
 21
1931.56
 31
0.0
  0
LINE
  5
80D
330
20E
100
AcDbEntity
  8
0-3C1
  6
CONTINUOUS
100
AcDbLine
 10
2474.35
 20
2601.56
 30
0.0
 11
4474.35
 21
2601.56
 31
0.0
  0
LINE
  5
80E
330
20E
100
AcDbEntity
  8
0-3C1
  6
CONTINUOUS
100
AcDbLine
 10
2474.35
 20
2476.56
 30
0.0
 11
4474.35
 21
2476.56
 31
0.0
  0
LINE
  5
80F
330
20E
100
AcDbEntity
  8
0-3C1
  6
DASHED2
100
AcDbLine
 10
2474.35
 20
2501.56
 30
0.0
 11
4474.35
 21
2501.56
 31
0.0
  0
LINE
  5
810
330
20E
100
AcDbEntity
  8
1-SUNPO
  6
CONTINUOUS
100
AcDbLine
 10
1558.78
 20
2671.559999999999
 30
0.0
 11
1558.78
 21
2741.56
 31
0.0
  0
LINE
  5
811
330
20E
100
AcDbEntity
  8
1-SUNPO
  6
CONTINUOUS
100
AcDbLine
 10
1605.78
 20
2671.559999999999
 30
0.0
 11
1605.78
 21
2741.56
 31
0.0
  0
LINE
  5
812
330
20E
100
AcDbEntity
  8
1-SUNPO
  6
CONTINUOUS
100
AcDbLine
 10
1905.78
 20
2671.559999999999
 30
0.0
 11
1905.78
 21
2741.56
 31
0.0
  0
LINE
  5
813
330
20E
100
AcDbEntity
  8
1-SUNPO
  6
CONTINUOUS
100
AcDbLine
 10
1952.779999999999
 20
2671.559999999999
 30
0.0
 11
1952.779999999999
 21
2741.56
 31
0.0
  0
LINE
  5
814
330
20E
100
AcDbEntity
  8
1-SUNPO
  6
CONTINUOUS
100
AcDbLine
 10
1510.78
 20
2741.56
 30
0.0
 11
1555.78
 21
2741.56
 31
0.0
  0
LINE
  5
815
330
20E
100
AcDbEntity
  8
1-SUNPO
  6
CONTINUOUS
100
AcDbLine
 10
1510.78
 20
2671.559999999999
 30
0.0
 11
1510.78
 21
2741.56
 31
0.0
  0
LINE
  5
816
330
20E
100
AcDbEntity
  8
1-SUNPO
  6
CONTINUOUS
100
AcDbLine
 10
1555.78
 20
2671.559999999999
 30
0.0
 11
1555.78
 21
2741.56
 31
0.0
  0
LINE
  5
817
330
20E
100
AcDbEntity
  8
1-SUNPO
  6
CONTINUOUS
100
AcDbLine
 10
1510.78
 20
2741.56
 30
0.0
 11
1530.1
 21
2746.739999999999
 31
0.0
  0
LINE
  5
818
330
20E
100
AcDbEntity
  8
1-SUNPO
  6
CONTINUOUS
100
AcDbLine
 10
1510.78
 20
2741.56
 30
0.0
 11
1530.1
 21
2736.39
 31
0.0
  0
LINE
  5
819
330
20E
100
AcDbEntity
  8
1-SUNPO
  6
CONTINUOUS
100
AcDbLine
 10
1555.78
 20
2741.56
 30
0.0
 11
1536.46
 21
2746.739999999999
 31
0.0
  0
LINE
  5
81A
330
20E
100
AcDbEntity
  8
1-SUNPO
  6
CONTINUOUS
100
AcDbLine
 10
1555.78
 20
2741.56
 30
0.0
 11
1536.46
 21
2736.39
 31
0.0
  0
LINE
  5
81B
330
20E
100
AcDbEntity
  8
1-SUNPO
  6
CONTINUOUS
100
AcDbLine
 10
1955.78
 20
2741.56
 30
0.0
 11
2000.78
 21
2741.56
 31
0.0
  0
LINE
  5
81C
330
20E
100
AcDbEntity
  8
1-SUNPO
  6
CONTINUOUS
100
AcDbLine
 10
1955.78
 20
2671.559999999999
 30
0.0
 11
1955.78
 21
2741.56
 31
0.0
  0
LINE
  5
81D
330
20E
100
AcDbEntity
  8
1-SUNPO
  6
CONTINUOUS
100
AcDbLine
 10
2000.78
 20
2671.559999999999
 30
0.0
 11
2000.78
 21
2741.56
 31
0.0
  0
LINE
  5
81E
330
20E
100
AcDbEntity
  8
1-SUNPO
  6
CONTINUOUS
100
AcDbLine
 10
1955.78
 20
2741.56
 30
0.0
 11
1975.1
 21
2746.739999999999
 31
0.0
  0
LINE
  5
81F
330
20E
100
AcDbEntity
  8
1-SUNPO
  6
CONTINUOUS
100
AcDbLine
 10
1955.78
 20
2741.56
 30
0.0
 11
1975.1
 21
2736.39
 31
0.0
  0
LINE
  5
820
330
20E
100
AcDbEntity
  8
1-SUNPO
  6
CONTINUOUS
100
AcDbLine
 10
2000.78
 20
2741.56
 30
0.0
 11
1981.46
 21
2746.739999999999
 31
0.0
  0
LINE
  5
821
330
20E
100
AcDbEntity
  8
1-SUNPO
  6
CONTINUOUS
100
AcDbLine
 10
2000.78
 20
2741.56
 30
0.0
 11
1981.46
 21
2736.39
 31
0.0
  0
LINE
  5
822
330
20E
100
AcDbEntity
  8
1-SUNPO
  6
CONTINUOUS
100
AcDbLine
 10
1510.78
 20
2891.56
 30
0.0
 11
2000.78
 21
2891.56
 31
0.0
  0
LINE
  5
823
330
20E
100
AcDbEntity
  8
1-SUNPO
  6
CONTINUOUS
100
AcDbLine
 10
1510.78
 20
2671.559999999999
 30
0.0
 11
1510.78
 21
2891.56
 31
0.0
  0
LINE
  5
824
330
20E
100
AcDbEntity
  8
1-SUNPO
  6
CONTINUOUS
100
AcDbLine
 10
2000.78
 20
2671.559999999999
 30
0.0
 11
2000.78
 21
2891.56
 31
0.0
  0
LINE
  5
825
330
20E
100
AcDbEntity
  8
1-SUNPO
  6
CONTINUOUS
100
AcDbLine
 10
1510.78
 20
2891.56
 30
0.0
 11
1530.1
 21
2896.739999999999
 31
0.0
  0
LINE
  5
826
330
20E
100
AcDbEntity
  8
1-SUNPO
  6
CONTINUOUS
100
AcDbLine
 10
1510.78
 20
2891.56
 30
0.0
 11
1530.1
 21
2886.39
 31
0.0
  0
LINE
  5
827
330
20E
100
AcDbEntity
  8
1-SUNPO
  6
CONTINUOUS
100
AcDbLine
 10
2000.78
 20
2891.56
 30
0.0
 11
1981.46
 21
2896.739999999999
 31
0.0
  0
LINE
  5
828
330
20E
100
AcDbEntity
  8
1-SUNPO
  6
CONTINUOUS
100
AcDbLine
 10
2000.78
 20
2891.56
 30
0.0
 11
1981.46
 21
2886.39
 31
0.0
  0
LINE
  5
829
330
20E
100
AcDbEntity
  8
0-3C1
  6
CONTINUOUS
100
AcDbLine
 10
1997.779999999999
 20
2601.56
 30
0.0
 11
1955.78
 21
2601.56
 31
0.0
  0
LINE
  5
82A
330
20E
100
AcDbEntity
  8
0-3C1
  6
CONTINUOUS
100
AcDbLine
 10
2000.78
 20
2598.56
 30
0.0
 11
2000.78
 21
2476.56
 31
0.0
  0
LINE
  5
82B
330
20E
100
AcDbEntity
  8
1-SUNPO
  6
CONTINUOUS
100
AcDbLine
 10
1997.779999999999
 20
2601.56
 30
0.0
 11
2000.78
 21
2598.56
 31
0.0
  0
LINE
  5
82C
330
20E
100
AcDbEntity
  8
0-3C1
  6
CONTINUOUS
100
AcDbLine
 10
1513.78
 20
2601.56
 30
0.0
 11
1555.78
 21
2601.56
 31
0.0
  0
LINE
  5
82D
330
20E
100
AcDbEntity
  8
0-3C1
  6
CONTINUOUS
100
AcDbLine
 10
1510.78
 20
2598.56
 30
0.0
 11
1510.78
 21
2476.56
 31
0.0
  0
LINE
  5
82E
330
20E
100
AcDbEntity
  8
1-SUNPO
  6
CONTINUOUS
100
AcDbLine
 10
1513.78
 20
2601.56
 30
0.0
 11
1510.78
 21
2598.56
 31
0.0
  0
LINE
  5
82F
330
20E
100
AcDbEntity
  8
1-SUNPO
  6
CONTINUOUS
100
AcDbLine
 10
1876.76
 20
2020.3
 30
0.0
 11
1850.78
 21
2035.3
 31
0.0
  0
LINE
  5
830
330
20E
100
AcDbEntity
  8
1-SUNPO
  6
CONTINUOUS
100
AcDbLine
 10
1876.76
 20
2020.3
 30
0.0
 11
1831.5
 21
2065.57
 31
0.0
  0
LINE
  5
831
330
20E
100
AcDbEntity
  8
1-SUNPO
  6
CONTINUOUS
100
AcDbLine
 10
1885.78
 20
2238.86
 30
0.0
 11
1885.78
 21
2410.239999999999
 31
0.0
  0
LINE
  5
832
330
20E
100
AcDbEntity
  8
1-SUNPO
  6
CONTINUOUS
100
AcDbLine
 10
1885.78
 20
2410.239999999999
 30
0.0
 11
1905.1
 21
2415.42
 31
0.0
  0
LINE
  5
833
330
20E
100
AcDbEntity
  8
1-SUNPO
  6
CONTINUOUS
100
AcDbLine
 10
1885.78
 20
2410.239999999999
 30
0.0
 11
1905.1
 21
2405.07
 31
0.0
  0
LINE
  5
834
330
20E
100
AcDbEntity
  8
1-SUNPO
  6
CONTINUOUS
100
AcDbLine
 10
1625.779999999999
 20
2410.239999999999
 30
0.0
 11
1645.1
 21
2415.42
 31
0.0
  0
LINE
  5
835
330
20E
100
AcDbEntity
  8
1-SUNPO
  6
CONTINUOUS
100
AcDbLine
 10
1625.779999999999
 20
2410.239999999999
 30
0.0
 11
1645.1
 21
2405.07
 31
0.0
  0
LINE
  5
836
330
20E
100
AcDbEntity
  8
1-SUNPO
  6
CONTINUOUS
100
AcDbLine
 10
1885.78
 20
2238.86
 30
0.0
 11
1885.78
 21
2410.239999999999
 31
0.0
  0
LINE
  5
837
330
20E
100
AcDbEntity
  8
1-SUNPO
  6
CONTINUOUS
100
AcDbLine
 10
1955.78
 20
2410.239999999999
 30
0.0
 11
1936.46
 21
2415.42
 31
0.0
  0
LINE
  5
838
330
20E
100
AcDbEntity
  8
1-SUNPO
  6
CONTINUOUS
100
AcDbLine
 10
1955.78
 20
2410.239999999999
 30
0.0
 11
1936.46
 21
2405.07
 31
0.0
  0
LINE
  5
839
330
20E
100
AcDbEntity
  8
1-SUNPO
  6
CONTINUOUS
100
AcDbLine
 10
1885.78
 20
2410.239999999999
 30
0.0
 11
1866.46
 21
2415.42
 31
0.0
  0
LINE
  5
83A
330
20E
100
AcDbEntity
  8
1-SUNPO
  6
CONTINUOUS
100
AcDbLine
 10
1885.78
 20
2410.239999999999
 30
0.0
 11
1866.46
 21
2405.07
 31
0.0
  0
LINE
  5
83B
330
20E
100
AcDbEntity
  8
1-SUNPO
  6
CONTINUOUS
100
AcDbLine
 10
1625.779999999999
 20
2238.86
 30
0.0
 11
1625.779999999999
 21
2410.239999999999
 31
0.0
  0
LINE
  5
83C
330
20E
100
AcDbEntity
  8
1-SUNPO
  6
CONTINUOUS
100
AcDbLine
 10
1960.78
 20
2410.239999999999
 30
0.0
 11
1980.1
 21
2415.42
 31
0.0
  0
LINE
  5
83D
330
20E
100
AcDbEntity
  8
1-SUNPO
  6
CONTINUOUS
100
AcDbLine
 10
1960.78
 20
2410.239999999999
 30
0.0
 11
1980.1
 21
2405.07
 31
0.0
  0
LINE
  5
83E
330
20E
100
AcDbEntity
  8
1-SUNPO
  6
CONTINUOUS
100
AcDbLine
 10
1955.78
 20
2410.239999999999
 30
0.0
 11
1955.78
 21
2448.76
 31
0.0
  0
LINE
  5
83F
330
20E
100
AcDbEntity
  8
1-SUNPO
  6
CONTINUOUS
100
AcDbLine
 10
1960.78
 20
2410.239999999999
 30
0.0
 11
1960.78
 21
2448.76
 31
0.0
  0
LINE
  5
840
330
20E
100
AcDbEntity
  8
1-SUNPO
  6
CONTINUOUS
100
AcDbLine
 10
1575.779999999999
 20
1931.56
 30
0.0
 11
1494.609999999999
 21
1931.56
 31
0.0
  0
LINE
  5
841
330
20E
100
AcDbEntity
  8
1-SUNPO
  6
CONTINUOUS
100
AcDbLine
 10
1434.48
 20
2476.56
 30
0.0
 11
1380.78
 21
2476.56
 31
0.0
  0
LINE
  5
842
330
20E
100
AcDbEntity
  8
1-SUNPO
  6
CONTINUOUS
100
AcDbLine
 10
1434.48
 20
2601.56
 30
0.0
 11
1380.78
 21
2601.56
 31
0.0
  0
LINE
  5
843
330
20E
100
AcDbEntity
  8
1-SUNPO
  6
CONTINUOUS
100
AcDbLine
 10
1434.48
 20
1931.56
 30
0.0
 11
1280.78
 21
1931.56
 31
0.0
  0
LINE
  5
844
330
20E
100
AcDbEntity
  8
1-KIJUN
  6
CENTER2
100
AcDbLine
 10
1755.78
 20
2637.13
 30
0.0
 11
1755.78
 21
2470.01
 31
0.0
  0
LINE
  5
845
330
20E
100
AcDbEntity
  8
1-SUNPO
  6
CONTINUOUS
100
AcDbLine
 10
1550.78
 20
2436.56
 30
0.0
 11
1478.45
 21
2436.56
 31
0.0
  0
LINE
  5
846
330
20E
100
AcDbEntity
  8
0-3C1
  6
CONTINUOUS
100
AcDbLine
 10
1510.78
 20
2476.56
 30
0.0
 11
1550.78
 21
2436.56
 31
0.0
  0
LINE
  5
847
330
20E
100
AcDbEntity
  8
1-SUNPO
  6
CONTINUOUS
100
AcDbLine
 10
1955.78
 20
2410.239999999999
 30
0.0
 11
1885.78
 21
2410.239999999999
 31
0.0
  0
LINE
  5
848
330
20E
100
AcDbEntity
  8
1-SUNPO
  6
CONTINUOUS
100
AcDbLine
 10
1280.78
 20
2601.56
 30
0.0
 11
1280.78
 21
1931.56
 31
0.0
  0
LINE
  5
849
330
20E
100
AcDbEntity
  8
1-SUNPO
  6
CONTINUOUS
100
AcDbLine
 10
1890.78
 20
2410.239999999999
 30
0.0
 11
1625.779999999999
 21
2410.239999999999
 31
0.0
  0
LINE
  5
84A
330
20E
100
AcDbEntity
  8
0-3C1
  6
CONTINUOUS
100
AcDbLine
 10
2000.78
 20
2476.56
 30
0.0
 11
1960.78
 21
2436.56
 31
0.0
  0
LINE
  5
84B
330
20E
100
AcDbEntity
  8
0-3C1
  6
CONTINUOUS
100
AcDbLine
 10
1955.78
 20
1951.559999999999
 30
0.0
 11
1960.78
 21
2436.56
 31
0.0
  0
LINE
  5
84C
330
20E
100
AcDbEntity
  8
0-3C1
  6
CONTINUOUS
100
AcDbLine
 10
1837.74
 20
2001.56
 30
0.0
 11
1668.94
 21
2001.56
 31
0.0
  0
LINE
  5
84D
330
20E
100
AcDbEntity
  8
0-3C1
  6
CONTINUOUS
100
AcDbLine
 10
1887.7
 20
2049.56
 30
0.0
 11
1905.78
 21
2501.56
 31
0.0
  0
LINE
  5
84E
330
20E
100
AcDbEntity
  8
1-SUNPO
  6
CONTINUOUS
100
AcDbLine
 10
2130.78
 20
1931.56
 30
0.0
 11
2130.78
 21
2001.56
 31
0.0
  0
LINE
  5
84F
330
20E
100
AcDbEntity
  8
1-SUNPO
  6
CONTINUOUS
100
AcDbLine
 10
2130.78
 20
2001.56
 30
0.0
 11
2130.78
 21
2501.56
 31
0.0
  0
LINE
  5
850
330
20E
100
AcDbEntity
  8
0-3C1
  6
CONTINUOUS
100
AcDbLine
 10
1555.78
 20
1951.559999999999
 30
0.0
 11
1550.78
 21
2436.56
 31
0.0
  0
LINE
  5
851
330
20E
100
AcDbEntity
  8
0-3C1
  6
CONTINUOUS
100
AcDbLine
 10
1623.859999999999
 20
2049.56
 30
0.0
 11
1605.78
 21
2501.56
 31
0.0
  0
LINE
  5
852
330
20E
100
AcDbEntity
  8
0-3C1
  6
CONTINUOUS
100
AcDbLine
 10
1755.78
 20
1976.56
 30
0.0
 11
1673.82
 21
1976.56
 31
0.0
  0
LINE
  5
853
330
20E
100
AcDbEntity
  8
0-3C1
  6
CONTINUOUS
100
AcDbLine
 10
1598.88
 20
2048.56
 30
0.0
 11
1580.799999999999
 21
2500.56
 31
0.0
  0
LINE
  5
854
330
20E
100
AcDbEntity
  8
1-KIJUN
  6
CENTER2
100
AcDbLine
 10
1755.78
 20
2400.27
 30
0.0
 11
1755.78
 21
1878.41
 31
0.0
  0
LINE
  5
855
330
20E
100
AcDbEntity
  8
0-3C1
  6
CONTINUOUS
100
AcDbLine
 10
2474.35
 20
2601.56
 30
0.0
 11
2474.35
 21
1931.56
 31
0.0
  0
LINE
  5
856
330
20E
100
AcDbEntity
  8
0-3C1
  6
CONTINUOUS
100
AcDbLine
 10
4474.35
 20
2601.56
 30
0.0
 11
4474.35
 21
1931.56
 31
0.0
  0
LINE
  5
857
330
20E
100
AcDbEntity
  8
1-SUNPO
  6
CONTINUOUS
100
AcDbLine
 10
1555.78
 20
2741.56
 30
0.0
 11
1955.78
 21
2741.56
 31
0.0
  0
LINE
  5
858
330
20E
100
AcDbEntity
  8
0-3C1
  6
CONTINUOUS
100
AcDbLine
 10
2474.35
 20
2436.56
 30
0.0
 11
4474.35
 21
2436.56
 31
0.0
  0
ARC
  5
859
330
20E
100
AcDbEntity
  8
1-SUNPO
  6
CONTINUOUS
100
AcDbCircle
 10
1575.779999999999
 20
1931.56
 30
0.0
 40
21.07
100
AcDbArc
 50
135.0
 51
180.0
  0
ARC
  5
85A
330
20E
100
AcDbEntity
  8
1-SUNPO
  6
CONTINUOUS
100
AcDbCircle
 10
1550.78
 20
2436.56
 30
0.0
 40
36.2
100
AcDbArc
 50
135.0
 51
180.0
  0
ARC
  5
85B
330
20E
100
AcDbEntity
  8
0-3C1
  6
CONTINUOUS
100
AcDbCircle
 10
1837.74
 20
2051.559999999999
 30
0.0
 40
50.0
100
AcDbArc
 50
270.0
 51
357.7094119999999
  0
ARC
  5
85C
330
20E
100
AcDbEntity
  8
0-3C1
  6
CONTINUOUS
100
AcDbCircle
 10
1673.82
 20
2051.559999999999
 30
0.0
 40
50.0
100
AcDbArc
 50
182.290604
 51
270.0
  0
ARC
  5
85D
330
20E
100
AcDbEntity
  8
0-3C1
  6
CONTINUOUS
100
AcDbCircle
 10
1673.82
 20
2051.559999999999
 30
0.0
 40
75.0
100
AcDbArc
 50
182.2905429999999
 51
270.0
  0
MTEXT
  5
85E
330
20E
100
AcDbEntity
  8
MOJI
100
AcDbMText
 10
3809.85
 20
363.73
 30
0.0
 40
78.0
 41
0.0
 71
     7
 72
     1
  1
千葉県コンクリート製品協同組合
1001
ACAD
1000
MTEXTBEGIN
1070
    73
1070
     1
1070
    44
1040
1.0
1070
    74
1070
     0
1000
MTEXTEND
  0
MTEXT
  5
85F
330
20E
100
AcDbEntity
  8
MOJI
100
AcDbMText
 10
3173.61
 20
506.92
 30
0.0
 40
31.2
 41
0.0
 71
     7
 72
     1
  1
縮尺
1001
ACAD
1000
MTEXTBEGIN
1070
    73
1070
     1
1070
    44
1040
1.0
1070
    74
1070
     0
1000
MTEXTEND
  0
MTEXT
  5
860
330
20E
100
AcDbEntity
  8
MOJI
100
AcDbMText
 10
373.72
 20
505.86
 30
0.0
 40
31.2
 41
0.0
 71
     7
 72
     1
  1
製品名
1001
ACAD
1000
MTEXTBEGIN
1070
    73
1070
     1
1070
    44
1040
1.0
1070
    74
1070
     0
1000
MTEXTEND
  0
MTEXT
  5
861
330
20E
100
AcDbEntity
  8
MOJI
100
AcDbMText
 10
2373.19
 20
505.86
 30
0.0
 40
31.2
 41
0.0
 71
     7
 72
     1
  1
型式
1001
ACAD
1000
MTEXTBEGIN
1070
    73
1070
     1
1070
    44
1040
1.0
1070
    74
1070
     0
1000
MTEXTEND
  0
MTEXT
  5
862
330
20E
100
AcDbEntity
  8
MOJI
100
AcDbMText
 10
3237.55
 20
376.17
 30
0.0
 40
62.4
 41
0.0
 71
     7
 72
     1
  1
１／２０
1001
ACAD
1000
MTEXTBEGIN
1070
    73
1070
     1
1070
    44
1040
1.0
1070
    74
1070
     0
1000
MTEXTEND
  0
MTEXT
  5
873
330
20E
100
AcDbEntity
  8
MOJI
100
AcDbMText
 10
710.0
 20
360.0
 30
0.0
 40
78.0
 41
0.0
 71
     7
 72
     1
  1
千葉県型側溝（歩道用）
1001
ACAD
1000
MTEXTBEGIN
1070
    73
1070
     1
1070
    44
1040
1.0
1070
    74
1070
     0
1000
MTEXTEND
  0
MTEXT
  5
875
330
20E
100
AcDbEntity
  8
MOJI
100
AcDbMText
 10
2540.0
 20
360.0
 30
0.0
 40
78.0
 41
0.0
 71
     7
 72
     1
  1
\W0.700;CH1-30-50
1001
ACAD
1000
MTEXTBEGIN
1070
    73
1070
     1
1070
    44
1040
1.0
1070
    74
1070
     0
1000
MTEXTEND
  0
TEXT
  5
9D35
330
20E
100
AcDbEntity
  8
0
  6
CONTINUOUS
100
AcDbText
 10
1783.15
 20
2072.0
 30
0.0
 40
39.0
  1
50R
 41
0.7
100
AcDbText
  0
TEXT
  5
9D36
330
20E
100
AcDbEntity
  8
0
  6
CONTINUOUS
100
AcDbText
 10
1718.28
 20
2751.56
 30
0.0
 40
39.0
  1
300
 41
0.8
100
AcDbText
  0
TEXT
  5
9D37
330
20E
100
AcDbEntity
  8
0
  6
CONTINUOUS
100
AcDbText
 10
3424.35
 20
2811.56
 30
0.0
 40
39.0
  1
2000
 41
0.8
100
AcDbText
  0
TEXT
  5
9D38
330
20E
100
AcDbEntity
  8
0
  6
CONTINUOUS
100
AcDbText
 10
1557.28
 20
2751.56
 30
0.0
 40
39.0
  1
47
 41
0.8
100
AcDbText
  0
TEXT
  5
9D39
330
20E
100
AcDbEntity
  8
0
  6
CONTINUOUS
100
AcDbText
 10
1904.279999999999
 20
2751.56
 30
0.0
 40
39.0
  1
47
 41
0.8
100
AcDbText
  0
TEXT
  5
9D3A
330
20E
100
AcDbEntity
  8
0
  6
CONTINUOUS
100
AcDbText
 10
2120.78
 20
2514.06
 30
0.0
 40
39.0
  1
100
 50
90.0
 41
0.8
100
AcDbText
  0
TEXT
  5
9D3B
330
20E
100
AcDbEntity
  8
0
  6
CONTINUOUS
100
AcDbText
 10
1370.78
 20
2501.56
 30
0.0
 40
39.0
  1
125
 50
90.0
 41
0.8
100
AcDbText
  0
TEXT
  5
9D3C
330
20E
100
AcDbEntity
  8
0
  6
CONTINUOUS
100
AcDbText
 10
1718.28
 20
1811.56
 30
0.0
 40
39.0
  1
360
 41
0.8
100
AcDbText
  0
TEXT
  5
9D3D
330
20E
100
AcDbEntity
  8
0
  6
CONTINUOUS
100
AcDbText
 10
1963.51
 20
1811.56
 30
0.0
 40
39.0
  1
20
 41
0.8
100
AcDbText
  0
TEXT
  5
9D3E
330
20E
100
AcDbEntity
  8
0
  6
CONTINUOUS
100
AcDbText
 10
1508.28
 20
2751.56
 30
0.0
 40
39.0
  1
45
 41
0.8
100
AcDbText
  0
TEXT
  5
9D3F
330
20E
100
AcDbEntity
  8
0
  6
CONTINUOUS
100
AcDbText
 10
1953.28
 20
2751.56
 30
0.0
 40
39.0
  1
45
 41
0.8
100
AcDbText
  0
TEXT
  5
9D40
330
20E
100
AcDbEntity
  8
0
  6
CONTINUOUS
100
AcDbText
 10
1544.78
 20
2794.96
 30
0.0
 40
39.0
  1
3
 41
0.8
100
AcDbText
  0
TEXT
  5
9D41
330
20E
100
AcDbEntity
  8
0
  6
CONTINUOUS
100
AcDbText
 10
1940.22
 20
2794.96
 30
0.0
 40
39.0
  1
3
 41
0.8
100
AcDbText
  0
TEXT
  5
9D42
330
20E
100
AcDbEntity
  8
0
  6
CONTINUOUS
100
AcDbText
 10
1951.05
 20
2455.519999999999
 30
0.0
 40
39.0
  1
5
 41
0.8
100
AcDbText
  0
TEXT
  5
9D43
330
20E
100
AcDbEntity
  8
0
  6
CONTINUOUS
100
AcDbText
 10
1480.05
 20
1941.56
 30
0.0
 40
39.0
  1
45°
100
AcDbText
  0
TEXT
  5
9D44
330
20E
100
AcDbEntity
  8
0
  6
CONTINUOUS
100
AcDbText
 10
1441.16
 20
2446.559999999999
 30
0.0
 40
39.0
  1
45°
100
AcDbText
  0
TEXT
  5
9D45
330
20E
100
AcDbEntity
  8
0
  6
CONTINUOUS
100
AcDbText
 10
1718.28
 20
2901.559999999999
 30
0.0
 40
39.0
  1
490
 41
0.8
100
AcDbText
  0
TEXT
  5
9D46
330
20E
100
AcDbEntity
  8
0
  6
CONTINUOUS
100
AcDbText
 10
1905.02
 20
2420.239999999999
 30
0.0
 40
39.0
  1
70
 41
0.8
100
AcDbText
  0
TEXT
  5
9D47
330
20E
100
AcDbEntity
  8
0
  6
CONTINUOUS
100
AcDbText
 10
1718.28
 20
2420.239999999999
 30
0.0
 40
39.0
  1
260
 41
0.8
100
AcDbText
  0
TEXT
  5
9D48
330
20E
100
AcDbEntity
  8
0
  6
CONTINUOUS
100
AcDbText
 10
2120.78
 20
1941.56
 30
0.0
 40
39.0
  1
70
 50
90.0
 41
0.8
100
AcDbText
  0
TEXT
  5
9D49
330
20E
100
AcDbEntity
  8
0
  6
CONTINUOUS
100
AcDbText
 10
2120.78
 20
2214.059999999999
 30
0.0
 40
39.0
  1
500
 50
90.0
 41
0.8
100
AcDbText
  0
TEXT
  5
9D4A
330
20E
100
AcDbEntity
  8
0
  6
CONTINUOUS
100
AcDbText
 10
1270.78
 20
2229.06
 30
0.0
 40
39.0
  1
670
 50
90.0
 41
0.8
100
AcDbText
  0
ENDSEC
  0
SECTION
  2
OBJECTS
  0
DICTIONARY
  5
87B
330
0
100
AcDbDictionary
  3
ACAD_GROUP
350
87C
  3
ACAD_MLINESTYLE
350
87D
  3
ACAD_LAYOUT
350
9D05
  3
ACAD_PLOTSETTINGS
350
9D06
1001
ACAD
1000
TREAT_AS_HARD
1070
     0
  0
DICTIONARY
  5
9D4C
330
20E
100
AcDbDictionary
  3
ACAD_LAYOUTSELFREF
350
9D4D
  0
DICTIONARY
  5
9D4E
330
20F
100
AcDbDictionary
  3
ACAD_LAYOUTSELFREF
350
9D4F
  0
DICTIONARY
  5
87C
102
{ACAD_REACTORS
330
87B
102
}
330
87B
100
AcDbDictionary
1001
ACAD
1000
TREAT_AS_HARD
1070
     0
  0
DICTIONARY
  5
87D
102
{ACAD_REACTORS
330
87B
102
}
330
87B
100
AcDbDictionary
1001
ACAD
1000
TREAT_AS_HARD
1070
     0
  0
DICTIONARY
  5
9D05
102
{ACAD_REACTORS
330
87B
102
}
330
87B
100
AcDbDictionary
1001
ACAD
1000
TREAT_AS_HARD
1070
     0
  0
DICTIONARY
  5
9D06
102
{ACAD_REACTORS
330
87B
102
}
330
87B
100
AcDbDictionary
1001
ACAD
1000
TREAT_AS_HARD
1070
     0
  0
XRECORD
  5
9D4D
102
{ACAD_REACTORS
330
9D4C
102
}
330
9D4C
100
AcDbXrecord
340
20E
  0
XRECORD
  5
9D4F
102
{ACAD_REACTORS
330
9D4E
102
}
330
9D4E
100
AcDbXrecord
340
20F
  0
ENDSEC
  0
EOF
