  0
SECTION
  2
HEADER
  9
$ACADVER
  1
AC1012
  9
$DWGCODEPAGE
  3
dos932
  9
$INSBASE
 10
0.0
 20
0.0
 30
0.0
  9
$EXTMIN
 10
0.0
 20
0.0
 30
0.0
  9
$EXTMAX
 10
5940.0
 20
4200.0
 30
0.0
  9
$LIMMIN
 10
0.0
 20
0.0
  9
$LIMMAX
 10
5940.0
 20
4200.0
  9
$ORTHOMODE
 70
     1
  9
$REGENMODE
 70
     1
  9
$FILLMODE
 70
     1
  9
$QTEXTMODE
 70
     0
  9
$MIRRTEXT
 70
     0
  9
$DRAGMODE
 70
     2
  9
$LTSCALE
 40
10.0
  9
$OSMODE
 70
    39
  9
$ATTMODE
 70
     1
  9
$TEXTSIZE
 40
50.0
  9
$TRACEWID
 40
1.0
  9
$TEXTSTYLE
  7
ADD
  9
$CLAYER
  8
SUNPO
  9
$CELTYPE
  6
BYLAYER
  9
$CECOLOR
 62
   256
  9
$CELTSCALE
 40
1.0
  9
$DELOBJ
 70
     1
  9
$DISPSILH
 70
     0
  9
$DIMSCALE
 40
20.0
  9
$DIMASZ
 40
1.1
  9
$DIMEXO
 40
1.0
  9
$DIMDLI
 40
7.0
  9
$DIMRND
 40
0.0
  9
$DIMDLE
 40
0.0
  9
$DIMEXE
 40
0.5
  9
$DIMTP
 40
0.0
  9
$DIMTM
 40
0.0
  9
$DIMTXT
 40
1.8
  9
$DIMCEN
 40
1.1
  9
$DIMTSZ
 40
0.0
  9
$DIMTOL
 70
     0
  9
$DIMLIM
 70
     0
  9
$DIMTIH
 70
     0
  9
$DIMTOH
 70
     0
  9
$DIMSE1
 70
     0
  9
$DIMSE2
 70
     0
  9
$DIMTAD
 70
     1
  9
$DIMZIN
 70
     8
  9
$DIMBLK
  1

  9
$DIMASO
 70
     1
  9
$DIMSHO
 70
     1
  9
$DIMPOST
  1

  9
$DIMAPOST
  1

  9
$DIMALT
 70
     0
  9
$DIMALTD
 70
     3
  9
$DIMALTF
 40
0.03937007874016
  9
$DIMLFAC
 40
1.0
  9
$DIMTOFL
 70
     1
  9
$DIMTVP
 40
0.7
  9
$DIMTIX
 70
     1
  9
$DIMSOXD
 70
     0
  9
$DIMSAH
 70
     0
  9
$DIMBLK1
  1

  9
$DIMBLK2
  1

  9
$DIMSTYLE
  2
ADD
  9
$DIMCLRD
 70
   144
  9
$DIMCLRE
 70
   144
  9
$DIMCLRT
 70
     7
  9
$DIMTFAC
 40
1.0
  9
$DIMGAP
 40
0.625
  9
$DIMJUST
 70
     0
  9
$DIMSD1
 70
     0
  9
$DIMSD2
 70
     0
  9
$DIMTOLJ
 70
     2
  9
$DIMTZIN
 70
     8
  9
$DIMALTZ
 70
     0
  9
$DIMALTTZ
 70
     0
  9
$DIMFIT
 70
     5
  9
$DIMUPT
 70
     0
  9
$DIMUNIT
 70
     2
  9
$DIMDEC
 70
     1
  9
$DIMTDEC
 70
     1
  9
$DIMALTU
 70
     2
  9
$DIMALTTD
 70
     3
  9
$DIMTXSTY
  7
ADD
  9
$DIMAUNIT
 70
     0
  9
$LUNITS
 70
     2
  9
$LUPREC
 70
     4
  9
$SKETCHINC
 40
1.0
  9
$FILLETRAD
 40
70.0
  9
$AUNITS
 70
     0
  9
$AUPREC
 70
     1
  9
$MENU
  1
.
  9
$ELEVATION
 40
0.0
  9
$PELEVATION
 40
0.0
  9
$THICKNESS
 40
0.0
  9
$LIMCHECK
 70
     0
  9
$BLIPMODE
 70
     0
  9
$CHAMFERA
 40
3.0
  9
$CHAMFERB
 40
3.0
  9
$CHAMFERC
 40
25.0
  9
$CHAMFERD
 40
0.7853981633974483
  9
$SKPOLY
 70
     0
  9
$TDCREATE
 40
2451801.142532870
  9
$TDUPDATE
 40
2451861.736124884
  9
$TDINDWG
 40
0.8730041551
  9
$TDUSRTIMER
 40
0.8730041551
  9
$USRTIMER
 70
     1
  9
$ANGBASE
 50
0.0
  9
$ANGDIR
 70
     0
  9
$PDMODE
 70
     0
  9
$PDSIZE
 40
0.0
  9
$PLINEWID
 40
0.0
  9
$COORDS
 70
     2
  9
$SPLFRAME
 70
     0
  9
$SPLINETYPE
 70
     6
  9
$SPLINESEGS
 70
     8
  9
$ATTDIA
 70
     0
  9
$ATTREQ
 70
     1
  9
$HANDLING
 70
 10241
  9
$HANDSEED
  5
333D
  9
$SURFTAB1
 70
     6
  9
$SURFTAB2
 70
     6
  9
$SURFTYPE
 70
     6
  9
$SURFU
 70
     6
  9
$SURFV
 70
     6
  9
$UCSNAME
  2

  9
$UCSORG
 10
0.0
 20
0.0
 30
0.0
  9
$UCSXDIR
 10
1.0
 20
0.0
 30
0.0
  9
$UCSYDIR
 10
0.0
 20
1.0
 30
0.0
  9
$PUCSNAME
  2

  9
$PUCSORG
 10
0.0
 20
0.0
 30
0.0
  9
$PUCSXDIR
 10
1.0
 20
0.0
 30
0.0
  9
$PUCSYDIR
 10
0.0
 20
1.0
 30
0.0
  9
$USERI1
 70
     0
  9
$USERI2
 70
     0
  9
$USERI3
 70
     0
  9
$USERI4
 70
     0
  9
$USERI5
 70
     0
  9
$USERR1
 40
841.0
  9
$USERR2
 40
594.0
  9
$USERR3
 40
1.0
  9
$USERR4
 40
0.0
  9
$USERR5
 40
0.0
  9
$WORLDVIEW
 70
     1
  9
$SHADEDGE
 70
     3
  9
$SHADEDIF
 70
    70
  9
$TILEMODE
 70
     1
  9
$MAXACTVP
 70
    48
  9
$PINSBASE
 10
0.0
 20
0.0
 30
0.0
  9
$PLIMCHECK
 70
     0
  9
$PEXTMIN
 10
-5.639720244523232
 20
-6.296546991387913
 30
0.0
  9
$PEXTMAX
 10
834.3956480283654
 20
560.9320000029947
 30
0.0
  9
$PLIMMIN
 10
-7.500000000000001
 20
-20.0
  9
$PLIMMAX
 10
833.5000000000002
 20
574.0000000000001
  9
$UNITMODE
 70
     0
  9
$VISRETAIN
 70
     1
  9
$PLINEGEN
 70
     0
  9
$PSLTSCALE
 70
     1
  9
$TREEDEPTH
 70
  3020
  9
$PICKSTYLE
 70
     1
  9
$CMLSTYLE
  2
STANDARD
  9
$CMLJUST
 70
     0
  9
$CMLSCALE
 40
20.0
  9
$SAVEIMAGES
 70
     1
  0
ENDSEC
  0
SECTION
  2
CLASSES
  0
CLASS
  1
ACDBDICTIONARYWDFLT
  2
AcDbDictionaryWithDefault
  3
AutoCAD 2000
 90
    32768
280
     0
281
     0
  0
CLASS
  1
ACDBPLACEHOLDER
  2
AcDbPlaceHolder
  3
AutoCAD 2000
 90
    32768
280
     0
281
     0
  0
CLASS
  1
LAYOUT
  2
AcDbLayout
  3
AutoCAD 2000
 90
    32768
280
     0
281
     0
  0
CLASS
  1
RTEXT
  2
RText
  3
RText|AutoCAD Express Tool|expresstools@autodesk.com
 90
    32768
280
     0
281
     1
  0
CLASS
  1
DICTIONARYVAR
  2
AcDbDictionaryVar
  3
AutoCAD 2000
 90
    32768
280
     0
281
     0
  0
CLASS
  1
LONG_TRANSACTION
  2
AcDbLongTransaction
  3
AutoCAD 2000
 90
    32768
280
     0
281
     0
  0
CLASS
  1
LWPOLYLINE
  2
AcDbPolyline
  3
AutoCAD 2000
 90
    32768
280
     0
281
     1
  0
CLASS
  1
HATCH
  2
AcDbHatch
  3
AutoCAD 2000
 90
    32768
280
     0
281
     1
  0
CLASS
  1
XRECORD
  2
AcDbXrecord
  3
AutoCAD 2000
 90
    32768
280
     0
281
     0
  0
CLASS
  1
LONG_TRANSACTION
  2
AcDbLongTransaction
  3
AutoCAD 2000
 90
    32768
280
     0
281
     0
  0
CLASS
  1
LWPOLYLINE
  2
AcDbPolyline
  3
AutoCAD 2000
 90
    32768
280
     0
281
     1
  0
CLASS
  1
HATCH
  2
AcDbHatch
  3
AutoCAD 2000
 90
    32768
280
     0
281
     1
  0
CLASS
  1
XRECORD
  2
AcDbXrecord
  3
AutoCAD 2000
 90
    32768
280
     0
281
     0
  0
CLASS
  1
LONG_TRANSACTION
  2
AcDbLongTransaction
  3
AutoCAD 2000
 90
    32768
280
     0
281
     0
  0
CLASS
  1
LWPOLYLINE
  2
AcDbPolyline
  3
AutoCAD 2000
 90
    32768
280
     0
281
     1
  0
CLASS
  1
HATCH
  2
AcDbHatch
  3
AutoCAD 2000
 90
    32768
280
     0
281
     1
  0
CLASS
  1
XRECORD
  2
AcDbXrecord
  3
AutoCAD 2000
 90
    32768
280
     0
281
     0
  0
CLASS
  1
LONG_TRANSACTION
  2
AcDbLongTransaction
  3
AutoCAD 2000
 90
    32768
280
     0
281
     0
  0
CLASS
  1
LWPOLYLINE
  2
AcDbPolyline
  3
AutoCAD 2000
 90
    32768
280
     0
281
     1
  0
CLASS
  1
HATCH
  2
AcDbHatch
  3
AutoCAD 2000
 90
    32768
280
     0
281
     1
  0
CLASS
  1
XRECORD
  2
AcDbXrecord
  3
AutoCAD 2000
 90
    32768
280
     0
281
     0
  0
CLASS
  1
LONG_TRANSACTION
  2
AcDbLongTransaction
  3
AutoCAD 2000
 90
    32768
280
     0
281
     0
  0
CLASS
  1
LWPOLYLINE
  2
AcDbPolyline
  3
AutoCAD 2000
 90
    32768
280
     0
281
     1
  0
CLASS
  1
HATCH
  2
AcDbHatch
  3
AutoCAD 2000
 90
    32768
280
     0
281
     1
  0
CLASS
  1
XRECORD
  2
AcDbXrecord
  3
AutoCAD 2000
 90
    32768
280
     0
281
     0
  0
CLASS
  1
LONG_TRANSACTION
  2
AcDbLongTransaction
  3
AutoCAD 2000
 90
    32768
280
     0
281
     0
  0
CLASS
  1
LWPOLYLINE
  2
AcDbPolyline
  3
AutoCAD 2000
 90
    32768
280
     0
281
     1
  0
CLASS
  1
HATCH
  2
AcDbHatch
  3
AutoCAD 2000
 90
    32768
280
     0
281
     1
  0
CLASS
  1
XRECORD
  2
AcDbXrecord
  3
AutoCAD 2000
 90
    32768
280
     0
281
     0
  0
CLASS
  1
LONG_TRANSACTION
  2
AcDbLongTransaction
  3
AutoCAD 2000
 90
    32768
280
     0
281
     0
  0
CLASS
  1
LWPOLYLINE
  2
AcDbPolyline
  3
AutoCAD 2000
 90
    32768
280
     0
281
     1
  0
CLASS
  1
HATCH
  2
AcDbHatch
  3
AutoCAD 2000
 90
    32768
280
     0
281
     1
  0
CLASS
  1
XRECORD
  2
AcDbXrecord
  3
AutoCAD 2000
 90
    32768
280
     0
281
     0
  0
CLASS
  1
LONG_TRANSACTION
  2
AcDbLongTransaction
  3
AutoCAD 2000
 90
    32768
280
     0
281
     0
  0
CLASS
  1
LWPOLYLINE
  2
AcDbPolyline
  3
AutoCAD 2000
 90
    32768
280
     0
281
     1
  0
CLASS
  1
HATCH
  2
AcDbHatch
  3
AutoCAD 2000
 90
    32768
280
     0
281
     1
  0
CLASS
  1
XRECORD
  2
AcDbXrecord
  3
AutoCAD 2000
 90
    32768
280
     0
281
     0
  0
CLASS
  1
LONG_TRANSACTION
  2
AcDbLongTransaction
  3
AutoCAD 2000
 90
    32768
280
     0
281
     0
  0
CLASS
  1
LWPOLYLINE
  2
AcDbPolyline
  3
AutoCAD 2000
 90
    32768
280
     0
281
     1
  0
CLASS
  1
HATCH
  2
AcDbHatch
  3
AutoCAD 2000
 90
    32768
280
     0
281
     1
  0
CLASS
  1
XRECORD
  2
AcDbXrecord
  3
AutoCAD 2000
 90
    32768
280
     0
281
     0
  0
CLASS
  1
LONG_TRANSACTION
  2
AcDbLongTransaction
  3
AutoCAD 2000
 90
    32768
280
     0
281
     0
  0
CLASS
  1
LWPOLYLINE
  2
AcDbPolyline
  3
AutoCAD 2000
 90
    32768
280
     0
281
     1
  0
CLASS
  1
HATCH
  2
AcDbHatch
  3
AutoCAD 2000
 90
    32768
280
     0
281
     1
  0
CLASS
  1
XRECORD
  2
AcDbXrecord
  3
AutoCAD 2000
 90
    32768
280
     0
281
     0
  0
CLASS
  1
LONG_TRANSACTION
  2
AcDbLongTransaction
  3
AutoCAD 2000
 90
    32768
280
     0
281
     0
  0
CLASS
  1
LWPOLYLINE
  2
AcDbPolyline
  3
AutoCAD 2000
 90
    32768
280
     0
281
     1
  0
CLASS
  1
HATCH
  2
AcDbHatch
  3
AutoCAD 2000
 90
    32768
280
     0
281
     1
  0
CLASS
  1
XRECORD
  2
AcDbXrecord
  3
AutoCAD 2000
 90
    32768
280
     0
281
     0
  0
CLASS
  1
LONG_TRANSACTION
  2
AcDbLongTransaction
  3
AutoCAD 2000
 90
    32768
280
     0
281
     0
  0
CLASS
  1
LWPOLYLINE
  2
AcDbPolyline
  3
AutoCAD 2000
 90
    32768
280
     0
281
     1
  0
CLASS
  1
HATCH
  2
AcDbHatch
  3
AutoCAD 2000
 90
    32768
280
     0
281
     1
  0
CLASS
  1
XRECORD
  2
AcDbXrecord
  3
AutoCAD 2000
 90
    32768
280
     0
281
     0
  0
CLASS
  1
LONG_TRANSACTION
  2
AcDbLongTransaction
  3
AutoCAD 2000
 90
    32768
280
     0
281
     0
  0
CLASS
  1
LWPOLYLINE
  2
AcDbPolyline
  3
AutoCAD 2000
 90
    32768
280
     0
281
     1
  0
CLASS
  1
HATCH
  2
AcDbHatch
  3
AutoCAD 2000
 90
    32768
280
     0
281
     1
  0
CLASS
  1
XRECORD
  2
AcDbXrecord
  3
AutoCAD 2000
 90
    32768
280
     0
281
     0
  0
CLASS
  1
LONG_TRANSACTION
  2
AcDbLongTransaction
  3
AutoCAD 2000
 90
    32768
280
     0
281
     0
  0
CLASS
  1
LWPOLYLINE
  2
AcDbPolyline
  3
AutoCAD 2000
 90
    32768
280
     0
281
     1
  0
CLASS
  1
HATCH
  2
AcDbHatch
  3
AutoCAD 2000
 90
    32768
280
     0
281
     1
  0
CLASS
  1
XRECORD
  2
AcDbXrecord
  3
AutoCAD 2000
 90
    32768
280
     0
281
     0
  0
CLASS
  1
LONG_TRANSACTION
  2
AcDbLongTransaction
  3
AutoCAD 2000
 90
    32768
280
     0
281
     0
  0
CLASS
  1
LWPOLYLINE
  2
AcDbPolyline
  3
AutoCAD 2000
 90
    32768
280
     0
281
     1
  0
CLASS
  1
HATCH
  2
AcDbHatch
  3
AutoCAD 2000
 90
    32768
280
     0
281
     1
  0
CLASS
  1
XRECORD
  2
AcDbXrecord
  3
AutoCAD 2000
 90
    32768
280
     0
281
     0
  0
CLASS
  1
LONG_TRANSACTION
  2
AcDbLongTransaction
  3
AutoCAD 2000
 90
    32768
280
     0
281
     0
  0
CLASS
  1
LWPOLYLINE
  2
AcDbPolyline
  3
AutoCAD 2000
 90
    32768
280
     0
281
     1
  0
CLASS
  1
HATCH
  2
AcDbHatch
  3
AutoCAD 2000
 90
    32768
280
     0
281
     1
  0
CLASS
  1
XRECORD
  2
AcDbXrecord
  3
AutoCAD 2000
 90
    32768
280
     0
281
     0
  0
CLASS
  1
LONG_TRANSACTION
  2
AcDbLongTransaction
  3
AutoCAD 2000
 90
    32768
280
     0
281
     0
  0
CLASS
  1
LWPOLYLINE
  2
AcDbPolyline
  3
AutoCAD 2000
 90
    32768
280
     0
281
     1
  0
CLASS
  1
HATCH
  2
AcDbHatch
  3
AutoCAD 2000
 90
    32768
280
     0
281
     1
  0
CLASS
  1
XRECORD
  2
AcDbXrecord
  3
AutoCAD 2000
 90
    32768
280
     0
281
     0
  0
CLASS
  1
LONG_TRANSACTION
  2
AcDbLongTransaction
  3
AutoCAD 2000
 90
    32768
280
     0
281
     0
  0
CLASS
  1
LWPOLYLINE
  2
AcDbPolyline
  3
AutoCAD 2000
 90
    32768
280
     0
281
     1
  0
CLASS
  1
HATCH
  2
AcDbHatch
  3
AutoCAD 2000
 90
    32768
280
     0
281
     1
  0
CLASS
  1
XRECORD
  2
AcDbXrecord
  3
AutoCAD 2000
 90
    32768
280
     0
281
     0
  0
CLASS
  1
LONG_TRANSACTION
  2
AcDbLongTransaction
  3
AutoCAD 2000
 90
    32768
280
     0
281
     0
  0
CLASS
  1
LWPOLYLINE
  2
AcDbPolyline
  3
AutoCAD 2000
 90
    32768
280
     0
281
     1
  0
CLASS
  1
HATCH
  2
AcDbHatch
  3
AutoCAD 2000
 90
    32768
280
     0
281
     1
  0
CLASS
  1
XRECORD
  2
AcDbXrecord
  3
AutoCAD 2000
 90
    32768
280
     0
281
     0
  0
CLASS
  1
LONG_TRANSACTION
  2
AcDbLongTransaction
  3
AutoCAD 2000
 90
    32768
280
     0
281
     0
  0
CLASS
  1
LWPOLYLINE
  2
AcDbPolyline
  3
AutoCAD 2000
 90
    32768
280
     0
281
     1
  0
CLASS
  1
HATCH
  2
AcDbHatch
  3
AutoCAD 2000
 90
    32768
280
     0
281
     1
  0
CLASS
  1
XRECORD
  2
AcDbXrecord
  3
AutoCAD 2000
 90
    32768
280
     0
281
     0
  0
CLASS
  1
LONG_TRANSACTION
  2
AcDbLongTransaction
  3
AutoCAD 2000
 90
    32768
280
     0
281
     0
  0
CLASS
  1
LWPOLYLINE
  2
AcDbPolyline
  3
AutoCAD 2000
 90
    32768
280
     0
281
     1
  0
CLASS
  1
HATCH
  2
AcDbHatch
  3
AutoCAD 2000
 90
    32768
280
     0
281
     1
  0
CLASS
  1
XRECORD
  2
AcDbXrecord
  3
AutoCAD 2000
 90
    32768
280
     0
281
     0
  0
CLASS
  1
LONG_TRANSACTION
  2
AcDbLongTransaction
  3
AutoCAD 2000
 90
    32768
280
     0
281
     0
  0
CLASS
  1
LWPOLYLINE
  2
AcDbPolyline
  3
AutoCAD 2000
 90
    32768
280
     0
281
     1
  0
CLASS
  1
HATCH
  2
AcDbHatch
  3
AutoCAD 2000
 90
    32768
280
     0
281
     1
  0
CLASS
  1
XRECORD
  2
AcDbXrecord
  3
AutoCAD 2000
 90
    32768
280
     0
281
     0
  0
CLASS
  1
LONG_TRANSACTION
  2
AcDbLongTransaction
  3
AutoCAD 2000
 90
    32768
280
     0
281
     0
  0
CLASS
  1
LWPOLYLINE
  2
AcDbPolyline
  3
AutoCAD 2000
 90
    32768
280
     0
281
     1
  0
CLASS
  1
HATCH
  2
AcDbHatch
  3
AutoCAD 2000
 90
    32768
280
     0
281
     1
  0
CLASS
  1
XRECORD
  2
AcDbXrecord
  3
AutoCAD 2000
 90
    32768
280
     0
281
     0
  0
CLASS
  1
LONG_TRANSACTION
  2
AcDbLongTransaction
  3
AutoCAD 2000
 90
    32768
280
     0
281
     0
  0
CLASS
  1
LWPOLYLINE
  2
AcDbPolyline
  3
AutoCAD 2000
 90
    32768
280
     0
281
     1
  0
CLASS
  1
HATCH
  2
AcDbHatch
  3
AutoCAD 2000
 90
    32768
280
     0
281
     1
  0
CLASS
  1
XRECORD
  2
AcDbXrecord
  3
AutoCAD 2000
 90
    32768
280
     0
281
     0
  0
CLASS
  1
LONG_TRANSACTION
  2
AcDbLongTransaction
  3
AutoCAD 2000
 90
    32768
280
     0
281
     0
  0
CLASS
  1
LWPOLYLINE
  2
AcDbPolyline
  3
AutoCAD 2000
 90
    32768
280
     0
281
     1
  0
CLASS
  1
HATCH
  2
AcDbHatch
  3
AutoCAD 2000
 90
    32768
280
     0
281
     1
  0
CLASS
  1
XRECORD
  2
AcDbXrecord
  3
AutoCAD 2000
 90
    32768
280
     0
281
     0
  0
CLASS
  1
LONG_TRANSACTION
  2
AcDbLongTransaction
  3
AutoCAD 2000
 90
    32768
280
     0
281
     0
  0
CLASS
  1
LWPOLYLINE
  2
AcDbPolyline
  3
AutoCAD 2000
 90
    32768
280
     0
281
     1
  0
CLASS
  1
HATCH
  2
AcDbHatch
  3
AutoCAD 2000
 90
    32768
280
     0
281
     1
  0
CLASS
  1
XRECORD
  2
AcDbXrecord
  3
AutoCAD 2000
 90
    32768
280
     0
281
     0
  0
ENDSEC
  0
SECTION
  2
TABLES
  0
TABLE
  2
VPORT
  5
8
330
0
100
AcDbSymbolTable
 70
     2
  0
VPORT
  5
332D
330
8
100
AcDbSymbolTableRecord
100
AcDbViewportTableRecord
  2
*ACTIVE
 70
     0
 10
0.0
 20
0.0
 11
1.0
 21
1.0
 12
2970.000013830139
 22
2292.71520950441
 13
0.0
 23
0.0
 14
5.0
 24
5.0
 15
10.0
 25
10.0
 16
0.0
 26
0.0
 36
1.0
 17
0.0
 27
0.0
 37
0.0
 40
4666.460907639452
 41
2.091445427728613
 42
50.0
 43
0.0
 44
0.0
 50
0.0
 51
0.0
 71
     0
 72
   100
 73
     1
 74
     1
 75
     1
 76
     0
 77
     0
 78
     0
  0
ENDTAB
  0
TABLE
  2
LTYPE
  5
5
330
0
100
AcDbSymbolTable
 70
     5
  0
LTYPE
  5
14
330
5
100
AcDbSymbolTableRecord
100
AcDbLinetypeTableRecord
  2
BYBLOCK
 70
     0
  3

 72
    65
 73
     0
 40
0.0
  0
LTYPE
  5
15
330
5
100
AcDbSymbolTableRecord
100
AcDbLinetypeTableRecord
  2
BYLAYER
 70
     0
  3

 72
    65
 73
     0
 40
0.0
  0
LTYPE
  5
16
330
5
100
AcDbSymbolTableRecord
100
AcDbLinetypeTableRecord
  2
CONTINUOUS
 70
     0
  3
Solid line
 72
    65
 73
     0
 40
0.0
  0
LTYPE
  5
555
330
5
100
AcDbSymbolTableRecord
100
AcDbLinetypeTableRecord
  2
CENTER
 70
     0
  3
Center ____ _ ____ _ ____ _ ____ _ ____ _ ____
 72
    65
 73
     4
 40
50.8
 49
31.75
 74
     0
 49
-6.349999999999999
 74
     0
 49
6.349999999999999
 74
     0
 49
-6.349999999999999
 74
     0
  0
LTYPE
  5
556
330
5
100
AcDbSymbolTableRecord
100
AcDbLinetypeTableRecord
  2
HIDDEN
 70
     0
  3
Hidden __ __ __ __ __ __ __ __ __ __ __ __ __ _
 72
    65
 73
     2
 40
9.524999999999998
 49
6.349999999999999
 74
     0
 49
-3.174999999999999
 74
     0
  0
LTYPE
  5
557
330
5
100
AcDbSymbolTableRecord
100
AcDbLinetypeTableRecord
  2
HIDDEN2
 70
     0
  3
Hidden (.5x) _ _ _ _ _ _ _ _ _ _ _ _ _ _ _ _ _
 72
    65
 73
     2
 40
4.762499999999999
 49
3.174999999999999
 74
     0
 49
-1.587499999999999
 74
     0
  0
LTYPE
  5
558
330
5
100
AcDbSymbolTableRecord
100
AcDbLinetypeTableRecord
  2
PHANTOM
 70
     0
  3
Phantom ______  __  __  ______  __  __  ______
 72
    65
 73
     6
 40
63.5
 49
31.75
 74
     0
 49
-6.349999999999999
 74
     0
 49
6.349999999999999
 74
     0
 49
-6.349999999999999
 74
     0
 49
6.349999999999999
 74
     0
 49
-6.349999999999999
 74
     0
  0
ENDTAB
  0
TABLE
  2
LAYER
  5
2
330
0
100
AcDbSymbolTable
 70
    22
  0
LAYER
  5
10
330
2
100
AcDbSymbolTableRecord
100
AcDbLayerTableRecord
  2
0
 70
     0
 62
     7
  6
CONTINUOUS
  0
LAYER
  5
75
330
2
100
AcDbSymbolTableRecord
100
AcDbLayerTableRecord
  2
VIEWPORT
 70
     0
 62
     1
  6
CONTINUOUS
  0
LAYER
  5
504
330
2
100
AcDbSymbolTableRecord
100
AcDbLayerTableRecord
  2
DEFPOINTS
 70
     0
 62
     7
  6
CONTINUOUS
  0
LAYER
  5
505
330
2
100
AcDbSymbolTableRecord
100
AcDbLayerTableRecord
  2
1C1
 70
     0
 62
   254
  6
CONTINUOUS
  0
LAYER
  5
506
330
2
100
AcDbSymbolTableRecord
100
AcDbLayerTableRecord
  2
1C2
 70
     0
 62
   254
  6
CONTINUOUS
  0
LAYER
  5
507
330
2
100
AcDbSymbolTableRecord
100
AcDbLayerTableRecord
  2
2C1
 70
     0
 62
   144
  6
CONTINUOUS
  0
LAYER
  5
508
330
2
100
AcDbSymbolTableRecord
100
AcDbLayerTableRecord
  2
2C2
 70
     0
 62
   144
  6
CONTINUOUS
  0
LAYER
  5
509
330
2
100
AcDbSymbolTableRecord
100
AcDbLayerTableRecord
  2
2H1
 70
     0
 62
   144
  6
HIDDEN
  0
LAYER
  5
50A
330
2
100
AcDbSymbolTableRecord
100
AcDbLayerTableRecord
  2
2H2
 70
     0
 62
   144
  6
HIDDEN2
  0
LAYER
  5
50B
330
2
100
AcDbSymbolTableRecord
100
AcDbLayerTableRecord
  2
2P1
 70
     0
 62
   144
  6
PHANTOM
  0
LAYER
  5
50C
330
2
100
AcDbSymbolTableRecord
100
AcDbLayerTableRecord
  2
3C1
 70
     0
 62
     7
  6
CONTINUOUS
  0
LAYER
  5
50D
330
2
100
AcDbSymbolTableRecord
100
AcDbLayerTableRecord
  2
3C2
 70
     0
 62
     7
  6
CONTINUOUS
  0
LAYER
  5
50E
330
2
100
AcDbSymbolTableRecord
100
AcDbLayerTableRecord
  2
3C3
 70
     0
 62
     7
  6
CONTINUOUS
  0
LAYER
  5
50F
330
2
100
AcDbSymbolTableRecord
100
AcDbLayerTableRecord
  2
4H1
 70
     0
 62
     6
  6
HIDDEN
  0
LAYER
  5
510
330
2
100
AcDbSymbolTableRecord
100
AcDbLayerTableRecord
  2
4H2
 70
     0
 62
     6
  6
HIDDEN2
  0
LAYER
  5
511
330
2
100
AcDbSymbolTableRecord
100
AcDbLayerTableRecord
  2
5C1
 70
     0
 62
    55
  6
CONTINUOUS
  0
LAYER
  5
512
330
2
100
AcDbSymbolTableRecord
100
AcDbLayerTableRecord
  2
5C2
 70
     0
 62
    55
  6
CONTINUOUS
  0
LAYER
  5
513
330
2
100
AcDbSymbolTableRecord
100
AcDbLayerTableRecord
  2
8C1
 70
     0
 62
    92
  6
CONTINUOUS
  0
LAYER
  5
514
330
2
100
AcDbSymbolTableRecord
100
AcDbLayerTableRecord
  2
HOJO
 70
     0
 62
     5
  6
CONTINUOUS
  0
LAYER
  5
515
330
2
100
AcDbSymbolTableRecord
100
AcDbLayerTableRecord
  2
KIJUN
 70
     0
 62
     1
  6
CENTER
  0
LAYER
  5
516
330
2
100
AcDbSymbolTableRecord
100
AcDbLayerTableRecord
  2
MOJI
 70
     0
 62
     7
  6
CONTINUOUS
  0
LAYER
  5
517
330
2
100
AcDbSymbolTableRecord
100
AcDbLayerTableRecord
  2
SUNPO
 70
     0
 62
   144
  6
CONTINUOUS
  0
ENDTAB
  0
TABLE
  2
STYLE
  5
3
330
0
100
AcDbSymbolTable
 70
     6
  0
STYLE
  5
11
330
3
100
AcDbSymbolTableRecord
100
AcDbTextStyleTableRecord
  2
STANDARD
 70
     0
 40
0.0
 41
1.0
 50
0.0
 71
     0
 42
2.5
  3
txt
  4

  0
STYLE
  5
2C
330
3
100
AcDbSymbolTableRecord
100
AcDbTextStyleTableRecord
  2

 70
     1
 40
0.0
 41
1.0
 50
0.0
 71
     0
 42
2.5
  3
ltypeshp.shx
  4

  0
STYLE
  5
18E
330
3
100
AcDbSymbolTableRecord
100
AcDbTextStyleTableRecord
  2
ADD
 70
     0
 40
0.0
 41
1.0
 50
0.0
 71
     0
 42
50.0
  3
romans.shx
  4
bigfont.shx
  0
STYLE
  5
191
330
3
100
AcDbSymbolTableRecord
100
AcDbTextStyleTableRecord
  2
MSG
 70
     0
 40
0.0
 41
1.0
 50
0.0
 71
     0
 42
2.5
  3
MS Gothic.ttf
  4

1001
ACAD
1000
MS Gothic
1071
    32817
  0
STYLE
  5
5C8
330
3
100
AcDbSymbolTableRecord
100
AcDbTextStyleTableRecord
  2
STANDARD15
 70
     0
 40
0.0
 41
1.0
 50
15.0
 71
     0
 42
2.5
  3
ROMANS
  4
bigfont
  0
STYLE
  5
5C9
330
3
100
AcDbSymbolTableRecord
100
AcDbTextStyleTableRecord
  2
ROMANS15
 70
     0
 40
0.0
 41
1.0
 50
15.0
 71
     0
 42
2.5
  3
romans
  4

  0
ENDTAB
  0
TABLE
  2
VIEW
  5
6
330
0
100
AcDbSymbolTable
 70
     1
  0
VIEW
  5
54D
330
6
100
AcDbSymbolTableRecord
100
AcDbViewTableRecord
  2
ALL
 70
     0
 40
594.0
 10
420.5
 20
297.0
 41
865.125
 11
0.0
 21
0.0
 31
1.0
 12
0.0
 22
0.0
 32
0.0
 42
50.0
 43
0.0
 44
0.0
 50
0.0
 71
     0
  0
ENDTAB
  0
TABLE
  2
UCS
  5
7
330
0
100
AcDbSymbolTable
 70
     0
  0
ENDTAB
  0
TABLE
  2
APPID
  5
9
330
0
100
AcDbSymbolTable
 70
     4
  0
APPID
  5
12
330
9
100
AcDbSymbolTableRecord
100
AcDbRegAppTableRecord
  2
ACAD
 70
     0
  0
APPID
  5
5CB
330
9
100
AcDbSymbolTableRecord
100
AcDbRegAppTableRecord
  2
ARAIGUMI_YOHEKI
 70
     0
  0
APPID
  5
5CC
330
9
100
AcDbSymbolTableRecord
100
AcDbRegAppTableRecord
  2
CONTENTTABDATA
 70
     0
  0
APPID
  5
5CD
330
9
100
AcDbSymbolTableRecord
100
AcDbRegAppTableRecord
  2
CONTENTCURRENTTAB
 70
     0
  0
ENDTAB
  0
TABLE
  2
DIMSTYLE
  5
A
330
0
100
AcDbSymbolTable
 70
    10
  0
DIMSTYLE
105
27
330
A
100
AcDbSymbolTableRecord
100
AcDbDimStyleTableRecord
  2
ISO-25
 70
     0
  3

  4

  5

  6

  7

 40
1.0
 41
2.5
 42
0.625
 43
3.75
 44
1.25
 45
0.0
 46
0.0
 47
0.0
 48
0.0
140
2.5
141
2.5
142
0.0
143
0.03937007874016
144
1.0
145
0.0
146
1.0
147
0.625
 71
     0
 72
     0
 73
     0
 74
     0
 75
     0
 76
     0
 77
     1
 78
     8
170
     0
171
     3
172
     1
173
     0
174
     0
175
     0
176
     0
177
     0
178
     0
270
     2
271
     2
272
     2
273
     2
274
     3
340
11
275
     0
280
     0
281
     0
282
     0
283
     0
284
     8
285
     0
286
     0
287
     3
288
     0
  0
DIMSTYLE
105
197
330
A
100
AcDbSymbolTableRecord
100
AcDbDimStyleTableRecord
  2
ADD
 70
     0
  3

  4

  5

  6

  7

 40
1.0
 41
2.5
 42
1.0
 43
7.0
 44
0.5
 45
0.0
 46
0.0
 47
0.0
 48
0.0
140
2.5
141
2.5
142
0.0
143
0.03937007874016
144
1.0
145
0.7
146
1.0
147
0.625
 71
     0
 72
     0
 73
     0
 74
     0
 75
     0
 76
     0
 77
     1
 78
     8
170
     0
171
     3
172
     1
173
     0
174
     1
175
     0
176
   144
177
   144
178
     7
270
     2
271
     1
272
     1
273
     2
274
     3
340
18E
275
     0
280
     0
281
     0
282
     0
283
     2
284
     8
285
     0
286
     0
287
     5
288
     0
  0
DIMSTYLE
105
3E6
102
{ACAD_REACTORS
330
248E
330
2460
102
}
330
A
100
AcDbSymbolTableRecord
100
AcDbDimStyleTableRecord
  2
ADD$2
 70
     0
  3

  4

  5
NONE
  6

  7

 40
1.0
 41
1.399999999999999
 42
1.0
 43
7.0
 44
0.5
 45
0.0
 46
0.0
 47
0.0
 48
0.0
140
1.9
141
2.5
142
0.0
143
0.03937007874016
144
1.0
145
0.7
146
1.0
147
0.625
 71
     0
 72
     0
 73
     1
 74
     1
 75
     0
 76
     0
 77
     2
 78
     8
170
     0
171
     3
172
     1
173
     0
174
     1
175
     0
176
   144
177
   144
178
     7
270
     2
271
     1
272
     1
273
     2
274
     3
340
18E
275
     0
280
     0
281
     0
282
     0
283
     2
284
     8
285
     0
286
     0
287
     5
288
     0
  0
DIMSTYLE
105
3E7
102
{ACAD_REACTORS
330
2EAA
102
}
330
A
100
AcDbSymbolTableRecord
100
AcDbDimStyleTableRecord
  2
ADD$4
 70
     0
  3

  4

  5

  6

  7

 40
1.0
 41
2.5
 42
1.0
 43
7.0
 44
0.5
 45
0.0
 46
0.0
 47
0.0
 48
0.0
140
2.5
141
2.5
142
0.0
143
0.03937007874016
144
1.0
145
0.0
146
1.0
147
0.625
 71
     0
 72
     0
 73
     0
 74
     0
 75
     0
 76
     0
 77
     1
 78
     8
170
     0
171
     3
172
     1
173
     0
174
     1
175
     0
176
   144
177
   144
178
     7
270
     2
271
     1
272
     1
273
     2
274
     3
340
18E
275
     0
280
     0
281
     0
282
     0
283
     2
284
     8
285
     0
286
     0
287
     5
288
     0
  0
DIMSTYLE
105
3E8
330
A
100
AcDbSymbolTableRecord
100
AcDbDimStyleTableRecord
  2
ADD$3
 70
     0
  3

  4

  5

  6

  7

 40
1.0
 41
2.5
 42
1.0
 43
7.0
 44
0.5
 45
0.0
 46
0.0
 47
0.0
 48
0.0
140
2.5
141
0.0
142
0.0
143
0.03937007874016
144
1.0
145
0.0
146
1.0
147
0.625
 71
     0
 72
     0
 73
     0
 74
     0
 75
     0
 76
     0
 77
     1
 78
     8
170
     0
171
     3
172
     0
173
     0
174
     1
175
     0
176
   144
177
   144
178
     7
270
     2
271
     1
272
     1
273
     2
274
     3
340
18E
275
     0
280
     0
281
     0
282
     0
283
     2
284
     8
285
     0
286
     0
287
     4
288
     1
  0
DIMSTYLE
105
3E9
330
A
100
AcDbSymbolTableRecord
100
AcDbDimStyleTableRecord
  2
ADD$6
 70
     0
  3

  4

  5

  6

  7

 40
1.0
 41
2.5
 42
1.0
 43
7.0
 44
0.5
 45
0.0
 46
0.0
 47
0.0
 48
0.0
140
2.5
141
2.5
142
0.0
143
0.03937007874016
144
1.0
145
0.0
146
1.0
147
0.625
 71
     0
 72
     0
 73
     0
 74
     0
 75
     0
 76
     0
 77
     1
 78
     8
170
     0
171
     3
172
     1
173
     0
174
     1
175
     0
176
   144
177
   144
178
     7
270
     2
271
     1
272
     1
273
     2
274
     3
340
18E
275
     0
280
     0
281
     0
282
     0
283
     2
284
     8
285
     0
286
     0
287
     5
288
     0
  0
DIMSTYLE
105
3EA
102
{ACAD_REACTORS
330
2E1D
330
2E1E
330
2E22
330
2E25
330
2E2F
330
2E30
330
2E31
330
2E32
102
}
330
A
100
AcDbSymbolTableRecord
100
AcDbDimStyleTableRecord
  2
ADD$7
 70
     0
  3

  4

  5

  6

  7

 40
1.0
 41
1.1
 42
1.0
 43
7.0
 44
0.5
 45
0.0
 46
0.0
 47
0.0
 48
0.0
140
2.5
141
2.5
142
0.0
143
0.03937007874016
144
1.0
145
0.0
146
1.0
147
0.625
 71
     0
 72
     0
 73
     0
 74
     0
 75
     0
 76
     0
 77
     0
 78
     8
170
     0
171
     3
172
     1
173
     0
174
     1
175
     0
176
   144
177
   144
178
     7
270
     2
271
     1
272
     1
273
     2
274
     3
340
18E
275
     0
280
     0
281
     0
282
     0
283
     2
284
     8
285
     0
286
     0
287
     5
288
     0
  0
DIMSTYLE
105
518
330
A
100
AcDbSymbolTableRecord
100
AcDbDimStyleTableRecord
  2
STANDARD
 70
     0
  3

  4

  5

  6

  7

 40
1.0
 41
0.18
 42
0.0625
 43
0.38
 44
0.18
 45
0.0
 46
0.0
 47
0.0
 48
0.0
140
0.18
141
0.09
142
0.0
143
25.4
144
1.0
145
0.0
146
1.0
147
0.09
 71
     0
 72
     0
 73
     1
 74
     1
 75
     0
 76
     0
 77
     0
 78
     0
170
     0
171
     2
172
     0
173
     0
174
     0
175
     0
176
     0
177
     0
178
     0
270
     2
271
     4
272
     4
273
     2
274
     2
340
11
275
     0
280
     0
281
     0
282
     0
283
     1
284
     0
285
     0
286
     0
287
     3
288
     0
  0
DIMSTYLE
105
550
102
{ACAD_REACTORS
330
2ED6
330
2EB4
330
2E8E
330
2E81
330
2E74
330
2E67
330
2E5A
330
2E4D
330
2E33
102
}
330
A
100
AcDbSymbolTableRecord
100
AcDbDimStyleTableRecord
  2
ADD$0
 70
     0
  3

  4

  5

  6

  7

 40
1.0
 41
1.0
 42
1.0
 43
7.0
 44
0.5
 45
0.0
 46
0.0
 47
0.0
 48
0.0
140
1.9
141
2.5
142
0.0
143
0.03937007874016
144
1.0
145
0.7
146
1.0
147
0.625
 71
     0
 72
     0
 73
     0
 74
     0
 75
     0
 76
     0
 77
     1
 78
     8
170
     0
171
     3
172
     1
173
     0
174
     1
175
     0
176
   144
177
   144
178
     7
270
     2
271
     1
272
     1
273
     2
274
     3
340
18E
275
     0
280
     0
281
     0
282
     0
283
     2
284
     8
285
     0
286
     0
287
     5
288
     0
  0
DIMSTYLE
105
59B
330
A
100
AcDbSymbolTableRecord
100
AcDbDimStyleTableRecord
  2
ADD_M
 70
     0
  3

  4

  5

  6

  7

 40
1.0
 41
2.5
 42
1.0
 43
7.0
 44
0.5
 45
0.0
 46
0.0
 47
0.0
 48
0.0
140
2.5
141
2.5
142
0.0
143
0.03937007874016
144
1.0
145
0.7
146
1.0
147
0.625
 71
     0
 72
     0
 73
     0
 74
     0
 75
     0
 76
     0
 77
     1
 78
     8
170
     0
171
     3
172
     1
173
     0
174
     1
175
     0
176
   144
177
   144
178
     7
270
     2
271
     1
272
     1
273
     2
274
     3
340
18E
275
     0
280
     0
281
     0
282
     0
283
     2
284
     8
285
     0
286
     0
287
     5
288
     0
  0
ENDTAB
  0
TABLE
  2
BLOCK_RECORD
  5
1
330
0
100
AcDbSymbolTable
 70
    18
  0
BLOCK_RECORD
  5
1F
102
{ACAD_XDICTIONARY
360
19FC
102
}
330
1
100
AcDbSymbolTableRecord
100
AcDbBlockTableRecord
  2
*MODEL_SPACE
  0
BLOCK_RECORD
  5
1B
102
{ACAD_XDICTIONARY
360
19FE
102
}
330
1
100
AcDbSymbolTableRecord
100
AcDbBlockTableRecord
  2
*PAPER_SPACE
  0
BLOCK_RECORD
  5
192
330
1
100
AcDbSymbolTableRecord
100
AcDbBlockTableRecord
  2
_DOT
  0
BLOCK_RECORD
  5
5CE
330
1
100
AcDbSymbolTableRecord
100
AcDbBlockTableRecord
  2
A4
  0
BLOCK_RECORD
  5
636
330
1
100
AcDbSymbolTableRecord
100
AcDbBlockTableRecord
  2
_OPEN90
  0
BLOCK_RECORD
  5
63C
330
1
100
AcDbSymbolTableRecord
100
AcDbBlockTableRecord
  2
_OPEN30
  0
BLOCK_RECORD
  5
FDC
330
1
100
AcDbSymbolTableRecord
100
AcDbBlockTableRecord
  2
_DATUMFILLED
  0
BLOCK_RECORD
  5
2445
330
1
100
AcDbSymbolTableRecord
100
AcDbBlockTableRecord
  2
_NONE
  0
BLOCK_RECORD
  5
2461
330
1
100
AcDbSymbolTableRecord
100
AcDbBlockTableRecord
  2
*D6
  0
BLOCK_RECORD
  5
248F
330
1
100
AcDbSymbolTableRecord
100
AcDbBlockTableRecord
  2
*D7
  0
BLOCK_RECORD
  5
2E34
330
1
100
AcDbSymbolTableRecord
100
AcDbBlockTableRecord
  2
*D8
  0
BLOCK_RECORD
  5
2E4E
330
1
100
AcDbSymbolTableRecord
100
AcDbBlockTableRecord
  2
*D9
  0
BLOCK_RECORD
  5
2E5B
330
1
100
AcDbSymbolTableRecord
100
AcDbBlockTableRecord
  2
*D10
  0
BLOCK_RECORD
  5
2E68
330
1
100
AcDbSymbolTableRecord
100
AcDbBlockTableRecord
  2
*D11
  0
BLOCK_RECORD
  5
2E75
330
1
100
AcDbSymbolTableRecord
100
AcDbBlockTableRecord
  2
*D12
  0
BLOCK_RECORD
  5
2E82
330
1
100
AcDbSymbolTableRecord
100
AcDbBlockTableRecord
  2
*D13
  0
BLOCK_RECORD
  5
2E8F
330
1
100
AcDbSymbolTableRecord
100
AcDbBlockTableRecord
  2
*D14
  0
BLOCK_RECORD
  5
2EAB
330
1
100
AcDbSymbolTableRecord
100
AcDbBlockTableRecord
  2
*D15
  0
BLOCK_RECORD
  5
2EB5
330
1
100
AcDbSymbolTableRecord
100
AcDbBlockTableRecord
  2
*D16
  0
BLOCK_RECORD
  5
2ED7
330
1
100
AcDbSymbolTableRecord
100
AcDbBlockTableRecord
  2
*D17
  0
ENDTAB
  0
ENDSEC
  0
SECTION
  2
BLOCKS
  0
BLOCK
  5
20
330
1F
100
AcDbEntity
  8
0
100
AcDbBlockBegin
  2
*MODEL_SPACE
 70
     0
 10
0.0
 20
0.0
 30
0.0
  3
*MODEL_SPACE
  1

  0
ENDBLK
  5
21
330
1F
100
AcDbEntity
  8
0
100
AcDbBlockEnd
  0
BLOCK
  5
1C
330
1B
100
AcDbEntity
 67
     1
  8
0
100
AcDbBlockBegin
  2
*PAPER_SPACE
 70
     0
 10
0.0
 20
0.0
 30
0.0
  3
*PAPER_SPACE
  1

  0
ENDBLK
  5
1D
330
1B
100
AcDbEntity
 67
     1
  8
0
100
AcDbBlockEnd
  0
BLOCK
  5
195
330
192
100
AcDbEntity
  8
0
100
AcDbBlockBegin
  2
_DOT
 70
     0
 10
0.0
 20
0.0
 30
0.0
  3
_DOT
  1

  0
POLYLINE
  5
193
330
192
100
AcDbEntity
  8
0
 62
     0
100
AcDb2dPolyline
 66
     1
 10
0.0
 20
0.0
 30
0.0
 70
     1
 40
0.5
 41
0.5
  0
VERTEX
  5
3330
330
193
100
AcDbEntity
  8
0
 62
     0
100
AcDbVertex
100
AcDb2dVertex
 10
-0.25
 20
0.0
 30
0.0
 42
1.0
  0
VERTEX
  5
3331
330
193
100
AcDbEntity
  8
0
 62
     0
100
AcDbVertex
100
AcDb2dVertex
 10
0.25
 20
0.0
 30
0.0
 42
1.0
  0
SEQEND
  5
3332
330
193
100
AcDbEntity
  8
0
 62
     0
  0
LINE
  5
194
330
192
100
AcDbEntity
  8
0
 62
     0
100
AcDbLine
 10
-0.5
 20
0.0
 30
0.0
 11
-1.0
 21
0.0
 31
0.0
  0
ENDBLK
  5
196
330
192
100
AcDbEntity
  8
0
100
AcDbBlockEnd
  0
BLOCK
  5
5D1
330
5CE
100
AcDbEntity
  8
0
100
AcDbBlockBegin
  2
A4
 70
     0
 10
0.0
 20
0.0
 30
0.0
  3
A4
  1

  0
POLYLINE
  5
5CF
330
5CE
100
AcDbEntity
  8
HOJO
100
AcDb2dPolyline
 66
     1
 10
0.0
 20
0.0
 30
0.0
 70
     1
  0
VERTEX
  5
3333
330
5CF
100
AcDbEntity
  8
HOJO
100
AcDbVertex
100
AcDb2dVertex
 10
0.0
 20
0.0
 30
0.0
  0
VERTEX
  5
3334
330
5CF
100
AcDbEntity
  8
HOJO
100
AcDbVertex
100
AcDb2dVertex
 10
297.0
 20
0.0
 30
0.0
  0
VERTEX
  5
3335
330
5CF
100
AcDbEntity
  8
HOJO
100
AcDbVertex
100
AcDb2dVertex
 10
297.0
 20
210.0
 30
0.0
  0
VERTEX
  5
3336
330
5CF
100
AcDbEntity
  8
HOJO
100
AcDbVertex
100
AcDb2dVertex
 10
0.0
 20
210.0
 30
0.0
  0
SEQEND
  5
3337
330
5CF
100
AcDbEntity
  8
HOJO
  0
POLYLINE
  5
5D0
330
5CE
100
AcDbEntity
  8
HOJO
100
AcDb2dPolyline
 66
     1
 10
0.0
 20
0.0
 30
0.0
 70
     1
  0
VERTEX
  5
3338
330
5D0
100
AcDbEntity
  8
HOJO
100
AcDbVertex
100
AcDb2dVertex
 10
18.0
 20
13.0
 30
0.0
  0
VERTEX
  5
3339
330
5D0
100
AcDbEntity
  8
HOJO
100
AcDbVertex
100
AcDb2dVertex
 10
279.0
 20
13.0
 30
0.0
  0
VERTEX
  5
333A
330
5D0
100
AcDbEntity
  8
HOJO
100
AcDbVertex
100
AcDb2dVertex
 10
279.0
 20
197.0
 30
0.0
  0
VERTEX
  5
333B
330
5D0
100
AcDbEntity
  8
HOJO
100
AcDbVertex
100
AcDb2dVertex
 10
18.0
 20
197.0
 30
0.0
  0
SEQEND
  5
333C
330
5D0
100
AcDbEntity
  8
HOJO
  0
ENDBLK
  5
5D2
330
5CE
100
AcDbEntity
  8
0
100
AcDbBlockEnd
  0
BLOCK
  5
63A
330
636
100
AcDbEntity
  8
0
100
AcDbBlockBegin
  2
_OPEN90
 70
     0
 10
0.0
 20
0.0
 30
0.0
  3
_OPEN90
  1

  0
LINE
  5
637
330
636
100
AcDbEntity
  8
SUNPO
 62
     0
100
AcDbLine
 10
-0.5
 20
0.5
 30
0.0
 11
0.0
 21
0.0
 31
0.0
  0
LINE
  5
638
330
636
100
AcDbEntity
  8
SUNPO
 62
     0
100
AcDbLine
 10
0.0
 20
0.0
 30
0.0
 11
-0.5
 21
-0.5
 31
0.0
  0
LINE
  5
639
330
636
100
AcDbEntity
  8
SUNPO
 62
     0
100
AcDbLine
 10
0.0
 20
0.0
 30
0.0
 11
-1.0
 21
0.0
 31
0.0
  0
ENDBLK
  5
63B
330
636
100
AcDbEntity
  8
0
100
AcDbBlockEnd
  0
BLOCK
  5
640
330
63C
100
AcDbEntity
  8
0
100
AcDbBlockBegin
  2
_OPEN30
 70
     0
 10
0.0
 20
0.0
 30
0.0
  3
_OPEN30
  1

  0
LINE
  5
63D
330
63C
100
AcDbEntity
  8
SUNPO
 62
     0
100
AcDbLine
 10
-1.0
 20
0.26794919
 30
0.0
 11
0.0
 21
0.0
 31
0.0
  0
LINE
  5
63E
330
63C
100
AcDbEntity
  8
SUNPO
 62
     0
100
AcDbLine
 10
0.0
 20
0.0
 30
0.0
 11
-1.0
 21
-0.26794919
 31
0.0
  0
LINE
  5
63F
330
63C
100
AcDbEntity
  8
SUNPO
 62
     0
100
AcDbLine
 10
0.0
 20
0.0
 30
0.0
 11
-1.0
 21
0.0
 31
0.0
  0
ENDBLK
  5
641
330
63C
100
AcDbEntity
  8
0
100
AcDbBlockEnd
  0
BLOCK
  5
FDE
330
FDC
100
AcDbEntity
  8
0
100
AcDbBlockBegin
  2
_DATUMFILLED
 70
     0
 10
0.0
 20
0.0
 30
0.0
  3
_DATUMFILLED
  1

  0
SOLID
  5
FDD
330
FDC
100
AcDbEntity
  8
MOJI
 62
     0
100
AcDbTrace
 10
0.0
 20
0.5773502700000001
 30
0.0
 11
-1.0
 21
0.0
 31
0.0
 12
0.0
 22
-0.5773502700000001
 32
0.0
 13
0.0
 23
-0.5773502700000001
 33
0.0
  0
ENDBLK
  5
FDF
330
FDC
100
AcDbEntity
  8
0
100
AcDbBlockEnd
  0
BLOCK
  5
2446
330
2445
100
AcDbEntity
  8
0
100
AcDbBlockBegin
  2
_NONE
 70
     0
 10
0.0
 20
0.0
 30
0.0
  3
_NONE
  1

  0
ENDBLK
  5
2447
330
2445
100
AcDbEntity
  8
0
100
AcDbBlockEnd
  0
BLOCK
  5
2469
330
2461
100
AcDbEntity
  8
0
100
AcDbBlockBegin
  2
*D6
 70
     1
 10
0.0
 20
0.0
 30
0.0
  3
*D6
  1

  0
ARC
  5
2BC3
330
2461
100
AcDbEntity
  8
SUNPO
 62
   144
100
AcDbCircle
 10
2010.0
 20
2410.0
 30
0.0
 40
50.99019513592891
100
AcDbArc
 50
359.9999999999999
 51
44.99999999999995
  0
MTEXT
  5
2BC4
330
2461
100
AcDbEntity
  8
SUNPO
 62
     7
100
AcDbMText
 10
2129.999999999998
 20
2435.0
 30
0.0
 40
36.0
 41
0.0
 71
     5
 72
     1
  1
\A2;45°
  7
ADD
1001
ACAD
1000
MTEXTBEGIN
1070
    73
1070
     1
1070
    44
1040
1.0
1070
    74
1070
     0
1000
MTEXTEND
1000
MTEXTBEGIN
1070
    73
1070
     1
1070
    44
1040
1.0
1070
    74
1070
     0
1000
MTEXTEND
1000
MTEXTBEGIN
1070
    73
1070
     1
1070
    44
1040
1.0
1070
    74
1070
     0
1000
MTEXTEND
1000
MTEXTBEGIN
1070
    73
1070
     1
1070
    44
1040
1.0
1070
    74
1070
     0
1000
MTEXTEND
1000
MTEXTBEGIN
1070
    73
1070
     1
1070
    44
1040
1.0
1070
    74
1070
     0
1000
MTEXTEND
1000
MTEXTBEGIN
1070
    73
1070
     1
1070
    44
1040
1.0
1070
    74
1070
     0
1000
MTEXTEND
1000
MTEXTBEGIN
1070
    73
1070
     1
1070
    44
1040
1.0
1070
    74
1070
     0
1000
MTEXTEND
1000
MTEXTBEGIN
1070
    73
1070
     1
1070
    44
1040
1.0
1070
    74
1070
     0
1000
MTEXTEND
1000
MTEXTBEGIN
1070
    73
1070
     1
1070
    44
1040
1.0
1070
    74
1070
     0
1000
MTEXTEND
1000
MTEXTBEGIN
1070
    73
1070
     1
1070
    44
1040
1.0
1070
    74
1070
     0
1000
MTEXTEND
  0
POINT
  5
2BC5
330
2461
100
AcDbEntity
  8
DEFPOINTS
 62
     0
100
AcDbPoint
 10
2054.15880433164
 20
2435.495097567964
 30
0.0
  0
POINT
  5
2BC6
330
2461
100
AcDbEntity
  8
DEFPOINTS
 62
     0
100
AcDbPoint
 10
2055.0
 20
2455.0
 30
0.0
  0
POINT
  5
2BC7
330
2461
100
AcDbEntity
  8
DEFPOINTS
 62
     0
100
AcDbPoint
 10
2010.0
 20
2410.0
 30
0.0
  0
POINT
  5
2BC8
330
2461
100
AcDbEntity
  8
DEFPOINTS
 62
     0
100
AcDbPoint
 10
2100.0
 20
2410.0
 30
0.0
  0
POINT
  5
2BC9
330
2461
100
AcDbEntity
  8
DEFPOINTS
 62
     0
100
AcDbPoint
 10
2010.0
 20
2410.0
 30
0.0
  0
ENDBLK
  5
246A
330
2461
100
AcDbEntity
  8
0
100
AcDbBlockEnd
  0
BLOCK
  5
2497
330
248F
100
AcDbEntity
  8
0
100
AcDbBlockBegin
  2
*D7
 70
     1
 10
0.0
 20
0.0
 30
0.0
  3
*D7
  1

  0
ARC
  5
2BBC
330
248F
100
AcDbEntity
  8
SUNPO
 62
   144
100
AcDbCircle
 10
1980.0
 20
2130.0
 30
0.0
 40
31.6227766016851
100
AcDbArc
 50
0.0000000000000509
 51
45.00000000000052
  0
MTEXT
  5
2BBD
330
248F
100
AcDbEntity
  8
SUNPO
 62
     7
100
AcDbMText
 10
2079.999999999998
 20
2155.0
 30
0.0
 40
36.0
 41
0.0
 71
     5
 72
     1
  1
\A2;45°
  7
ADD
1001
ACAD
1000
MTEXTBEGIN
1070
    73
1070
     1
1070
    44
1040
1.0
1070
    74
1070
     0
1000
MTEXTEND
1000
MTEXTBEGIN
1070
    73
1070
     1
1070
    44
1040
1.0
1070
    74
1070
     0
1000
MTEXTEND
1000
MTEXTBEGIN
1070
    73
1070
     1
1070
    44
1040
1.0
1070
    74
1070
     0
1000
MTEXTEND
1000
MTEXTBEGIN
1070
    73
1070
     1
1070
    44
1040
1.0
1070
    74
1070
     0
1000
MTEXTEND
1000
MTEXTBEGIN
1070
    73
1070
     1
1070
    44
1040
1.0
1070
    74
1070
     0
1000
MTEXTEND
1000
MTEXTBEGIN
1070
    73
1070
     1
1070
    44
1040
1.0
1070
    74
1070
     0
1000
MTEXTEND
1000
MTEXTBEGIN
1070
    73
1070
     1
1070
    44
1040
1.0
1070
    74
1070
     0
1000
MTEXTEND
1000
MTEXTBEGIN
1070
    73
1070
     1
1070
    44
1040
1.0
1070
    74
1070
     0
1000
MTEXTEND
1000
MTEXTBEGIN
1070
    73
1070
     1
1070
    44
1040
1.0
1070
    74
1070
     0
1000
MTEXTEND
1000
MTEXTBEGIN
1070
    73
1070
     1
1070
    44
1040
1.0
1070
    74
1070
     0
1000
MTEXTEND
  0
POINT
  5
2BBE
330
248F
100
AcDbEntity
  8
DEFPOINTS
 62
     0
100
AcDbPoint
 10
2007.386127875259
 20
2145.811388300842
 30
0.0
  0
POINT
  5
2BBF
330
248F
100
AcDbEntity
  8
DEFPOINTS
 62
     0
100
AcDbPoint
 10
2010.0
 20
2160.0
 30
0.0
  0
POINT
  5
2BC0
330
248F
100
AcDbEntity
  8
DEFPOINTS
 62
     0
100
AcDbPoint
 10
1980.0
 20
2130.0
 30
0.0
  0
POINT
  5
2BC1
330
248F
100
AcDbEntity
  8
DEFPOINTS
 62
     0
100
AcDbPoint
 10
2070.0
 20
2130.0
 30
0.0
  0
POINT
  5
2BC2
330
248F
100
AcDbEntity
  8
DEFPOINTS
 62
     0
100
AcDbPoint
 10
1980.0
 20
2130.0
 30
0.0
  0
ENDBLK
  5
2498
330
248F
100
AcDbEntity
  8
0
100
AcDbBlockEnd
  0
BLOCK
  5
2E3E
330
2E34
100
AcDbEntity
  8
0
100
AcDbBlockBegin
  2
*D8
 70
     1
 10
0.0
 20
0.0
 30
0.0
  3
*D8
  1

  0
LINE
  5
2E35
330
2E34
100
AcDbEntity
  8
SUNPO
 62
   144
100
AcDbLine
 10
1649.999999999999
 20
2520.0
 30
0.0
 11
1649.999999999999
 21
2710.0
 31
0.0
  0
LINE
  5
2E36
330
2E34
100
AcDbEntity
  8
SUNPO
 62
   144
100
AcDbLine
 10
1949.999999999999
 20
2519.999999999975
 30
0.0
 11
1949.999999999999
 21
2710.0
 31
0.0
  0
LINE
  5
2E37
330
2E34
100
AcDbEntity
  8
SUNPO
 62
   144
100
AcDbLine
 10
1671.999999999999
 20
2700.0
 30
0.0
 11
1927.999999999999
 21
2700.0
 31
0.0
  0
SOLID
  5
2E38
330
2E34
100
AcDbEntity
  8
SUNPO
 62
   144
100
AcDbTrace
 10
1671.999999999999
 20
2703.666666666666
 30
0.0
 11
1671.999999999999
 21
2696.333333333333
 31
0.0
 12
1649.999999999999
 22
2700.0
 32
0.0
 13
1649.999999999999
 23
2700.0
 33
0.0
  0
SOLID
  5
2E39
330
2E34
100
AcDbEntity
  8
SUNPO
 62
   144
100
AcDbTrace
 10
1927.999999999999
 20
2703.666666666666
 30
0.0
 11
1927.999999999999
 21
2696.333333333333
 31
0.0
 12
1949.999999999999
 22
2700.0
 32
0.0
 13
1949.999999999999
 23
2700.0
 33
0.0
  0
MTEXT
  5
2E3A
330
2E34
100
AcDbEntity
  8
SUNPO
 62
     7
100
AcDbMText
 10
1799.999999999999
 20
2730.5
 30
0.0
 40
36.0
 41
0.0
 71
     5
 72
     1
  1
\A2;300
  7
ADD
1001
ACAD
1000
MTEXTBEGIN
1070
    73
1070
     1
1070
    44
1040
1.0
1070
    74
1070
     0
1000
MTEXTEND
1000
MTEXTBEGIN
1070
    73
1070
     1
1070
    44
1040
1.0
1070
    74
1070
     0
1000
MTEXTEND
1000
MTEXTBEGIN
1070
    73
1070
     1
1070
    44
1040
1.0
1070
    74
1070
     0
1000
MTEXTEND
1000
MTEXTBEGIN
1070
    73
1070
     1
1070
    44
1040
1.0
1070
    74
1070
     0
1000
MTEXTEND
1000
MTEXTBEGIN
1070
    73
1070
     1
1070
    44
1040
1.0
1070
    74
1070
     0
1000
MTEXTEND
1000
MTEXTBEGIN
1070
    73
1070
     1
1070
    44
1040
1.0
1070
    74
1070
     0
1000
MTEXTEND
1000
MTEXTBEGIN
1070
    73
1070
     1
1070
    44
1040
1.0
1070
    74
1070
     0
1000
MTEXTEND
1000
MTEXTBEGIN
1070
    73
1070
     1
1070
    44
1040
1.0
1070
    74
1070
     0
1000
MTEXTEND
  0
POINT
  5
2E3B
330
2E34
100
AcDbEntity
  8
DEFPOINTS
 62
     0
100
AcDbPoint
 10
1649.999999999999
 20
2500.0
 30
0.0
  0
POINT
  5
2E3C
330
2E34
100
AcDbEntity
  8
DEFPOINTS
 62
     0
100
AcDbPoint
 10
1949.999999999999
 20
2499.999999999975
 30
0.0
  0
POINT
  5
2E3D
330
2E34
100
AcDbEntity
  8
DEFPOINTS
 62
     0
100
AcDbPoint
 10
1949.999999999999
 20
2700.0
 30
0.0
  0
ENDBLK
  5
2E3F
330
2E34
100
AcDbEntity
  8
0
100
AcDbBlockEnd
  0
BLOCK
  5
2E58
330
2E4E
100
AcDbEntity
  8
0
100
AcDbBlockBegin
  2
*D9
 70
     1
 10
0.0
 20
0.0
 30
0.0
  3
*D9
  1

  0
LINE
  5
2E4F
330
2E4E
100
AcDbEntity
  8
SUNPO
 62
   144
100
AcDbLine
 10
1544.999999999999
 20
2620.0
 30
0.0
 11
1544.999999999999
 21
2860.0
 31
0.0
  0
LINE
  5
2E50
330
2E4E
100
AcDbEntity
  8
SUNPO
 62
   144
100
AcDbLine
 10
2055.0
 20
2620.0
 30
0.0
 11
2055.0
 21
2860.0
 31
0.0
  0
LINE
  5
2E51
330
2E4E
100
AcDbEntity
  8
SUNPO
 62
   144
100
AcDbLine
 10
1566.999999999999
 20
2850.0
 30
0.0
 11
2033.0
 21
2850.0
 31
0.0
  0
SOLID
  5
2E52
330
2E4E
100
AcDbEntity
  8
SUNPO
 62
   144
100
AcDbTrace
 10
1566.999999999999
 20
2853.666666666666
 30
0.0
 11
1566.999999999999
 21
2846.333333333333
 31
0.0
 12
1544.999999999999
 22
2850.0
 32
0.0
 13
1544.999999999999
 23
2850.0
 33
0.0
  0
SOLID
  5
2E53
330
2E4E
100
AcDbEntity
  8
SUNPO
 62
   144
100
AcDbTrace
 10
2033.0
 20
2853.666666666666
 30
0.0
 11
2033.0
 21
2846.333333333333
 31
0.0
 12
2055.0
 22
2850.0
 32
0.0
 13
2055.0
 23
2850.0
 33
0.0
  0
MTEXT
  5
2E54
330
2E4E
100
AcDbEntity
  8
SUNPO
 62
     7
100
AcDbMText
 10
1800.0
 20
2880.499999999999
 30
0.0
 40
36.0
 41
0.0
 71
     5
 72
     1
  1
\A2;510
  7
ADD
1001
ACAD
1000
MTEXTBEGIN
1070
    73
1070
     1
1070
    44
1040
1.0
1070
    74
1070
     0
1000
MTEXTEND
1000
MTEXTBEGIN
1070
    73
1070
     1
1070
    44
1040
1.0
1070
    74
1070
     0
1000
MTEXTEND
1000
MTEXTBEGIN
1070
    73
1070
     1
1070
    44
1040
1.0
1070
    74
1070
     0
1000
MTEXTEND
1000
MTEXTBEGIN
1070
    73
1070
     1
1070
    44
1040
1.0
1070
    74
1070
     0
1000
MTEXTEND
1000
MTEXTBEGIN
1070
    73
1070
     1
1070
    44
1040
1.0
1070
    74
1070
     0
1000
MTEXTEND
1000
MTEXTBEGIN
1070
    73
1070
     1
1070
    44
1040
1.0
1070
    74
1070
     0
1000
MTEXTEND
1000
MTEXTBEGIN
1070
    73
1070
     1
1070
    44
1040
1.0
1070
    74
1070
     0
1000
MTEXTEND
1000
MTEXTBEGIN
1070
    73
1070
     1
1070
    44
1040
1.0
1070
    74
1070
     0
1000
MTEXTEND
  0
POINT
  5
2E55
330
2E4E
100
AcDbEntity
  8
DEFPOINTS
 62
     0
100
AcDbPoint
 10
1544.999999999999
 20
2600.0
 30
0.0
  0
POINT
  5
2E56
330
2E4E
100
AcDbEntity
  8
DEFPOINTS
 62
     0
100
AcDbPoint
 10
2055.0
 20
2600.0
 30
0.0
  0
POINT
  5
2E57
330
2E4E
100
AcDbEntity
  8
DEFPOINTS
 62
     0
100
AcDbPoint
 10
2055.0
 20
2850.0
 30
0.0
  0
ENDBLK
  5
2E59
330
2E4E
100
AcDbEntity
  8
0
100
AcDbBlockEnd
  0
BLOCK
  5
2E65
330
2E5B
100
AcDbEntity
  8
0
100
AcDbBlockBegin
  2
*D10
 70
     1
 10
0.0
 20
0.0
 30
0.0
  3
*D10
  1

  0
LINE
  5
2E5C
330
2E5B
100
AcDbEntity
  8
SUNPO
 62
   144
100
AcDbLine
 10
2650.0
 20
2620.0
 30
0.0
 11
2650.0
 21
2810.0
 31
0.0
  0
LINE
  5
2E5D
330
2E5B
100
AcDbEntity
  8
SUNPO
 62
   144
100
AcDbLine
 10
4650.0
 20
2620.0
 30
0.0
 11
4650.0
 21
2810.0
 31
0.0
  0
LINE
  5
2E5E
330
2E5B
100
AcDbEntity
  8
SUNPO
 62
   144
100
AcDbLine
 10
2672.0
 20
2800.0
 30
0.0
 11
4628.0
 21
2800.0
 31
0.0
  0
SOLID
  5
2E5F
330
2E5B
100
AcDbEntity
  8
SUNPO
 62
   144
100
AcDbTrace
 10
2672.0
 20
2803.666666666666
 30
0.0
 11
2672.0
 21
2796.333333333333
 31
0.0
 12
2650.0
 22
2800.0
 32
0.0
 13
2650.0
 23
2800.0
 33
0.0
  0
SOLID
  5
2E60
330
2E5B
100
AcDbEntity
  8
SUNPO
 62
   144
100
AcDbTrace
 10
4628.0
 20
2803.666666666666
 30
0.0
 11
4628.0
 21
2796.333333333333
 31
0.0
 12
4650.0
 22
2800.0
 32
0.0
 13
4650.0
 23
2800.0
 33
0.0
  0
MTEXT
  5
2E61
330
2E5B
100
AcDbEntity
  8
SUNPO
 62
     7
100
AcDbMText
 10
3650.0
 20
2830.5
 30
0.0
 40
36.0
 41
0.0
 71
     5
 72
     1
  1
\A2;2000
  7
ADD
1001
ACAD
1000
MTEXTBEGIN
1070
    73
1070
     1
1070
    44
1040
1.0
1070
    74
1070
     0
1000
MTEXTEND
1000
MTEXTBEGIN
1070
    73
1070
     1
1070
    44
1040
1.0
1070
    74
1070
     0
1000
MTEXTEND
1000
MTEXTBEGIN
1070
    73
1070
     1
1070
    44
1040
1.0
1070
    74
1070
     0
1000
MTEXTEND
1000
MTEXTBEGIN
1070
    73
1070
     1
1070
    44
1040
1.0
1070
    74
1070
     0
1000
MTEXTEND
1000
MTEXTBEGIN
1070
    73
1070
     1
1070
    44
1040
1.0
1070
    74
1070
     0
1000
MTEXTEND
1000
MTEXTBEGIN
1070
    73
1070
     1
1070
    44
1040
1.0
1070
    74
1070
     0
1000
MTEXTEND
1000
MTEXTBEGIN
1070
    73
1070
     1
1070
    44
1040
1.0
1070
    74
1070
     0
1000
MTEXTEND
1000
MTEXTBEGIN
1070
    73
1070
     1
1070
    44
1040
1.0
1070
    74
1070
     0
1000
MTEXTEND
  0
POINT
  5
2E62
330
2E5B
100
AcDbEntity
  8
DEFPOINTS
 62
     0
100
AcDbPoint
 10
2650.0
 20
2600.0
 30
0.0
  0
POINT
  5
2E63
330
2E5B
100
AcDbEntity
  8
DEFPOINTS
 62
     0
100
AcDbPoint
 10
4650.0
 20
2600.0
 30
0.0
  0
POINT
  5
2E64
330
2E5B
100
AcDbEntity
  8
DEFPOINTS
 62
     0
100
AcDbPoint
 10
4650.0
 20
2800.0
 30
0.0
  0
ENDBLK
  5
2E66
330
2E5B
100
AcDbEntity
  8
0
100
AcDbBlockEnd
  0
BLOCK
  5
2E72
330
2E68
100
AcDbEntity
  8
0
100
AcDbBlockBegin
  2
*D11
 70
     1
 10
0.0
 20
0.0
 30
0.0
  3
*D11
  1

  0
LINE
  5
2E69
330
2E68
100
AcDbEntity
  8
SUNPO
 62
   144
100
AcDbLine
 10
1524.999999999999
 20
2600.0
 30
0.0
 11
1440.0
 21
2600.0
 31
0.0
  0
LINE
  5
2E6A
330
2E68
100
AcDbEntity
  8
SUNPO
 62
   144
100
AcDbLine
 10
1525.0
 20
2455.0
 30
0.0
 11
1440.0
 21
2455.0
 31
0.0
  0
LINE
  5
2E6B
330
2E68
100
AcDbEntity
  8
SUNPO
 62
   144
100
AcDbLine
 10
1450.0
 20
2578.0
 30
0.0
 11
1450.0
 21
2477.0
 31
0.0
  0
SOLID
  5
2E6C
330
2E68
100
AcDbEntity
  8
SUNPO
 62
   144
100
AcDbTrace
 10
1446.333333333333
 20
2578.0
 30
0.0
 11
1453.666666666667
 21
2578.0
 31
0.0
 12
1450.0
 22
2600.0
 32
0.0
 13
1450.0
 23
2600.0
 33
0.0
  0
SOLID
  5
2E6D
330
2E68
100
AcDbEntity
  8
SUNPO
 62
   144
100
AcDbTrace
 10
1446.333333333333
 20
2477.0
 30
0.0
 11
1453.666666666666
 21
2477.0
 31
0.0
 12
1450.0
 22
2455.0
 32
0.0
 13
1450.0
 23
2455.0
 33
0.0
  0
MTEXT
  5
2E6E
330
2E68
100
AcDbEntity
  8
SUNPO
 62
     7
100
AcDbMText
 10
1419.5
 20
2527.5
 30
0.0
 40
36.0
 41
0.0
 71
     5
 72
     1
  1
\A2;145
  7
ADD
 11
0.0000000000000001
 21
1.0
 31
0.0
1001
ACAD
1000
MTEXTBEGIN
1070
    73
1070
     1
1070
    44
1040
1.0
1070
    74
1070
     0
1000
MTEXTEND
1000
MTEXTBEGIN
1070
    73
1070
     1
1070
    44
1040
1.0
1070
    74
1070
     0
1000
MTEXTEND
1000
MTEXTBEGIN
1070
    73
1070
     1
1070
    44
1040
1.0
1070
    74
1070
     0
1000
MTEXTEND
1000
MTEXTBEGIN
1070
    73
1070
     1
1070
    44
1040
1.0
1070
    74
1070
     0
1000
MTEXTEND
1000
MTEXTBEGIN
1070
    73
1070
     1
1070
    44
1040
1.0
1070
    74
1070
     0
1000
MTEXTEND
1000
MTEXTBEGIN
1070
    73
1070
     1
1070
    44
1040
1.0
1070
    74
1070
     0
1000
MTEXTEND
1000
MTEXTBEGIN
1070
    73
1070
     1
1070
    44
1040
1.0
1070
    74
1070
     0
1000
MTEXTEND
1000
MTEXTBEGIN
1070
    73
1070
     1
1070
    44
1040
1.0
1070
    74
1070
     0
1000
MTEXTEND
  0
POINT
  5
2E6F
330
2E68
100
AcDbEntity
  8
DEFPOINTS
 62
     0
100
AcDbPoint
 10
1544.999999999999
 20
2600.0
 30
0.0
  0
POINT
  5
2E70
330
2E68
100
AcDbEntity
  8
DEFPOINTS
 62
     0
100
AcDbPoint
 10
1545.0
 20
2455.0
 30
0.0
  0
POINT
  5
2E71
330
2E68
100
AcDbEntity
  8
DEFPOINTS
 62
     0
100
AcDbPoint
 10
1450.0
 20
2455.0
 30
0.0
  0
ENDBLK
  5
2E73
330
2E68
100
AcDbEntity
  8
0
100
AcDbBlockEnd
  0
BLOCK
  5
2E7F
330
2E75
100
AcDbEntity
  8
0
100
AcDbBlockBegin
  2
*D12
 70
     1
 10
0.0
 20
0.0
 30
0.0
  3
*D12
  1

  0
LINE
  5
2E76
330
2E75
100
AcDbEntity
  8
SUNPO
 62
   144
100
AcDbLine
 10
1524.999999999999
 20
2600.0
 30
0.0
 11
1340.0
 21
2600.0
 31
0.0
  0
LINE
  5
2E77
330
2E75
100
AcDbEntity
  8
SUNPO
 62
   144
100
AcDbLine
 10
1524.999999999999
 20
2130.0
 30
0.0
 11
1340.0
 21
2130.0
 31
0.0
  0
LINE
  5
2E78
330
2E75
100
AcDbEntity
  8
SUNPO
 62
   144
100
AcDbLine
 10
1350.0
 20
2578.0
 30
0.0
 11
1350.0
 21
2152.0
 31
0.0
  0
SOLID
  5
2E79
330
2E75
100
AcDbEntity
  8
SUNPO
 62
   144
100
AcDbTrace
 10
1346.333333333333
 20
2578.0
 30
0.0
 11
1353.666666666667
 21
2578.0
 31
0.0
 12
1350.0
 22
2600.0
 32
0.0
 13
1350.0
 23
2600.0
 33
0.0
  0
SOLID
  5
2E7A
330
2E75
100
AcDbEntity
  8
SUNPO
 62
   144
100
AcDbTrace
 10
1346.333333333333
 20
2152.0
 30
0.0
 11
1353.666666666666
 21
2152.0
 31
0.0
 12
1350.0
 22
2130.0
 32
0.0
 13
1350.0
 23
2130.0
 33
0.0
  0
MTEXT
  5
2E7B
330
2E75
100
AcDbEntity
  8
SUNPO
 62
     7
100
AcDbMText
 10
1319.499999999999
 20
2365.0
 30
0.0
 40
36.0
 41
0.0
 71
     5
 72
     1
  1
\A2;470
  7
ADD
 11
0.0000000000000001
 21
1.0
 31
0.0
1001
ACAD
1000
MTEXTBEGIN
1070
    73
1070
     1
1070
    44
1040
1.0
1070
    74
1070
     0
1000
MTEXTEND
1000
MTEXTBEGIN
1070
    73
1070
     1
1070
    44
1040
1.0
1070
    74
1070
     0
1000
MTEXTEND
1000
MTEXTBEGIN
1070
    73
1070
     1
1070
    44
1040
1.0
1070
    74
1070
     0
1000
MTEXTEND
1000
MTEXTBEGIN
1070
    73
1070
     1
1070
    44
1040
1.0
1070
    74
1070
     0
1000
MTEXTEND
1000
MTEXTBEGIN
1070
    73
1070
     1
1070
    44
1040
1.0
1070
    74
1070
     0
1000
MTEXTEND
1000
MTEXTBEGIN
1070
    73
1070
     1
1070
    44
1040
1.0
1070
    74
1070
     0
1000
MTEXTEND
1000
MTEXTBEGIN
1070
    73
1070
     1
1070
    44
1040
1.0
1070
    74
1070
     0
1000
MTEXTEND
1000
MTEXTBEGIN
1070
    73
1070
     1
1070
    44
1040
1.0
1070
    74
1070
     0
1000
MTEXTEND
  0
POINT
  5
2E7C
330
2E75
100
AcDbEntity
  8
DEFPOINTS
 62
     0
100
AcDbPoint
 10
1544.999999999999
 20
2600.0
 30
0.0
  0
POINT
  5
2E7D
330
2E75
100
AcDbEntity
  8
DEFPOINTS
 62
     0
100
AcDbPoint
 10
1544.999999999999
 20
2130.0
 30
0.0
  0
POINT
  5
2E7E
330
2E75
100
AcDbEntity
  8
DEFPOINTS
 62
     0
100
AcDbPoint
 10
1350.0
 20
2130.0
 30
0.0
  0
ENDBLK
  5
2E80
330
2E75
100
AcDbEntity
  8
0
100
AcDbBlockEnd
  0
BLOCK
  5
2E8C
330
2E82
100
AcDbEntity
  8
0
100
AcDbBlockBegin
  2
*D13
 70
     1
 10
0.0
 20
0.0
 30
0.0
  3
*D13
  1

  0
LINE
  5
2E83
330
2E82
100
AcDbEntity
  8
SUNPO
 62
   144
100
AcDbLine
 10
1620.0
 20
2110.0
 30
0.0
 11
1620.0
 21
1990.0
 31
0.0
  0
LINE
  5
2E84
330
2E82
100
AcDbEntity
  8
SUNPO
 62
   144
100
AcDbLine
 10
1980.0
 20
2110.0
 30
0.0
 11
1980.0
 21
1990.0
 31
0.0
  0
LINE
  5
2E85
330
2E82
100
AcDbEntity
  8
SUNPO
 62
   144
100
AcDbLine
 10
1641.999999999999
 20
2000.0
 30
0.0
 11
1958.0
 21
2000.0
 31
0.0
  0
SOLID
  5
2E86
330
2E82
100
AcDbEntity
  8
SUNPO
 62
   144
100
AcDbTrace
 10
1641.999999999999
 20
2003.666666666667
 30
0.0
 11
1641.999999999999
 21
1996.333333333333
 31
0.0
 12
1620.0
 22
2000.0
 32
0.0
 13
1620.0
 23
2000.0
 33
0.0
  0
SOLID
  5
2E87
330
2E82
100
AcDbEntity
  8
SUNPO
 62
   144
100
AcDbTrace
 10
1958.0
 20
2003.666666666667
 30
0.0
 11
1958.0
 21
1996.333333333333
 31
0.0
 12
1980.0
 22
2000.0
 32
0.0
 13
1980.0
 23
2000.0
 33
0.0
  0
MTEXT
  5
2E88
330
2E82
100
AcDbEntity
  8
SUNPO
 62
     7
100
AcDbMText
 10
1800.0
 20
2030.499999999999
 30
0.0
 40
36.0
 41
0.0
 71
     5
 72
     1
  1
\A2;360
  7
ADD
1001
ACAD
1000
MTEXTBEGIN
1070
    73
1070
     1
1070
    44
1040
1.0
1070
    74
1070
     0
1000
MTEXTEND
1000
MTEXTBEGIN
1070
    73
1070
     1
1070
    44
1040
1.0
1070
    74
1070
     0
1000
MTEXTEND
1000
MTEXTBEGIN
1070
    73
1070
     1
1070
    44
1040
1.0
1070
    74
1070
     0
1000
MTEXTEND
1000
MTEXTBEGIN
1070
    73
1070
     1
1070
    44
1040
1.0
1070
    74
1070
     0
1000
MTEXTEND
1000
MTEXTBEGIN
1070
    73
1070
     1
1070
    44
1040
1.0
1070
    74
1070
     0
1000
MTEXTEND
1000
MTEXTBEGIN
1070
    73
1070
     1
1070
    44
1040
1.0
1070
    74
1070
     0
1000
MTEXTEND
1000
MTEXTBEGIN
1070
    73
1070
     1
1070
    44
1040
1.0
1070
    74
1070
     0
1000
MTEXTEND
1000
MTEXTBEGIN
1070
    73
1070
     1
1070
    44
1040
1.0
1070
    74
1070
     0
1000
MTEXTEND
  0
POINT
  5
2E89
330
2E82
100
AcDbEntity
  8
DEFPOINTS
 62
     0
100
AcDbPoint
 10
1620.0
 20
2130.0
 30
0.0
  0
POINT
  5
2E8A
330
2E82
100
AcDbEntity
  8
DEFPOINTS
 62
     0
100
AcDbPoint
 10
1980.0
 20
2130.0
 30
0.0
  0
POINT
  5
2E8B
330
2E82
100
AcDbEntity
  8
DEFPOINTS
 62
     0
100
AcDbPoint
 10
1980.0
 20
2000.0
 30
0.0
  0
ENDBLK
  5
2E8D
330
2E82
100
AcDbEntity
  8
0
100
AcDbBlockEnd
  0
BLOCK
  5
2E9B
330
2E8F
100
AcDbEntity
  8
0
100
AcDbBlockBegin
  2
*D14
 70
     1
 10
0.0
 20
0.0
 30
0.0
  3
*D14
  1

  0
LINE
  5
2E9D
330
2E8F
100
AcDbEntity
  8
SUNPO
 62
   144
100
AcDbLine
 10
1620.0
 20
2110.0
 30
0.0
 11
1620.0
 21
1990.0
 31
0.0
  0
LINE
  5
2E9E
330
2E8F
100
AcDbEntity
  8
SUNPO
 62
   144
100
AcDbLine
 10
1589.999999999999
 20
2110.0
 30
0.0
 11
1589.999999999999
 21
1990.0
 31
0.0
  0
LINE
  5
2E9F
330
2E8F
100
AcDbEntity
  8
SUNPO
 62
   144
100
AcDbLine
 10
1641.999999999999
 20
2000.0
 30
0.0
 11
1663.999999999999
 21
2000.0
 31
0.0
  0
LINE
  5
2EA0
330
2E8F
100
AcDbEntity
  8
SUNPO
 62
   144
100
AcDbLine
 10
1567.999999999999
 20
2000.0
 30
0.0
 11
1545.999999999999
 21
2000.0
 31
0.0
  0
MTEXT
  5
2EA1
330
2E8F
100
AcDbEntity
  8
SUNPO
 62
     7
100
AcDbMText
 10
1540.0
 20
2030.0
 30
0.0
 40
36.0
 41
0.0
 71
     5
 72
     1
  1
\A2;30
  7
ADD
1001
ACAD
1000
MTEXTBEGIN
1070
    73
1070
     1
1070
    44
1040
1.0
1070
    74
1070
     0
1000
MTEXTEND
1000
MTEXTBEGIN
1070
    73
1070
     1
1070
    44
1040
1.0
1070
    74
1070
     0
1000
MTEXTEND
1000
MTEXTBEGIN
1070
    73
1070
     1
1070
    44
1040
1.0
1070
    74
1070
     0
1000
MTEXTEND
1000
MTEXTBEGIN
1070
    73
1070
     1
1070
    44
1040
1.0
1070
    74
1070
     0
1000
MTEXTEND
1000
MTEXTBEGIN
1070
    73
1070
     1
1070
    44
1040
1.0
1070
    74
1070
     0
1000
MTEXTEND
1000
MTEXTBEGIN
1070
    73
1070
     1
1070
    44
1040
1.0
1070
    74
1070
     0
1000
MTEXTEND
1000
MTEXTBEGIN
1070
    73
1070
     1
1070
    44
1040
1.0
1070
    74
1070
     0
1000
MTEXTEND
1000
MTEXTBEGIN
1070
    73
1070
     1
1070
    44
1040
1.0
1070
    74
1070
     0
1000
MTEXTEND
  0
LINE
  5
2EA2
330
2E8F
100
AcDbEntity
  8
SUNPO
 62
   144
100
AcDbLine
 10
1620.0
 20
2000.0
 30
0.0
 11
1589.999999999999
 21
2000.0
 31
0.0
  0
SOLID
  5
2EA3
330
2E8F
100
AcDbEntity
  8
SUNPO
 62
   144
100
AcDbTrace
 10
1641.999999999999
 20
2003.666666666667
 30
0.0
 11
1641.999999999999
 21
1996.333333333333
 31
0.0
 12
1620.0
 22
2000.0
 32
0.0
 13
1620.0
 23
2000.0
 33
0.0
  0
SOLID
  5
2EA4
330
2E8F
100
AcDbEntity
  8
SUNPO
 62
   144
100
AcDbTrace
 10
1567.999999999999
 20
2003.666666666667
 30
0.0
 11
1567.999999999999
 21
1996.333333333333
 31
0.0
 12
1589.999999999999
 22
2000.0
 32
0.0
 13
1589.999999999999
 23
2000.0
 33
0.0
  0
POINT
  5
2EA5
330
2E8F
100
AcDbEntity
  8
DEFPOINTS
 62
     0
100
AcDbPoint
 10
1620.0
 20
2130.0
 30
0.0
  0
POINT
  5
2EA6
330
2E8F
100
AcDbEntity
  8
DEFPOINTS
 62
     0
100
AcDbPoint
 10
1589.999999999999
 20
2130.0
 30
0.0
  0
POINT
  5
2EA7
330
2E8F
100
AcDbEntity
  8
DEFPOINTS
 62
     0
100
AcDbPoint
 10
1589.999999999999
 20
2000.0
 30
0.0
  0
ENDBLK
  5
2E9C
330
2E8F
100
AcDbEntity
  8
0
100
AcDbBlockEnd
  0
BLOCK
  5
2EB2
330
2EAB
100
AcDbEntity
  8
0
100
AcDbBlockBegin
  2
*D15
 70
     1
 10
0.0
 20
0.0
 30
0.0
  3
*D15
  1

  0
LINE
  5
2EAC
330
2EAB
100
AcDbEntity
  8
SUNPO
 62
   144
100
AcDbLine
 10
1561.278899830839
 20
2097.916816244571
 30
0.0
 11
1658.307470314587
 21
2198.244480342514
 31
0.0
  0
MTEXT
  5
2EAD
330
2EAB
100
AcDbEntity
  8
SUNPO
 62
     7
100
AcDbMText
 10
1580.221889052078
 20
2161.37683013872
 30
0.0
 40
36.0
 41
0.0
 71
     5
 72
     1
  1
\A2;R50
  7
ADD
 11
0.6951893483994211
 21
0.7188266619095236
 31
0.0
1001
ACAD
1000
MTEXTBEGIN
1070
    73
1070
     1
1070
    44
1040
1.0
1070
    74
1070
     0
1000
MTEXTEND
1000
MTEXTBEGIN
1070
    73
1070
     1
1070
    44
1040
1.0
1070
    74
1070
     0
1000
MTEXTEND
1000
MTEXTBEGIN
1070
    73
1070
     1
1070
    44
1040
1.0
1070
    74
1070
     0
1000
MTEXTEND
1000
MTEXTBEGIN
1070
    73
1070
     1
1070
    44
1040
1.0
1070
    74
1070
     0
1000
MTEXTEND
1000
MTEXTBEGIN
1070
    73
1070
     1
1070
    44
1040
1.0
1070
    74
1070
     0
1000
MTEXTEND
1000
MTEXTBEGIN
1070
    73
1070
     1
1070
    44
1040
1.0
1070
    74
1070
     0
1000
MTEXTEND
1000
MTEXTBEGIN
1070
    73
1070
     1
1070
    44
1040
1.0
1070
    74
1070
     0
1000
MTEXTEND
1000
MTEXTBEGIN
1070
    73
1070
     1
1070
    44
1040
1.0
1070
    74
1070
     0
1000
MTEXTEND
  0
LINE
  5
2EAE
330
2EAB
100
AcDbEntity
  8
SUNPO
 62
   144
100
AcDbLine
 10
1708.361103399345
 20
2250.0
 30
0.0
 11
1673.601635979374
 21
2214.058666904523
 31
0.0
  0
SOLID
  5
2EAF
330
2EAB
100
AcDbEntity
  8
SUNPO
 62
   144
100
AcDbTrace
 10
1655.671772554252
 20
2200.793507953311
 30
0.0
 11
1660.943168074921
 21
2195.695452731716
 31
0.0
 12
1673.601635979374
 22
2214.058666904523
 32
0.0
 13
1673.601635979374
 23
2214.058666904523
 33
0.0
  0
POINT
  5
2EB0
330
2EAB
100
AcDbEntity
  8
DEFPOINTS
 62
     0
100
AcDbPoint
 10
1673.601635979374
 20
2214.058666904523
 30
0.0
  0
POINT
  5
2EB1
330
2EAB
100
AcDbEntity
  8
DEFPOINTS
 62
     0
100
AcDbPoint
 10
1708.361103399345
 20
2250.0
 30
0.0
  0
ENDBLK
  5
2EB3
330
2EAB
100
AcDbEntity
  8
0
100
AcDbBlockEnd
  0
BLOCK
  5
2EBF
330
2EB5
100
AcDbEntity
  8
0
100
AcDbBlockBegin
  2
*D16
 70
     1
 10
0.0
 20
0.0
 30
0.0
  3
*D16
  1

  0
LINE
  5
2EB6
330
2EB5
100
AcDbEntity
  8
SUNPO
 62
   144
100
AcDbLine
 10
1659.999999999999
 20
2257.303398958862
 30
0.0
 11
1659.999999999999
 21
2410.0
 31
0.0
  0
LINE
  5
2EB7
330
2EB5
100
AcDbEntity
  8
SUNPO
 62
   144
100
AcDbLine
 10
1940.0
 20
2257.303398958862
 30
0.0
 11
1940.0
 21
2410.0
 31
0.0
  0
LINE
  5
2EB8
330
2EB5
100
AcDbEntity
  8
SUNPO
 62
   144
100
AcDbLine
 10
1681.999999999999
 20
2400.0
 30
0.0
 11
1918.0
 21
2400.0
 31
0.0
  0
SOLID
  5
2EB9
330
2EB5
100
AcDbEntity
  8
SUNPO
 62
   144
100
AcDbTrace
 10
1681.999999999999
 20
2403.666666666666
 30
0.0
 11
1681.999999999999
 21
2396.333333333333
 31
0.0
 12
1659.999999999999
 22
2400.0
 32
0.0
 13
1659.999999999999
 23
2400.0
 33
0.0
  0
SOLID
  5
2EBA
330
2EB5
100
AcDbEntity
  8
SUNPO
 62
   144
100
AcDbTrace
 10
1918.0
 20
2403.666666666666
 30
0.0
 11
1918.0
 21
2396.333333333333
 31
0.0
 12
1940.0
 22
2400.0
 32
0.0
 13
1940.0
 23
2400.0
 33
0.0
  0
MTEXT
  5
2EBB
330
2EB5
100
AcDbEntity
  8
SUNPO
 62
     7
100
AcDbMText
 10
1800.0
 20
2430.5
 30
0.0
 40
36.0
 41
0.0
 71
     5
 72
     1
  1
\A2;280
  7
ADD
1001
ACAD
1000
MTEXTBEGIN
1070
    73
1070
     1
1070
    44
1040
1.0
1070
    74
1070
     0
1000
MTEXTEND
1000
MTEXTBEGIN
1070
    73
1070
     1
1070
    44
1040
1.0
1070
    74
1070
     0
1000
MTEXTEND
1000
MTEXTBEGIN
1070
    73
1070
     1
1070
    44
1040
1.0
1070
    74
1070
     0
1000
MTEXTEND
1000
MTEXTBEGIN
1070
    73
1070
     1
1070
    44
1040
1.0
1070
    74
1070
     0
1000
MTEXTEND
1000
MTEXTBEGIN
1070
    73
1070
     1
1070
    44
1040
1.0
1070
    74
1070
     0
1000
MTEXTEND
1000
MTEXTBEGIN
1070
    73
1070
     1
1070
    44
1040
1.0
1070
    74
1070
     0
1000
MTEXTEND
1000
MTEXTBEGIN
1070
    73
1070
     1
1070
    44
1040
1.0
1070
    74
1070
     0
1000
MTEXTEND
1000
MTEXTBEGIN
1070
    73
1070
     1
1070
    44
1040
1.0
1070
    74
1070
     0
1000
MTEXTEND
  0
POINT
  5
2EBC
330
2EB5
100
AcDbEntity
  8
DEFPOINTS
 62
     0
100
AcDbPoint
 10
1659.999999999999
 20
2237.303398958862
 30
0.0
  0
POINT
  5
2EBD
330
2EB5
100
AcDbEntity
  8
DEFPOINTS
 62
     0
100
AcDbPoint
 10
1940.0
 20
2237.303398958862
 30
0.0
  0
POINT
  5
2EBE
330
2EB5
100
AcDbEntity
  8
DEFPOINTS
 62
     0
100
AcDbPoint
 10
1940.0
 20
2400.0
 30
0.0
  0
ENDBLK
  5
2EC0
330
2EB5
100
AcDbEntity
  8
0
100
AcDbBlockEnd
  0
BLOCK
  5
2EE1
330
2ED7
100
AcDbEntity
  8
0
100
AcDbBlockBegin
  2
*D17
 70
     1
 10
0.0
 20
0.0
 30
0.0
  3
*D17
  1

  0
LINE
  5
2ED8
330
2ED7
100
AcDbEntity
  8
SUNPO
 62
   144
100
AcDbLine
 10
2075.0
 20
2500.0
 30
0.0
 11
2260.0
 21
2500.0
 31
0.0
  0
LINE
  5
2ED9
330
2ED7
100
AcDbEntity
  8
SUNPO
 62
   144
100
AcDbLine
 10
2075.0
 20
2200.0
 30
0.0
 11
2260.0
 21
2200.0
 31
0.0
  0
LINE
  5
2EDA
330
2ED7
100
AcDbEntity
  8
SUNPO
 62
   144
100
AcDbLine
 10
2250.0
 20
2478.0
 30
0.0
 11
2250.0
 21
2222.0
 31
0.0
  0
SOLID
  5
2EDB
330
2ED7
100
AcDbEntity
  8
SUNPO
 62
   144
100
AcDbTrace
 10
2246.333333333333
 20
2478.0
 30
0.0
 11
2253.666666666666
 21
2478.0
 31
0.0
 12
2250.0
 22
2500.0
 32
0.0
 13
2250.0
 23
2500.0
 33
0.0
  0
SOLID
  5
2EDC
330
2ED7
100
AcDbEntity
  8
SUNPO
 62
   144
100
AcDbTrace
 10
2246.333333333333
 20
2222.0
 30
0.0
 11
2253.666666666666
 21
2222.0
 31
0.0
 12
2250.0
 22
2200.0
 32
0.0
 13
2250.0
 23
2200.0
 33
0.0
  0
MTEXT
  5
2EDD
330
2ED7
100
AcDbEntity
  8
SUNPO
 62
     7
100
AcDbMText
 10
2219.499999999999
 20
2350.0
 30
0.0
 40
36.0
 41
0.0
 71
     5
 72
     1
  1
\A2;300
  7
ADD
 11
0.0000000000000001
 21
1.0
 31
0.0
1001
ACAD
1000
MTEXTBEGIN
1070
    73
1070
     1
1070
    44
1040
1.0
1070
    74
1070
     0
1000
MTEXTEND
1000
MTEXTBEGIN
1070
    73
1070
     1
1070
    44
1040
1.0
1070
    74
1070
     0
1000
MTEXTEND
1000
MTEXTBEGIN
1070
    73
1070
     1
1070
    44
1040
1.0
1070
    74
1070
     0
1000
MTEXTEND
1000
MTEXTBEGIN
1070
    73
1070
     1
1070
    44
1040
1.0
1070
    74
1070
     0
1000
MTEXTEND
1000
MTEXTBEGIN
1070
    73
1070
     1
1070
    44
1040
1.0
1070
    74
1070
     0
1000
MTEXTEND
1000
MTEXTBEGIN
1070
    73
1070
     1
1070
    44
1040
1.0
1070
    74
1070
     0
1000
MTEXTEND
1000
MTEXTBEGIN
1070
    73
1070
     1
1070
    44
1040
1.0
1070
    74
1070
     0
1000
MTEXTEND
1000
MTEXTBEGIN
1070
    73
1070
     1
1070
    44
1040
1.0
1070
    74
1070
     0
1000
MTEXTEND
  0
POINT
  5
2EDE
330
2ED7
100
AcDbEntity
  8
DEFPOINTS
 62
     0
100
AcDbPoint
 10
2055.0
 20
2500.0
 30
0.0
  0
POINT
  5
2EDF
330
2ED7
100
AcDbEntity
  8
DEFPOINTS
 62
     0
100
AcDbPoint
 10
2055.0
 20
2200.0
 30
0.0
  0
POINT
  5
2EE0
330
2ED7
100
AcDbEntity
  8
DEFPOINTS
 62
     0
100
AcDbPoint
 10
2250.0
 20
2200.0
 30
0.0
  0
ENDBLK
  5
2EE2
330
2ED7
100
AcDbEntity
  8
0
100
AcDbBlockEnd
  0
ENDSEC
  0
SECTION
  2
ENTITIES
  0
LINE
  5
60A
330
1F
100
AcDbEntity
  8
3C1
100
AcDbLine
 10
360.0
 20
260.0
 30
0.0
 11
5580.0
 21
260.0
 31
0.0
  0
LINE
  5
60B
330
1F
100
AcDbEntity
  8
3C1
100
AcDbLine
 10
360.0
 20
560.0
 30
0.0
 11
5580.0
 21
560.0
 31
0.0
  0
LINE
  5
60C
330
1F
100
AcDbEntity
  8
3C1
100
AcDbLine
 10
360.0
 20
260.0
 30
0.0
 11
360.0
 21
560.0
 31
0.0
  0
LINE
  5
60F
330
1F
100
AcDbEntity
  8
3C1
100
AcDbLine
 10
3160.0
 20
260.0
 30
0.0
 11
3160.0
 21
560.0
 31
0.0
  0
LINE
  5
610
330
1F
100
AcDbEntity
  8
3C1
100
AcDbLine
 10
3660.0
 20
260.0
 30
0.0
 11
3660.0
 21
560.0
 31
0.0
  0
LINE
  5
22B3
330
1F
100
AcDbEntity
  8
3C1
100
AcDbLine
 10
2260.0
 20
260.0
 30
0.0
 11
2260.0
 21
560.0
 31
0.0
  0
LINE
  5
2347
330
1F
100
AcDbEntity
  8
3C1
100
AcDbLine
 10
1548.0
 20
2600.0
 30
0.0
 11
1599.999999999999
 21
2600.0
 31
0.0
  0
LINE
  5
2348
330
1F
100
AcDbEntity
  8
3C1
100
AcDbLine
 10
1599.999999999999
 20
2600.0
 30
0.0
 11
1602.999999999999
 21
2500.0
 31
0.0
  0
LINE
  5
234A
330
1F
100
AcDbEntity
  8
3C1
100
AcDbLine
 10
1545.0
 20
2597.0
 30
0.0
 11
1545.0
 21
2455.0
 31
0.0
  0
LINE
  5
235B
330
1F
100
AcDbEntity
  8
3C1
100
AcDbLine
 10
1545.0
 20
2455.0
 30
0.0
 11
1590.0
 21
2410.0
 31
0.0
  0
LINE
  5
235C
330
1F
100
AcDbEntity
  8
3C1
100
AcDbLine
 10
1590.0
 20
2410.0
 30
0.0
 11
1589.999999999999
 21
2160.0
 31
0.0
  0
LINE
  5
235D
330
1F
100
AcDbEntity
  8
3C1
100
AcDbLine
 10
1589.999999999999
 20
2160.0
 30
0.0
 11
1620.0
 21
2130.0
 31
0.0
  0
LINE
  5
235E
330
1F
100
AcDbEntity
  8
3C1
100
AcDbLine
 10
1620.0
 20
2130.0
 30
0.0
 11
1980.0
 21
2130.0
 31
0.0
  0
LINE
  5
235F
330
1F
100
AcDbEntity
  8
3C1
100
AcDbLine
 10
1602.999999999999
 20
2500.0
 30
0.0
 11
1649.999999999999
 21
2500.0
 31
0.0
  0
LINE
  5
2360
330
1F
100
AcDbEntity
  8
3C1
100
AcDbLine
 10
1649.999999999999
 20
2500.0
 30
0.0
 11
1658.388858050387
 21
2248.334258488367
 31
0.0
  0
LINE
  5
2361
330
1F
100
AcDbEntity
  8
3C1
100
AcDbLine
 10
1708.361103399345
 20
2200.0
 30
0.0
 11
1891.638896600654
 21
2200.0
 31
0.0
  0
ARC
  5
2363
330
1F
100
AcDbEntity
  8
3C1
100
AcDbCircle
 10
1708.361103399345
 20
2250.0
 30
0.0
 40
50.0
100
AcDbArc
 50
181.9091524329964
 51
270.0
  0
LINE
  5
2364
330
1F
100
AcDbEntity
  8
3C1
100
AcDbLine
 10
2055.0
 20
2597.0
 30
0.0
 11
2055.0
 21
2455.0
 31
0.0
  0
LINE
  5
2365
330
1F
100
AcDbEntity
  8
3C1
100
AcDbLine
 10
2052.0
 20
2600.0
 30
0.0
 11
2000.0
 21
2600.0
 31
0.0
  0
LINE
  5
2366
330
1F
100
AcDbEntity
  8
3C1
100
AcDbLine
 10
2000.0
 20
2600.0
 30
0.0
 11
1997.0
 21
2500.0
 31
0.0
  0
LINE
  5
2367
330
1F
100
AcDbEntity
  8
3C1
100
AcDbLine
 10
2055.0
 20
2455.0
 30
0.0
 11
2010.0
 21
2410.0
 31
0.0
  0
LINE
  5
2368
330
1F
100
AcDbEntity
  8
3C1
100
AcDbLine
 10
2010.0
 20
2410.0
 30
0.0
 11
2010.0
 21
2160.0
 31
0.0
  0
LINE
  5
2369
330
1F
100
AcDbEntity
  8
3C1
100
AcDbLine
 10
1950.0
 20
2500.0
 30
0.0
 11
1941.611141949612
 21
2248.334258488367
 31
0.0
  0
LINE
  5
236A
330
1F
100
AcDbEntity
  8
3C1
100
AcDbLine
 10
2010.0
 20
2160.0
 30
0.0
 11
1980.0
 21
2130.0
 31
0.0
  0
ARC
  5
236B
330
1F
100
AcDbEntity
  8
3C1
100
AcDbCircle
 10
1891.638896600654
 20
2250.0
 30
0.0
 40
50.0
100
AcDbArc
 50
269.9999999999999
 51
358.0908475670034
  0
LINE
  5
236C
330
1F
100
AcDbEntity
  8
3C1
100
AcDbLine
 10
1950.0
 20
2500.0
 30
0.0
 11
1997.0
 21
2500.0
 31
0.0
  0
LINE
  5
23F9
330
1F
100
AcDbEntity
  8
3C1
100
AcDbLine
 10
2650.0
 20
2600.0
 30
0.0
 11
2650.0
 21
2140.0
 31
0.0
  0
LINE
  5
23FA
330
1F
100
AcDbEntity
  8
3C1
100
AcDbLine
 10
2660.0
 20
2130.0
 30
0.0
 11
4640.0
 21
2130.0
 31
0.0
  0
LINE
  5
23FB
330
1F
100
AcDbEntity
  8
3C1
100
AcDbLine
 10
2650.0
 20
2600.0
 30
0.0
 11
4650.0
 21
2600.0
 31
0.0
  0
LINE
  5
23FC
330
1F
100
AcDbEntity
  8
3C1
100
AcDbLine
 10
4650.0
 20
2600.0
 30
0.0
 11
4650.0
 21
2140.0
 31
0.0
  0
LINE
  5
23FD
330
1F
100
AcDbEntity
  8
3C1
  6
HIDDEN2
100
AcDbLine
 10
2650.0
 20
2500.0
 30
0.0
 11
4650.0
 21
2500.0
 31
0.0
  0
LINE
  5
23FE
330
1F
100
AcDbEntity
  8
3C1
  6
HIDDEN2
100
AcDbLine
 10
2650.0
 20
2200.0
 30
0.0
 11
4650.0
 21
2200.0
 31
0.0
  0
LINE
  5
2437
330
1F
100
AcDbEntity
  8
SUNPO
100
AcDbLine
 10
2010.0
 20
2410.0
 30
0.0
 11
2100.0
 21
2410.0
 31
0.0
  0
LINE
  5
248D
330
1F
100
AcDbEntity
  8
SUNPO
100
AcDbLine
 10
1980.0
 20
2130.0
 30
0.0
 11
2070.0
 21
2130.0
 31
0.0
  0
LINE
  5
26AF
330
1F
100
AcDbEntity
  8
SUNPO
100
AcDbLine
 10
1600.0
 20
2710.0
 30
0.0
 11
1600.0
 21
2620.0
 31
0.0
  0
LINE
  5
26B1
330
1F
100
AcDbEntity
  8
SUNPO
100
AcDbLine
 10
1603.0
 20
2710.0
 30
0.0
 11
1603.0
 21
2620.0
 31
0.0
  0
LINE
  5
2870
330
1F
100
AcDbEntity
  8
SUNPO
100
AcDbLine
 10
2000.0
 20
2710.0
 30
0.0
 11
2000.0
 21
2620.0
 31
0.0
  0
LINE
  5
2871
330
1F
100
AcDbEntity
  8
SUNPO
100
AcDbLine
 10
1997.0
 20
2710.0
 30
0.0
 11
1997.0
 21
2620.0
 31
0.0
  0
LINE
  5
288B
330
1F
100
AcDbEntity
  8
SUNPO
100
AcDbLine
 10
2075.0
 20
2600.0
 30
0.0
 11
2260.0
 21
2600.0
 31
0.0
  0
LINE
  5
288F
330
1F
100
AcDbEntity
  8
SUNPO
100
AcDbLine
 10
2030.0
 20
2130.0
 30
0.0
 11
2260.0
 21
2130.0
 31
0.0
  0
LINE
  5
28A1
330
1F
100
AcDbEntity
  8
3C1
100
AcDbLine
 10
1629.999999999999
 20
2500.000000000003
 30
0.0
 11
1638.411067937209
 21
2247.667961883715
 31
0.0
  0
LINE
  5
28A2
330
1F
100
AcDbEntity
  8
3C1
100
AcDbLine
 10
1708.37221142575
 20
2180.0
 30
0.0
 11
1891.627788574249
 21
2180.0
 31
0.0
  0
ARC
  5
28A3
330
1F
100
AcDbEntity
  8
3C1
100
AcDbCircle
 10
1708.37221142575
 20
2250.0
 30
0.0
 40
70.0
100
AcDbArc
 50
181.9091524329964
 51
270.0
  0
LINE
  5
28A4
330
1F
100
AcDbEntity
  8
3C1
100
AcDbLine
 10
1969.999999999999
 20
2500.000000000003
 30
0.0
 11
1961.58893206279
 21
2247.667961883715
 31
0.0
  0
ARC
  5
28A5
330
1F
100
AcDbEntity
  8
3C1
100
AcDbCircle
 10
1891.627788574249
 20
2250.0
 30
0.0
 40
70.0
100
AcDbArc
 50
270.0
 51
358.0908475670036
  0
LINE
  5
28A6
330
1F
100
AcDbEntity
  8
3C1
100
AcDbLine
 10
2650.0
 20
2455.0
 30
0.0
 11
4650.0
 21
2455.0
 31
0.0
  0
LINE
  5
28A7
330
1F
100
AcDbEntity
  8
3C1
100
AcDbLine
 10
2650.0
 20
2160.0
 30
0.0
 11
4650.0
 21
2160.0
 31
0.0
  0
LINE
  5
2AAF
330
1F
100
AcDbEntity
  8
3C1
100
AcDbLine
 10
2650.0
 20
2140.0
 30
0.0
 11
2660.0
 21
2130.0
 31
0.0
  0
LINE
  5
2AB0
330
1F
100
AcDbEntity
  8
3C1
100
AcDbLine
 10
4650.0
 20
2140.0
 30
0.0
 11
4640.0
 21
2130.0
 31
0.0
  0
LINE
  5
2AB1
330
1F
100
AcDbEntity
  8
3C1
100
AcDbLine
 10
1609.999999999999
 20
2140.0
 30
0.0
 11
1990.0
 21
2140.0
 31
0.0
  0
LINE
  5
2C60
330
1F
100
AcDbEntity
  8
3C1
100
AcDbLine
 10
1548.0
 20
2600.0
 30
0.0
 11
1545.0
 21
2597.0
 31
0.0
  0
LINE
  5
2C61
330
1F
100
AcDbEntity
  8
3C1
100
AcDbLine
 10
2052.0
 20
2600.0
 30
0.0
 11
2055.0
 21
2597.0
 31
0.0
  0
LINE
  5
2E1F
330
1F
100
AcDbEntity
  8
SUNPO
100
AcDbLine
 10
1600.0
 20
2700.0
 30
0.0
 11
1603.0
 21
2700.0
 31
0.0
  0
LINE
  5
2E2E
330
1F
100
AcDbEntity
  8
SUNPO
100
AcDbLine
 10
1997.0
 20
2700.0
 30
0.0
 11
2000.0
 21
2700.0
 31
0.0
  0
LINE
  5
2FEC
330
1F
100
AcDbEntity
  8
3C1
100
AcDbLine
 10
2650.0
 20
2597.0
 30
0.0
 11
4650.0
 21
2597.0
 31
0.0
  0
LINE
  5
3071
330
1F
100
AcDbEntity
  8
2C1
  6
HIDDEN2
100
AcDbLine
 10
2655.0
 20
2500.0
 30
0.0
 11
2655.0
 21
2180.0
 31
0.0
  0
LINE
  5
3072
330
1F
100
AcDbEntity
  8
2C1
  6
HIDDEN2
100
AcDbLine
 10
2655.0
 20
2180.0
 30
0.0
 11
2650.0
 21
2180.0
 31
0.0
  0
LINE
  5
3073
330
1F
100
AcDbEntity
  8
2C1
  6
HIDDEN2
100
AcDbLine
 10
4645.0
 20
2180.0
 30
0.0
 11
4650.0
 21
2180.0
 31
0.0
  0
LINE
  5
3074
330
1F
100
AcDbEntity
  8
2C1
  6
HIDDEN2
100
AcDbLine
 10
4645.0
 20
2500.0
 30
0.0
 11
4645.0
 21
2180.0
 31
0.0
  0
LINE
  5
3108
330
1F
100
AcDbEntity
  8
3C1
100
AcDbLine
 10
2650.0
 20
2410.0
 30
0.0
 11
4650.0
 21
2410.0
 31
0.0
  0
LINE
  5
3295
330
1F
100
AcDbEntity
  8
SUNPO
 62
   144
100
AcDbLine
 10
2075.0
 20
2500.0
 30
0.0
 11
2260.0
 21
2500.0
 31
0.0
  0
LINE
  5
3296
330
1F
100
AcDbEntity
  8
SUNPO
 62
   144
100
AcDbLine
 10
2075.0
 20
2200.0
 30
0.0
 11
2260.0
 21
2200.0
 31
0.0
  0
LINE
  5
3297
330
1F
100
AcDbEntity
  8
SUNPO
 62
   144
100
AcDbLine
 10
2250.0
 20
2478.0
 30
0.0
 11
2250.0
 21
2222.0
 31
0.0
  0
SOLID
  5
3298
330
1F
100
AcDbEntity
  8
SUNPO
 62
   144
100
AcDbTrace
 10
2246.333333333333
 20
2478.0
 30
0.0
 11
2253.666666666666
 21
2478.0
 31
0.0
 12
2250.0
 22
2500.0
 32
0.0
 13
2250.0
 23
2500.0
 33
0.0
  0
SOLID
  5
3299
330
1F
100
AcDbEntity
  8
SUNPO
 62
   144
100
AcDbTrace
 10
2246.333333333333
 20
2222.0
 30
0.0
 11
2253.666666666666
 21
2222.0
 31
0.0
 12
2250.0
 22
2200.0
 32
0.0
 13
2250.0
 23
2200.0
 33
0.0
  0
SOLID
  5
329B
330
1F
100
AcDbEntity
  8
SUNPO
100
AcDbTrace
 10
2253.666666666666
 20
2152.0
 30
0.0
 11
2250.0
 21
2130.0
 31
0.0
 12
2246.333333333333
 22
2152.0
 32
0.0
 13
2246.333333333333
 23
2152.0
 33
0.0
1001
ACAD
1000
DSTYLE
1002
{
1070
     5
1000

1070
    40
1040
20.0
1070
    77
1070
     0
1070
   140
1040
1.8
1070
   141
1040
1.1
1070
   147
1040
0.625
1070
   342
1005
0
1070
   372
1070
    -1
1002
}
  0
SOLID
  5
329D
330
1F
100
AcDbEntity
  8
SUNPO
100
AcDbTrace
 10
2246.333333333333
 20
2178.0
 30
0.0
 11
2250.0
 21
2200.0
 31
0.0
 12
2253.666666666666
 22
2178.0
 32
0.0
 13
2253.666666666666
 23
2178.0
 33
0.0
1001
ACAD
1000
DSTYLE
1002
{
1070
     5
1000

1070
    40
1040
20.0
1070
    77
1070
     0
1070
   140
1040
1.8
1070
   141
1040
1.1
1070
   147
1040
0.625
1070
   342
1005
0
1070
   372
1070
    -1
1002
}
  0
SOLID
  5
329F
330
1F
100
AcDbEntity
  8
SUNPO
100
AcDbTrace
 10
2246.333333333333
 20
2578.0
 30
0.0
 11
2250.0
 21
2600.0
 31
0.0
 12
2253.666666666666
 22
2578.0
 32
0.0
 13
2253.666666666666
 23
2578.0
 33
0.0
1001
ACAD
1000
DSTYLE
1002
{
1070
     5
1000

1070
    40
1040
20.0
1070
    77
1070
     0
1070
   140
1040
1.8
1070
   141
1040
1.1
1070
   147
1040
0.625
1070
   342
1005
0
1070
   372
1070
    -1
1002
}
  0
SOLID
  5
32A1
330
1F
100
AcDbEntity
  8
SUNPO
100
AcDbTrace
 10
2253.666666666666
 20
2522.0
 30
0.0
 11
2250.0
 21
2500.0
 31
0.0
 12
2246.333333333333
 22
2522.0
 32
0.0
 13
2246.333333333333
 23
2522.0
 33
0.0
1001
ACAD
1000
DSTYLE
1002
{
1070
     5
1000

1070
    40
1040
20.0
1070
    77
1070
     0
1070
   140
1040
1.8
1070
   141
1040
1.1
1070
   147
1040
0.625
1070
   342
1005
0
1070
   372
1070
    -1
1002
}
  0
SOLID
  5
32A3
330
1F
100
AcDbEntity
  8
SUNPO
100
AcDbTrace
 10
1611.999999999999
 20
2396.333333333333
 30
0.0
 11
1589.999999999999
 21
2400.0
 31
0.0
 12
1611.999999999999
 22
2403.666666666666
 32
0.0
 13
1611.999999999999
 23
2403.666666666666
 33
0.0
1001
ACAD
1000
DSTYLE
1002
{
1070
     5
1000

1070
    40
1040
20.0
1070
    41
1040
1.1
1070
    77
1070
     0
1070
   140
1040
1.8
1070
   141
1040
1.399999999999999
1070
   147
1040
0.625
1070
   342
1005
0
1070
   372
1070
    -1
1002
}
  0
SOLID
  5
32A5
330
1F
100
AcDbEntity
  8
SUNPO
100
AcDbTrace
 10
1637.999999999999
 20
2403.666666666666
 30
0.0
 11
1659.999999999999
 21
2400.0
 31
0.0
 12
1637.999999999999
 22
2396.333333333333
 32
0.0
 13
1637.999999999999
 23
2396.333333333333
 33
0.0
1001
ACAD
1000
DSTYLE
1002
{
1070
     5
1000

1070
    40
1040
20.0
1070
    41
1040
1.1
1070
    77
1070
     0
1070
   140
1040
1.8
1070
   141
1040
1.399999999999999
1070
   147
1040
0.625
1070
   342
1005
0
1070
   372
1070
    -1
1002
}
  0
LINE
  5
32A7
330
1F
100
AcDbEntity
  8
SUNPO
 62
   144
100
AcDbLine
 10
1659.999999999999
 20
2257.303398958862
 30
0.0
 11
1659.999999999999
 21
2410.0
 31
0.0
  0
LINE
  5
32A8
330
1F
100
AcDbEntity
  8
SUNPO
 62
   144
100
AcDbLine
 10
1940.0
 20
2257.303398958862
 30
0.0
 11
1940.0
 21
2410.0
 31
0.0
  0
LINE
  5
32A9
330
1F
100
AcDbEntity
  8
SUNPO
 62
   144
100
AcDbLine
 10
1681.999999999999
 20
2400.0
 30
0.0
 11
1918.0
 21
2400.0
 31
0.0
  0
SOLID
  5
32AA
330
1F
100
AcDbEntity
  8
SUNPO
 62
   144
100
AcDbTrace
 10
1681.999999999999
 20
2403.666666666666
 30
0.0
 11
1681.999999999999
 21
2396.333333333333
 31
0.0
 12
1659.999999999999
 22
2400.0
 32
0.0
 13
1659.999999999999
 23
2400.0
 33
0.0
  0
SOLID
  5
32AB
330
1F
100
AcDbEntity
  8
SUNPO
 62
   144
100
AcDbTrace
 10
1918.0
 20
2403.666666666666
 30
0.0
 11
1918.0
 21
2396.333333333333
 31
0.0
 12
1940.0
 22
2400.0
 32
0.0
 13
1940.0
 23
2400.0
 33
0.0
  0
LINE
  5
32AD
330
1F
100
AcDbEntity
  8
SUNPO
 62
   144
100
AcDbLine
 10
1561.278899830839
 20
2097.916816244571
 30
0.0
 11
1658.307470314587
 21
2198.244480342514
 31
0.0
  0
LINE
  5
32AF
330
1F
100
AcDbEntity
  8
SUNPO
 62
   144
100
AcDbLine
 10
1708.361103399345
 20
2250.0
 30
0.0
 11
1673.601635979374
 21
2214.058666904523
 31
0.0
  0
SOLID
  5
32B0
330
1F
100
AcDbEntity
  8
SUNPO
 62
   144
100
AcDbTrace
 10
1655.671772554252
 20
2200.793507953311
 30
0.0
 11
1660.943168074921
 21
2195.695452731716
 31
0.0
 12
1673.601635979374
 22
2214.058666904523
 32
0.0
 13
1673.601635979374
 23
2214.058666904523
 33
0.0
  0
SOLID
  5
32B1
330
1F
100
AcDbEntity
  8
SUNPO
100
AcDbTrace
 10
2636.466596264407
 20
2122.592043261763
 30
0.0
 11
2655.0
 21
2135.0
 31
0.0
 12
2641.49260405711
 22
2117.251909982016
 32
0.0
 13
2641.49260405711
 23
2117.251909982016
 33
0.0
1001
ACAD
1000
DSTYLE
1002
{
1070
     5
1000

1070
    40
1040
20.0
1070
    77
1070
     0
1070
   140
1040
1.8
1070
   141
1040
1.399999999999999
1070
   147
1040
0.625
1070
   342
1005
0
1070
   372
1070
    -1
1002
}
  0
SOLID
  5
32B3
330
1F
100
AcDbEntity
  8
SUNPO
100
AcDbTrace
 10
2071.083989330229
 20
2612.220341237695
 30
0.0
 11
2053.5
 21
2598.5
 31
0.0
 12
2065.683663019073
 22
2617.181616629245
 32
0.0
 13
2065.683663019073
 23
2617.181616629245
 33
0.0
1001
ACAD
1000
DSTYLE
1002
{
1070
     5
1000

1070
    40
1040
20.0
1070
    77
1070
     0
1070
   140
1040
1.8
1070
   141
1040
1.399999999999999
1070
   147
1040
0.625
1070
   342
1005
0
1070
   372
1070
    -1
1002
}
  0
LINE
  5
32B5
330
1F
100
AcDbEntity
  8
SUNPO
 62
   144
100
AcDbLine
 10
1620.0
 20
2110.0
 30
0.0
 11
1620.0
 21
1990.0
 31
0.0
  0
LINE
  5
32B6
330
1F
100
AcDbEntity
  8
SUNPO
 62
   144
100
AcDbLine
 10
1589.999999999999
 20
2110.0
 30
0.0
 11
1589.999999999999
 21
1990.0
 31
0.0
  0
LINE
  5
32B7
330
1F
100
AcDbEntity
  8
SUNPO
 62
   144
100
AcDbLine
 10
1641.999999999999
 20
2000.0
 30
0.0
 11
1663.999999999999
 21
2000.0
 31
0.0
  0
LINE
  5
32B8
330
1F
100
AcDbEntity
  8
SUNPO
 62
   144
100
AcDbLine
 10
1567.999999999999
 20
2000.0
 30
0.0
 11
1545.999999999999
 21
2000.0
 31
0.0
  0
LINE
  5
32BA
330
1F
100
AcDbEntity
  8
SUNPO
 62
   144
100
AcDbLine
 10
1620.0
 20
2000.0
 30
0.0
 11
1589.999999999999
 21
2000.0
 31
0.0
  0
SOLID
  5
32BB
330
1F
100
AcDbEntity
  8
SUNPO
 62
   144
100
AcDbTrace
 10
1641.999999999999
 20
2003.666666666667
 30
0.0
 11
1641.999999999999
 21
1996.333333333333
 31
0.0
 12
1620.0
 22
2000.0
 32
0.0
 13
1620.0
 23
2000.0
 33
0.0
  0
SOLID
  5
32BC
330
1F
100
AcDbEntity
  8
SUNPO
 62
   144
100
AcDbTrace
 10
1567.999999999999
 20
2003.666666666667
 30
0.0
 11
1567.999999999999
 21
1996.333333333333
 31
0.0
 12
1589.999999999999
 22
2000.0
 32
0.0
 13
1589.999999999999
 23
2000.0
 33
0.0
  0
LINE
  5
32BD
330
1F
100
AcDbEntity
  8
SUNPO
 62
   144
100
AcDbLine
 10
1620.0
 20
2110.0
 30
0.0
 11
1620.0
 21
1990.0
 31
0.0
  0
LINE
  5
32BE
330
1F
100
AcDbEntity
  8
SUNPO
 62
   144
100
AcDbLine
 10
1980.0
 20
2110.0
 30
0.0
 11
1980.0
 21
1990.0
 31
0.0
  0
LINE
  5
32BF
330
1F
100
AcDbEntity
  8
SUNPO
 62
   144
100
AcDbLine
 10
1641.999999999999
 20
2000.0
 30
0.0
 11
1958.0
 21
2000.0
 31
0.0
  0
SOLID
  5
32C0
330
1F
100
AcDbEntity
  8
SUNPO
 62
   144
100
AcDbTrace
 10
1641.999999999999
 20
2003.666666666667
 30
0.0
 11
1641.999999999999
 21
1996.333333333333
 31
0.0
 12
1620.0
 22
2000.0
 32
0.0
 13
1620.0
 23
2000.0
 33
0.0
  0
SOLID
  5
32C1
330
1F
100
AcDbEntity
  8
SUNPO
 62
   144
100
AcDbTrace
 10
1958.0
 20
2003.666666666667
 30
0.0
 11
1958.0
 21
1996.333333333333
 31
0.0
 12
1980.0
 22
2000.0
 32
0.0
 13
1980.0
 23
2000.0
 33
0.0
  0
LINE
  5
32C3
330
1F
100
AcDbEntity
  8
SUNPO
 62
   144
100
AcDbLine
 10
1524.999999999999
 20
2600.0
 30
0.0
 11
1340.0
 21
2600.0
 31
0.0
  0
LINE
  5
32C4
330
1F
100
AcDbEntity
  8
SUNPO
 62
   144
100
AcDbLine
 10
1524.999999999999
 20
2130.0
 30
0.0
 11
1340.0
 21
2130.0
 31
0.0
  0
LINE
  5
32C5
330
1F
100
AcDbEntity
  8
SUNPO
 62
   144
100
AcDbLine
 10
1350.0
 20
2578.0
 30
0.0
 11
1350.0
 21
2152.0
 31
0.0
  0
SOLID
  5
32C6
330
1F
100
AcDbEntity
  8
SUNPO
 62
   144
100
AcDbTrace
 10
1346.333333333333
 20
2578.0
 30
0.0
 11
1353.666666666667
 21
2578.0
 31
0.0
 12
1350.0
 22
2600.0
 32
0.0
 13
1350.0
 23
2600.0
 33
0.0
  0
SOLID
  5
32C7
330
1F
100
AcDbEntity
  8
SUNPO
 62
   144
100
AcDbTrace
 10
1346.333333333333
 20
2152.0
 30
0.0
 11
1353.666666666666
 21
2152.0
 31
0.0
 12
1350.0
 22
2130.0
 32
0.0
 13
1350.0
 23
2130.0
 33
0.0
  0
LINE
  5
32C9
330
1F
100
AcDbEntity
  8
SUNPO
 62
   144
100
AcDbLine
 10
1524.999999999999
 20
2600.0
 30
0.0
 11
1440.0
 21
2600.0
 31
0.0
  0
LINE
  5
32CA
330
1F
100
AcDbEntity
  8
SUNPO
 62
   144
100
AcDbLine
 10
1525.0
 20
2455.0
 30
0.0
 11
1440.0
 21
2455.0
 31
0.0
  0
LINE
  5
32CB
330
1F
100
AcDbEntity
  8
SUNPO
 62
   144
100
AcDbLine
 10
1450.0
 20
2578.0
 30
0.0
 11
1450.0
 21
2477.0
 31
0.0
  0
SOLID
  5
32CC
330
1F
100
AcDbEntity
  8
SUNPO
 62
   144
100
AcDbTrace
 10
1446.333333333333
 20
2578.0
 30
0.0
 11
1453.666666666667
 21
2578.0
 31
0.0
 12
1450.0
 22
2600.0
 32
0.0
 13
1450.0
 23
2600.0
 33
0.0
  0
SOLID
  5
32CD
330
1F
100
AcDbEntity
  8
SUNPO
 62
   144
100
AcDbTrace
 10
1446.333333333333
 20
2477.0
 30
0.0
 11
1453.666666666666
 21
2477.0
 31
0.0
 12
1450.0
 22
2455.0
 32
0.0
 13
1450.0
 23
2455.0
 33
0.0
  0
LINE
  5
32CF
330
1F
100
AcDbEntity
  8
SUNPO
 62
   144
100
AcDbLine
 10
2650.0
 20
2620.0
 30
0.0
 11
2650.0
 21
2810.0
 31
0.0
  0
LINE
  5
32D0
330
1F
100
AcDbEntity
  8
SUNPO
 62
   144
100
AcDbLine
 10
4650.0
 20
2620.0
 30
0.0
 11
4650.0
 21
2810.0
 31
0.0
  0
LINE
  5
32D1
330
1F
100
AcDbEntity
  8
SUNPO
 62
   144
100
AcDbLine
 10
2672.0
 20
2800.0
 30
0.0
 11
4628.0
 21
2800.0
 31
0.0
  0
SOLID
  5
32D2
330
1F
100
AcDbEntity
  8
SUNPO
 62
   144
100
AcDbTrace
 10
2672.0
 20
2803.666666666666
 30
0.0
 11
2672.0
 21
2796.333333333333
 31
0.0
 12
2650.0
 22
2800.0
 32
0.0
 13
2650.0
 23
2800.0
 33
0.0
  0
SOLID
  5
32D3
330
1F
100
AcDbEntity
  8
SUNPO
 62
   144
100
AcDbTrace
 10
4628.0
 20
2803.666666666666
 30
0.0
 11
4628.0
 21
2796.333333333333
 31
0.0
 12
4650.0
 22
2800.0
 32
0.0
 13
4650.0
 23
2800.0
 33
0.0
  0
LINE
  5
32D5
330
1F
100
AcDbEntity
  8
SUNPO
 62
   144
100
AcDbLine
 10
1544.999999999999
 20
2620.0
 30
0.0
 11
1544.999999999999
 21
2860.0
 31
0.0
  0
LINE
  5
32D6
330
1F
100
AcDbEntity
  8
SUNPO
 62
   144
100
AcDbLine
 10
2055.0
 20
2620.0
 30
0.0
 11
2055.0
 21
2860.0
 31
0.0
  0
LINE
  5
32D7
330
1F
100
AcDbEntity
  8
SUNPO
 62
   144
100
AcDbLine
 10
1566.999999999999
 20
2850.0
 30
0.0
 11
2033.0
 21
2850.0
 31
0.0
  0
SOLID
  5
32D8
330
1F
100
AcDbEntity
  8
SUNPO
 62
   144
100
AcDbTrace
 10
1566.999999999999
 20
2853.666666666666
 30
0.0
 11
1566.999999999999
 21
2846.333333333333
 31
0.0
 12
1544.999999999999
 22
2850.0
 32
0.0
 13
1544.999999999999
 23
2850.0
 33
0.0
  0
SOLID
  5
32D9
330
1F
100
AcDbEntity
  8
SUNPO
 62
   144
100
AcDbTrace
 10
2033.0
 20
2853.666666666666
 30
0.0
 11
2033.0
 21
2846.333333333333
 31
0.0
 12
2055.0
 22
2850.0
 32
0.0
 13
2055.0
 23
2850.0
 33
0.0
  0
LINE
  5
32DB
330
1F
100
AcDbEntity
  8
SUNPO
 62
   144
100
AcDbLine
 10
1649.999999999999
 20
2520.0
 30
0.0
 11
1649.999999999999
 21
2710.0
 31
0.0
  0
LINE
  5
32DC
330
1F
100
AcDbEntity
  8
SUNPO
 62
   144
100
AcDbLine
 10
1949.999999999999
 20
2519.999999999975
 30
0.0
 11
1949.999999999999
 21
2710.0
 31
0.0
  0
LINE
  5
32DD
330
1F
100
AcDbEntity
  8
SUNPO
 62
   144
100
AcDbLine
 10
1671.999999999999
 20
2700.0
 30
0.0
 11
1927.999999999999
 21
2700.0
 31
0.0
  0
SOLID
  5
32DE
330
1F
100
AcDbEntity
  8
SUNPO
 62
   144
100
AcDbTrace
 10
1671.999999999999
 20
2703.666666666666
 30
0.0
 11
1671.999999999999
 21
2696.333333333333
 31
0.0
 12
1649.999999999999
 22
2700.0
 32
0.0
 13
1649.999999999999
 23
2700.0
 33
0.0
  0
SOLID
  5
32DF
330
1F
100
AcDbEntity
  8
SUNPO
 62
   144
100
AcDbTrace
 10
1927.999999999999
 20
2703.666666666666
 30
0.0
 11
1927.999999999999
 21
2696.333333333333
 31
0.0
 12
1949.999999999999
 22
2700.0
 32
0.0
 13
1949.999999999999
 23
2700.0
 33
0.0
  0
SOLID
  5
32E1
330
1F
100
AcDbEntity
  8
SUNPO
100
AcDbTrace
 10
2033.0
 20
2703.666666666666
 30
0.0
 11
2055.0
 21
2700.0
 31
0.0
 12
2033.0
 22
2696.333333333333
 32
0.0
 13
2033.0
 23
2696.333333333333
 33
0.0
1001
ACAD
1000
DSTYLE
1002
{
1070
     5
1000

1070
    40
1040
20.0
1070
    41
1040
1.1
1070
    77
1070
     0
1070
   140
1040
1.8
1070
   141
1040
1.399999999999999
1070
   147
1040
0.625
1070
   342
1005
0
1070
   372
1070
    -1
1002
}
  0
SOLID
  5
32E3
330
1F
100
AcDbEntity
  8
SUNPO
100
AcDbTrace
 10
2021.999999999999
 20
2696.333333333333
 30
0.0
 11
1999.999999999999
 21
2700.0
 31
0.0
 12
2021.999999999999
 22
2703.666666666666
 32
0.0
 13
2021.999999999999
 23
2703.666666666666
 33
0.0
1001
ACAD
1000
DSTYLE
1002
{
1070
     5
1000

1070
    40
1040
20.0
1070
    41
1040
1.1
1070
    77
1070
     0
1070
   140
1040
1.8
1070
   141
1040
1.399999999999999
1070
   147
1040
0.625
1070
   342
1005
0
1070
   372
1070
    -1
1002
}
  0
SOLID
  5
32E5
330
1F
100
AcDbEntity
  8
SUNPO
100
AcDbTrace
 10
1972.0
 20
2696.333333333333
 30
0.0
 11
1950.0
 21
2700.0
 31
0.0
 12
1972.0
 22
2703.666666666666
 32
0.0
 13
1972.0
 23
2703.666666666666
 33
0.0
1001
ACAD
1000
DSTYLE
1002
{
1070
     5
1000

1070
    40
1040
20.0
1070
    41
1040
1.1
1070
    77
1070
     0
1070
   140
1040
1.8
1070
   141
1040
1.399999999999999
1070
   147
1040
0.625
1070
   342
1005
0
1070
   372
1070
    -1
1002
}
  0
SOLID
  5
32E7
330
1F
100
AcDbEntity
  8
SUNPO
100
AcDbTrace
 10
1975.0
 20
2703.666666666666
 30
0.0
 11
1997.0
 21
2700.0
 31
0.0
 12
1975.0
 22
2696.333333333333
 32
0.0
 13
1975.0
 23
2696.333333333333
 33
0.0
1001
ACAD
1000
DSTYLE
1002
{
1070
     5
1000

1070
    40
1040
20.0
1070
    41
1040
1.1
1070
    77
1070
     0
1070
   140
1040
1.8
1070
   141
1040
1.399999999999999
1070
   147
1040
0.625
1070
   342
1005
0
1070
   372
1070
    -1
1002
}
  0
SOLID
  5
32E9
330
1F
100
AcDbEntity
  8
SUNPO
100
AcDbTrace
 10
1566.999999999999
 20
2696.333333333333
 30
0.0
 11
1544.999999999999
 21
2700.0
 31
0.0
 12
1566.999999999999
 22
2703.666666666666
 32
0.0
 13
1566.999999999999
 23
2703.666666666666
 33
0.0
1001
ACAD
1000
DSTYLE
1002
{
1070
     5
1000

1070
    40
1040
20.0
1070
    41
1040
1.1
1070
    77
1070
     0
1070
   140
1040
1.8
1070
   141
1040
1.399999999999999
1070
   147
1040
0.625
1070
   342
1005
0
1070
   372
1070
    -1
1002
}
  0
SOLID
  5
32EB
330
1F
100
AcDbEntity
  8
SUNPO
100
AcDbTrace
 10
1578.0
 20
2703.666666666666
 30
0.0
 11
1600.0
 21
2700.0
 31
0.0
 12
1578.0
 22
2696.333333333333
 32
0.0
 13
1578.0
 23
2696.333333333333
 33
0.0
1001
ACAD
1000
DSTYLE
1002
{
1070
     5
1000

1070
    40
1040
20.0
1070
    41
1040
1.1
1070
    77
1070
     0
1070
   140
1040
1.8
1070
   141
1040
1.399999999999999
1070
   147
1040
0.625
1070
   342
1005
0
1070
   372
1070
    -1
1002
}
  0
SOLID
  5
32ED
330
1F
100
AcDbEntity
  8
SUNPO
100
AcDbTrace
 10
1627.999999999999
 20
2703.666666666666
 30
0.0
 11
1649.999999999999
 21
2700.0
 31
0.0
 12
1627.999999999999
 22
2696.333333333333
 32
0.0
 13
1627.999999999999
 23
2696.333333333333
 33
0.0
1001
ACAD
1000
DSTYLE
1002
{
1070
     5
1000

1070
    40
1040
20.0
1070
    41
1040
1.1
1070
    77
1070
     0
1070
   140
1040
1.8
1070
   141
1040
1.399999999999999
1070
   147
1040
0.625
1070
   342
1005
0
1070
   372
1070
    -1
1002
}
  0
SOLID
  5
32EF
330
1F
100
AcDbEntity
  8
SUNPO
100
AcDbTrace
 10
1624.999999999999
 20
2696.333333333333
 30
0.0
 11
1602.999999999999
 21
2700.0
 31
0.0
 12
1624.999999999999
 22
2703.666666666666
 32
0.0
 13
1624.999999999999
 23
2703.666666666666
 33
0.0
1001
ACAD
1000
DSTYLE
1002
{
1070
     5
1000

1070
    40
1040
20.0
1070
    41
1040
1.1
1070
    77
1070
     0
1070
   140
1040
1.8
1070
   141
1040
1.399999999999999
1070
   147
1040
0.625
1070
   342
1005
0
1070
   372
1070
    -1
1002
}
  0
TEXT
  5
32F1
330
1F
100
AcDbEntity
  8
SUNPO
 62
     7
100
AcDbText
 10
2116.238365059916
 20
2672.592869179785
 30
0.0
 40
36.0
  1
3C
  7
ADD
100
AcDbText
1001
ACAD
1000
MTEXTBEGIN
1070
    73
1070
     1
1070
    44
1040
1.0
1070
    74
1070
     0
1000
MTEXTEND
1000
MTEXTBEGIN
1070
    73
1070
     1
1070
    44
1040
1.0
1070
    74
1070
     0
1000
MTEXTEND
1000
MTEXTBEGIN
1070
    73
1070
     1
1070
    44
1040
1.0
1070
    74
1070
     0
1000
MTEXTEND
1000
MTEXTBEGIN
1070
    73
1070
     1
1070
    44
1040
1.0
1070
    74
1070
     0
1000
MTEXTEND
1000
MTEXTBEGIN
1070
    73
1070
     1
1070
    44
1040
1.0
1070
    74
1070
     0
1000
MTEXTEND
1000
MTEXTBEGIN
1070
    73
1070
     1
1070
    44
1040
1.0
1070
    74
1070
     0
1000
MTEXTEND
1000
MTEXTBEGIN
1070
    73
1070
     1
1070
    44
1040
1.0
1070
    74
1070
     0
1000
MTEXTEND
1000
MTEXTBEGIN
1070
    73
1070
     1
1070
    44
1040
1.0
1070
    74
1070
     0
1000
MTEXTEND
1000
MTEXTBEGIN
1070
    73
1070
     1
1070
    44
1040
1.0
1070
    74
1070
     0
1000
MTEXTEND
1000
MTEXTBEGIN
1070
    73
1070
     1
1070
    44
1040
1.0
1070
    74
1070
     0
1000
MTEXTEND
1000
MTEXTBEGIN
1070
    73
1070
     1
1070
    44
1040
1.0
1070
    74
1070
     0
1000
MTEXTEND
  0
TEXT
  5
32F2
330
1F
100
AcDbEntity
  8
SUNPO
 62
     7
100
AcDbText
 10
2466.095507917059
 20
2067.592869179785
 30
0.0
 40
36.0
  1
10C
  7
ADD
100
AcDbText
1001
ACAD
1000
MTEXTBEGIN
1070
    73
1070
     1
1070
    44
1040
1.0
1070
    74
1070
     0
1000
MTEXTEND
1000
MTEXTBEGIN
1070
    73
1070
     1
1070
    44
1040
1.0
1070
    74
1070
     0
1000
MTEXTEND
1000
MTEXTBEGIN
1070
    73
1070
     1
1070
    44
1040
1.0
1070
    74
1070
     0
1000
MTEXTEND
1000
MTEXTBEGIN
1070
    73
1070
     1
1070
    44
1040
1.0
1070
    74
1070
     0
1000
MTEXTEND
1000
MTEXTBEGIN
1070
    73
1070
     1
1070
    44
1040
1.0
1070
    74
1070
     0
1000
MTEXTEND
1000
MTEXTBEGIN
1070
    73
1070
     1
1070
    44
1040
1.0
1070
    74
1070
     0
1000
MTEXTEND
1000
MTEXTBEGIN
1070
    73
1070
     1
1070
    44
1040
1.0
1070
    74
1070
     0
1000
MTEXTEND
1000
MTEXTBEGIN
1070
    73
1070
     1
1070
    44
1040
1.0
1070
    74
1070
     0
1000
MTEXTEND
1000
MTEXTBEGIN
1070
    73
1070
     1
1070
    44
1040
1.0
1070
    74
1070
     0
1000
MTEXTEND
1000
MTEXTBEGIN
1070
    73
1070
     1
1070
    44
1040
1.0
1070
    74
1070
     0
1000
MTEXTEND
1000
MTEXTBEGIN
1070
    73
1070
     1
1070
    44
1040
1.0
1070
    74
1070
     0
1000
MTEXTEND
  0
TEXT
  5
32F3
330
1F
100
AcDbEntity
  8
SUNPO
 62
     7
100
AcDbText
 10
2237.407130820214
 20
2131.238365059916
 30
0.0
 40
36.0
  1
70
 50
90.0
  7
ADD
100
AcDbText
1001
ACAD
1000
MTEXTBEGIN
1070
    73
1070
     1
1070
    44
1040
1.0
1070
    74
1070
     0
1000
MTEXTEND
1000
MTEXTBEGIN
1070
    73
1070
     1
1070
    44
1040
1.0
1070
    74
1070
     0
1000
MTEXTEND
1000
MTEXTBEGIN
1070
    73
1070
     1
1070
    44
1040
1.0
1070
    74
1070
     0
1000
MTEXTEND
1000
MTEXTBEGIN
1070
    73
1070
     1
1070
    44
1040
1.0
1070
    74
1070
     0
1000
MTEXTEND
1000
MTEXTBEGIN
1070
    73
1070
     1
1070
    44
1040
1.0
1070
    74
1070
     0
1000
MTEXTEND
1000
MTEXTBEGIN
1070
    73
1070
     1
1070
    44
1040
1.0
1070
    74
1070
     0
1000
MTEXTEND
1000
MTEXTBEGIN
1070
    73
1070
     1
1070
    44
1040
1.0
1070
    74
1070
     0
1000
MTEXTEND
1000
MTEXTBEGIN
1070
    73
1070
     1
1070
    44
1040
1.0
1070
    74
1070
     0
1000
MTEXTEND
1000
MTEXTBEGIN
1070
    73
1070
     1
1070
    44
1040
1.0
1070
    74
1070
     0
1000
MTEXTEND
1000
MTEXTBEGIN
1070
    73
1070
     1
1070
    44
1040
1.0
1070
    74
1070
     0
1000
MTEXTEND
1000
MTEXTBEGIN
1070
    73
1070
     1
1070
    44
1040
1.0
1070
    74
1070
     0
1000
MTEXTEND
  0
TEXT
  5
32F4
330
1F
100
AcDbEntity
  8
SUNPO
 62
     7
100
AcDbText
 10
2237.407130820214
 20
2496.095507917059
 30
0.0
 40
36.0
  1
100
 50
90.0
  7
ADD
100
AcDbText
1001
ACAD
1000
MTEXTBEGIN
1070
    73
1070
     1
1070
    44
1040
1.0
1070
    74
1070
     0
1000
MTEXTEND
1000
MTEXTBEGIN
1070
    73
1070
     1
1070
    44
1040
1.0
1070
    74
1070
     0
1000
MTEXTEND
1000
MTEXTBEGIN
1070
    73
1070
     1
1070
    44
1040
1.0
1070
    74
1070
     0
1000
MTEXTEND
1000
MTEXTBEGIN
1070
    73
1070
     1
1070
    44
1040
1.0
1070
    74
1070
     0
1000
MTEXTEND
1000
MTEXTBEGIN
1070
    73
1070
     1
1070
    44
1040
1.0
1070
    74
1070
     0
1000
MTEXTEND
1000
MTEXTBEGIN
1070
    73
1070
     1
1070
    44
1040
1.0
1070
    74
1070
     0
1000
MTEXTEND
1000
MTEXTBEGIN
1070
    73
1070
     1
1070
    44
1040
1.0
1070
    74
1070
     0
1000
MTEXTEND
1000
MTEXTBEGIN
1070
    73
1070
     1
1070
    44
1040
1.0
1070
    74
1070
     0
1000
MTEXTEND
1000
MTEXTBEGIN
1070
    73
1070
     1
1070
    44
1040
1.0
1070
    74
1070
     0
1000
MTEXTEND
1000
MTEXTBEGIN
1070
    73
1070
     1
1070
    44
1040
1.0
1070
    74
1070
     0
1000
MTEXTEND
1000
MTEXTBEGIN
1070
    73
1070
     1
1070
    44
1040
1.0
1070
    74
1070
     0
1000
MTEXTEND
  0
TEXT
  5
32F5
330
1F
100
AcDbEntity
  8
SUNPO
 62
     7
100
AcDbText
 10
1979.449440407037
 20
2762.592869179785
 30
0.0
 40
36.0
  1
3
  7
ADD
100
AcDbText
1001
ACAD
1000
MTEXTBEGIN
1070
    73
1070
     1
1070
    44
1040
1.0
1070
    74
1070
     0
1000
MTEXTEND
1000
MTEXTBEGIN
1070
    73
1070
     1
1070
    44
1040
1.0
1070
    74
1070
     0
1000
MTEXTEND
1000
MTEXTBEGIN
1070
    73
1070
     1
1070
    44
1040
1.0
1070
    74
1070
     0
1000
MTEXTEND
1000
MTEXTBEGIN
1070
    73
1070
     1
1070
    44
1040
1.0
1070
    74
1070
     0
1000
MTEXTEND
1000
MTEXTBEGIN
1070
    73
1070
     1
1070
    44
1040
1.0
1070
    74
1070
     0
1000
MTEXTEND
1000
MTEXTBEGIN
1070
    73
1070
     1
1070
    44
1040
1.0
1070
    74
1070
     0
1000
MTEXTEND
1000
MTEXTBEGIN
1070
    73
1070
     1
1070
    44
1040
1.0
1070
    74
1070
     0
1000
MTEXTEND
1000
MTEXTBEGIN
1070
    73
1070
     1
1070
    44
1040
1.0
1070
    74
1070
     0
1000
MTEXTEND
1000
MTEXTBEGIN
1070
    73
1070
     1
1070
    44
1040
1.0
1070
    74
1070
     0
1000
MTEXTEND
1000
MTEXTBEGIN
1070
    73
1070
     1
1070
    44
1040
1.0
1070
    74
1070
     0
1000
MTEXTEND
1000
MTEXTBEGIN
1070
    73
1070
     1
1070
    44
1040
1.0
1070
    74
1070
     0
1000
MTEXTEND
  0
TEXT
  5
32F6
330
1F
100
AcDbEntity
  8
SUNPO
 62
     7
100
AcDbText
 10
1996.238365059916
 20
2712.592869179785
 30
0.0
 40
36.0
  1
55
  7
ADD
100
AcDbText
1001
ACAD
1000
MTEXTBEGIN
1070
    73
1070
     1
1070
    44
1040
1.0
1070
    74
1070
     0
1000
MTEXTEND
1000
MTEXTBEGIN
1070
    73
1070
     1
1070
    44
1040
1.0
1070
    74
1070
     0
1000
MTEXTEND
1000
MTEXTBEGIN
1070
    73
1070
     1
1070
    44
1040
1.0
1070
    74
1070
     0
1000
MTEXTEND
1000
MTEXTBEGIN
1070
    73
1070
     1
1070
    44
1040
1.0
1070
    74
1070
     0
1000
MTEXTEND
1000
MTEXTBEGIN
1070
    73
1070
     1
1070
    44
1040
1.0
1070
    74
1070
     0
1000
MTEXTEND
1000
MTEXTBEGIN
1070
    73
1070
     1
1070
    44
1040
1.0
1070
    74
1070
     0
1000
MTEXTEND
1000
MTEXTBEGIN
1070
    73
1070
     1
1070
    44
1040
1.0
1070
    74
1070
     0
1000
MTEXTEND
1000
MTEXTBEGIN
1070
    73
1070
     1
1070
    44
1040
1.0
1070
    74
1070
     0
1000
MTEXTEND
1000
MTEXTBEGIN
1070
    73
1070
     1
1070
    44
1040
1.0
1070
    74
1070
     0
1000
MTEXTEND
1000
MTEXTBEGIN
1070
    73
1070
     1
1070
    44
1040
1.0
1070
    74
1070
     0
1000
MTEXTEND
1000
MTEXTBEGIN
1070
    73
1070
     1
1070
    44
1040
1.0
1070
    74
1070
     0
1000
MTEXTEND
  0
TEXT
  5
32F7
330
1F
100
AcDbEntity
  8
SUNPO
 62
     7
100
AcDbText
 10
1932.778042744544
 20
2712.592869179785
 30
0.0
 40
36.0
  1
47
  7
ADD
100
AcDbText
1001
ACAD
1000
MTEXTBEGIN
1070
    73
1070
     1
1070
    44
1040
1.0
1070
    74
1070
     0
1000
MTEXTEND
1000
MTEXTBEGIN
1070
    73
1070
     1
1070
    44
1040
1.0
1070
    74
1070
     0
1000
MTEXTEND
1000
MTEXTBEGIN
1070
    73
1070
     1
1070
    44
1040
1.0
1070
    74
1070
     0
1000
MTEXTEND
1000
MTEXTBEGIN
1070
    73
1070
     1
1070
    44
1040
1.0
1070
    74
1070
     0
1000
MTEXTEND
1000
MTEXTBEGIN
1070
    73
1070
     1
1070
    44
1040
1.0
1070
    74
1070
     0
1000
MTEXTEND
1000
MTEXTBEGIN
1070
    73
1070
     1
1070
    44
1040
1.0
1070
    74
1070
     0
1000
MTEXTEND
1000
MTEXTBEGIN
1070
    73
1070
     1
1070
    44
1040
1.0
1070
    74
1070
     0
1000
MTEXTEND
1000
MTEXTBEGIN
1070
    73
1070
     1
1070
    44
1040
1.0
1070
    74
1070
     0
1000
MTEXTEND
1000
MTEXTBEGIN
1070
    73
1070
     1
1070
    44
1040
1.0
1070
    74
1070
     0
1000
MTEXTEND
1000
MTEXTBEGIN
1070
    73
1070
     1
1070
    44
1040
1.0
1070
    74
1070
     0
1000
MTEXTEND
1000
MTEXTBEGIN
1070
    73
1070
     1
1070
    44
1040
1.0
1070
    74
1070
     0
1000
MTEXTEND
  0
TEXT
  5
32F8
330
1F
100
AcDbEntity
  8
SUNPO
 62
     7
100
AcDbText
 10
1591.238365059916
 20
2412.592869179785
 30
0.0
 40
36.0
  1
70
  7
ADD
100
AcDbText
1001
ACAD
1000
MTEXTBEGIN
1070
    73
1070
     1
1070
    44
1040
1.0
1070
    74
1070
     0
1000
MTEXTEND
1000
MTEXTBEGIN
1070
    73
1070
     1
1070
    44
1040
1.0
1070
    74
1070
     0
1000
MTEXTEND
1000
MTEXTBEGIN
1070
    73
1070
     1
1070
    44
1040
1.0
1070
    74
1070
     0
1000
MTEXTEND
1000
MTEXTBEGIN
1070
    73
1070
     1
1070
    44
1040
1.0
1070
    74
1070
     0
1000
MTEXTEND
1000
MTEXTBEGIN
1070
    73
1070
     1
1070
    44
1040
1.0
1070
    74
1070
     0
1000
MTEXTEND
1000
MTEXTBEGIN
1070
    73
1070
     1
1070
    44
1040
1.0
1070
    74
1070
     0
1000
MTEXTEND
1000
MTEXTBEGIN
1070
    73
1070
     1
1070
    44
1040
1.0
1070
    74
1070
     0
1000
MTEXTEND
1000
MTEXTBEGIN
1070
    73
1070
     1
1070
    44
1040
1.0
1070
    74
1070
     0
1000
MTEXTEND
1000
MTEXTBEGIN
1070
    73
1070
     1
1070
    44
1040
1.0
1070
    74
1070
     0
1000
MTEXTEND
1000
MTEXTBEGIN
1070
    73
1070
     1
1070
    44
1040
1.0
1070
    74
1070
     0
1000
MTEXTEND
1000
MTEXTBEGIN
1070
    73
1070
     1
1070
    44
1040
1.0
1070
    74
1070
     0
1000
MTEXTEND
  0
TEXT
  5
32F9
330
1F
100
AcDbEntity
  8
SUNPO
 62
     7
100
AcDbText
 10
1584.449440407037
 20
2762.592869179785
 30
0.0
 40
36.0
  1
3
  7
ADD
100
AcDbText
1001
ACAD
1000
MTEXTBEGIN
1070
    73
1070
     1
1070
    44
1040
1.0
1070
    74
1070
     0
1000
MTEXTEND
1000
MTEXTBEGIN
1070
    73
1070
     1
1070
    44
1040
1.0
1070
    74
1070
     0
1000
MTEXTEND
1000
MTEXTBEGIN
1070
    73
1070
     1
1070
    44
1040
1.0
1070
    74
1070
     0
1000
MTEXTEND
1000
MTEXTBEGIN
1070
    73
1070
     1
1070
    44
1040
1.0
1070
    74
1070
     0
1000
MTEXTEND
1000
MTEXTBEGIN
1070
    73
1070
     1
1070
    44
1040
1.0
1070
    74
1070
     0
1000
MTEXTEND
1000
MTEXTBEGIN
1070
    73
1070
     1
1070
    44
1040
1.0
1070
    74
1070
     0
1000
MTEXTEND
1000
MTEXTBEGIN
1070
    73
1070
     1
1070
    44
1040
1.0
1070
    74
1070
     0
1000
MTEXTEND
1000
MTEXTBEGIN
1070
    73
1070
     1
1070
    44
1040
1.0
1070
    74
1070
     0
1000
MTEXTEND
1000
MTEXTBEGIN
1070
    73
1070
     1
1070
    44
1040
1.0
1070
    74
1070
     0
1000
MTEXTEND
1000
MTEXTBEGIN
1070
    73
1070
     1
1070
    44
1040
1.0
1070
    74
1070
     0
1000
MTEXTEND
1000
MTEXTBEGIN
1070
    73
1070
     1
1070
    44
1040
1.0
1070
    74
1070
     0
1000
MTEXTEND
  0
TEXT
  5
32FA
330
1F
100
AcDbEntity
  8
SUNPO
 62
     7
100
AcDbText
 10
1597.778042744544
 20
2712.592869179785
 30
0.0
 40
36.0
  1
47
  7
ADD
100
AcDbText
1001
ACAD
1000
MTEXTBEGIN
1070
    73
1070
     1
1070
    44
1040
1.0
1070
    74
1070
     0
1000
MTEXTEND
1000
MTEXTBEGIN
1070
    73
1070
     1
1070
    44
1040
1.0
1070
    74
1070
     0
1000
MTEXTEND
1000
MTEXTBEGIN
1070
    73
1070
     1
1070
    44
1040
1.0
1070
    74
1070
     0
1000
MTEXTEND
1000
MTEXTBEGIN
1070
    73
1070
     1
1070
    44
1040
1.0
1070
    74
1070
     0
1000
MTEXTEND
1000
MTEXTBEGIN
1070
    73
1070
     1
1070
    44
1040
1.0
1070
    74
1070
     0
1000
MTEXTEND
1000
MTEXTBEGIN
1070
    73
1070
     1
1070
    44
1040
1.0
1070
    74
1070
     0
1000
MTEXTEND
1000
MTEXTBEGIN
1070
    73
1070
     1
1070
    44
1040
1.0
1070
    74
1070
     0
1000
MTEXTEND
1000
MTEXTBEGIN
1070
    73
1070
     1
1070
    44
1040
1.0
1070
    74
1070
     0
1000
MTEXTEND
1000
MTEXTBEGIN
1070
    73
1070
     1
1070
    44
1040
1.0
1070
    74
1070
     0
1000
MTEXTEND
1000
MTEXTBEGIN
1070
    73
1070
     1
1070
    44
1040
1.0
1070
    74
1070
     0
1000
MTEXTEND
1000
MTEXTBEGIN
1070
    73
1070
     1
1070
    44
1040
1.0
1070
    74
1070
     0
1000
MTEXTEND
  0
TEXT
  5
32FB
330
1F
100
AcDbEntity
  8
SUNPO
 62
     7
100
AcDbText
 10
1536.238365059916
 20
2712.592869179785
 30
0.0
 40
36.0
  1
55
  7
ADD
100
AcDbText
1001
ACAD
1000
MTEXTBEGIN
1070
    73
1070
     1
1070
    44
1040
1.0
1070
    74
1070
     0
1000
MTEXTEND
1000
MTEXTBEGIN
1070
    73
1070
     1
1070
    44
1040
1.0
1070
    74
1070
     0
1000
MTEXTEND
1000
MTEXTBEGIN
1070
    73
1070
     1
1070
    44
1040
1.0
1070
    74
1070
     0
1000
MTEXTEND
1000
MTEXTBEGIN
1070
    73
1070
     1
1070
    44
1040
1.0
1070
    74
1070
     0
1000
MTEXTEND
1000
MTEXTBEGIN
1070
    73
1070
     1
1070
    44
1040
1.0
1070
    74
1070
     0
1000
MTEXTEND
1000
MTEXTBEGIN
1070
    73
1070
     1
1070
    44
1040
1.0
1070
    74
1070
     0
1000
MTEXTEND
1000
MTEXTBEGIN
1070
    73
1070
     1
1070
    44
1040
1.0
1070
    74
1070
     0
1000
MTEXTEND
1000
MTEXTBEGIN
1070
    73
1070
     1
1070
    44
1040
1.0
1070
    74
1070
     0
1000
MTEXTEND
1000
MTEXTBEGIN
1070
    73
1070
     1
1070
    44
1040
1.0
1070
    74
1070
     0
1000
MTEXTEND
1000
MTEXTBEGIN
1070
    73
1070
     1
1070
    44
1040
1.0
1070
    74
1070
     0
1000
MTEXTEND
1000
MTEXTBEGIN
1070
    73
1070
     1
1070
    44
1040
1.0
1070
    74
1070
     0
1000
MTEXTEND
  0
ARC
  5
32FC
330
1F
100
AcDbEntity
  8
SUNPO
 62
   144
100
AcDbCircle
 10
1980.0
 20
2130.0
 30
0.0
 40
31.6227766016851
100
AcDbArc
 50
0.0000000000000509
 51
45.00000000000052
  0
ARC
  5
32FE
330
1F
100
AcDbEntity
  8
SUNPO
 62
   144
100
AcDbCircle
 10
2010.0
 20
2410.0
 30
0.0
 40
50.99019513592891
100
AcDbArc
 50
359.9999999999999
 51
44.99999999999995
  0
TEXT
  5
3300
330
1F
100
AcDbEntity
  8
SUNPO
100
AcDbText
 10
2288.571428571428
 20
370.0
 30
0.0
 40
80.0
  1
CH25-30-30
  7
ADD
100
AcDbText
1001
ACAD
1000
MTEXTBEGIN
1070
    73
1070
     1
1070
    44
1040
1.0
1070
    74
1070
     0
1000
MTEXTEND
1000
MTEXTBEGIN
1070
    73
1070
     1
1070
    44
1040
1.0
1070
    74
1070
     0
1000
MTEXTEND
1000
MTEXTBEGIN
1070
    73
1070
     1
1070
    44
1040
1.0
1070
    74
1070
     0
1000
MTEXTEND
1000
MTEXTBEGIN
1070
    73
1070
     1
1070
    44
1040
1.0
1070
    74
1070
     0
1000
MTEXTEND
1000
MTEXTBEGIN
1070
    73
1070
     1
1070
    44
1040
1.0
1070
    74
1070
     0
1000
MTEXTEND
1000
MTEXTBEGIN
1070
    73
1070
     1
1070
    44
1040
1.0
1070
    74
1070
     0
1000
MTEXTEND
1000
MTEXTBEGIN
1070
    73
1070
     1
1070
    44
1040
1.0
1070
    74
1070
     0
1000
MTEXTEND
1000
MTEXTBEGIN
1070
    73
1070
     1
1070
    44
1040
1.0
1070
    74
1070
     0
1000
MTEXTEND
1000
MTEXTBEGIN
1070
    73
1070
     1
1070
    44
1040
1.0
1070
    74
1070
     0
1000
MTEXTEND
1000
MTEXTBEGIN
1070
    73
1070
     1
1070
    44
1040
1.0
1070
    74
1070
     0
1000
MTEXTEND
1000
MTEXTBEGIN
1070
    73
1070
     1
1070
    44
1040
1.0
1070
    74
1070
     0
1000
MTEXTEND
1000
MTEXTBEGIN
1070
    73
1070
     1
1070
    44
1040
1.0
1070
    74
1070
     0
1000
MTEXTEND
1000
MTEXTBEGIN
1070
    73
1070
     1
1070
    44
1040
1.0
1070
    74
1070
     0
1000
MTEXTEND
1000
MTEXTBEGIN
1070
    73
1070
     1
1070
    44
1040
1.0
1070
    74
1070
     0
1000
MTEXTEND
1000
MTEXTBEGIN
1070
    73
1070
     1
1070
    44
1040
1.0
1070
    74
1070
     0
1000
MTEXTEND
1000
MTEXTBEGIN
1070
    73
1070
     1
1070
    44
1040
1.0
1070
    74
1070
     0
1000
MTEXTEND
1000
MTEXTBEGIN
1070
    73
1070
     1
1070
    44
1040
1.0
1070
    74
1070
     0
1000
MTEXTEND
1000
MTEXTBEGIN
1070
    73
1070
     1
1070
    44
1040
1.0
1070
    74
1070
     0
1000
MTEXTEND
1000
MTEXTBEGIN
1070
    73
1070
     1
1070
    44
1040
1.0
1070
    74
1070
     0
1000
MTEXTEND
1000
MTEXTBEGIN
1070
    73
1070
     1
1070
    44
1040
1.0
1070
    74
1070
     0
1000
MTEXTEND
1000
MTEXTBEGIN
1070
    73
1070
     1
1070
    44
1040
1.0
1070
    74
1070
     0
1000
MTEXTEND
1000
MTEXTBEGIN
1070
    73
1070
     1
1070
    44
1040
1.0
1070
    74
1070
     0
1000
MTEXTEND
1000
MTEXTBEGIN
1070
    73
1070
     1
1070
    44
1040
1.0
1070
    74
1070
     0
1000
MTEXTEND
1000
MTEXTBEGIN
1070
    73
1070
     1
1070
    44
1040
1.0
1070
    74
1070
     0
1000
MTEXTEND
1000
MTEXTBEGIN
1070
    73
1070
     1
1070
    44
1040
1.0
1070
    74
1070
     0
1000
MTEXTEND
  0
TEXT
  5
3301
330
1F
100
AcDbEntity
  8
SUNPO
100
AcDbText
 10
750.0
 20
370.0
 30
0.0
 40
80.0
  1
千葉県型側溝（路側用）
  7
ADD
100
AcDbText
1001
ACAD
1000
MTEXTBEGIN
1070
    73
1070
     1
1070
    44
1040
1.0
1070
    74
1070
     0
1000
MTEXTEND
1000
MTEXTBEGIN
1070
    73
1070
     1
1070
    44
1040
1.0
1070
    74
1070
     0
1000
MTEXTEND
1000
MTEXTBEGIN
1070
    73
1070
     1
1070
    44
1040
1.0
1070
    74
1070
     0
1000
MTEXTEND
1000
MTEXTBEGIN
1070
    73
1070
     1
1070
    44
1040
1.0
1070
    74
1070
     0
1000
MTEXTEND
1000
MTEXTBEGIN
1070
    73
1070
     1
1070
    44
1040
1.0
1070
    74
1070
     0
1000
MTEXTEND
1000
MTEXTBEGIN
1070
    73
1070
     1
1070
    44
1040
1.0
1070
    74
1070
     0
1000
MTEXTEND
1000
MTEXTBEGIN
1070
    73
1070
     1
1070
    44
1040
1.0
1070
    74
1070
     0
1000
MTEXTEND
1000
MTEXTBEGIN
1070
    73
1070
     1
1070
    44
1040
1.0
1070
    74
1070
     0
1000
MTEXTEND
1000
MTEXTBEGIN
1070
    73
1070
     1
1070
    44
1040
1.0
1070
    74
1070
     0
1000
MTEXTEND
1000
MTEXTBEGIN
1070
    73
1070
     1
1070
    44
1040
1.0
1070
    74
1070
     0
1000
MTEXTEND
1000
MTEXTBEGIN
1070
    73
1070
     1
1070
    44
1040
1.0
1070
    74
1070
     0
1000
MTEXTEND
1000
MTEXTBEGIN
1070
    73
1070
     1
1070
    44
1040
1.0
1070
    74
1070
     0
1000
MTEXTEND
1000
MTEXTBEGIN
1070
    73
1070
     1
1070
    44
1040
1.0
1070
    74
1070
     0
1000
MTEXTEND
1000
MTEXTBEGIN
1070
    73
1070
     1
1070
    44
1040
1.0
1070
    74
1070
     0
1000
MTEXTEND
1000
MTEXTBEGIN
1070
    73
1070
     1
1070
    44
1040
1.0
1070
    74
1070
     0
1000
MTEXTEND
1000
MTEXTBEGIN
1070
    73
1070
     1
1070
    44
1040
1.0
1070
    74
1070
     0
1000
MTEXTEND
1000
MTEXTBEGIN
1070
    73
1070
     1
1070
    44
1040
1.0
1070
    74
1070
     0
1000
MTEXTEND
1000
MTEXTBEGIN
1070
    73
1070
     1
1070
    44
1040
1.0
1070
    74
1070
     0
1000
MTEXTEND
1000
MTEXTBEGIN
1070
    73
1070
     1
1070
    44
1040
1.0
1070
    74
1070
     0
1000
MTEXTEND
1000
MTEXTBEGIN
1070
    73
1070
     1
1070
    44
1040
1.0
1070
    74
1070
     0
1000
MTEXTEND
1000
MTEXTBEGIN
1070
    73
1070
     1
1070
    44
1040
1.0
1070
    74
1070
     0
1000
MTEXTEND
1000
MTEXTBEGIN
1070
    73
1070
     1
1070
    44
1040
1.0
1070
    74
1070
     0
1000
MTEXTEND
1000
MTEXTBEGIN
1070
    73
1070
     1
1070
    44
1040
1.0
1070
    74
1070
     0
1000
MTEXTEND
1000
MTEXTBEGIN
1070
    73
1070
     1
1070
    44
1040
1.0
1070
    74
1070
     0
1000
MTEXTEND
1000
MTEXTBEGIN
1070
    73
1070
     1
1070
    44
1040
1.0
1070
    74
1070
     0
1000
MTEXTEND
  0
TEXT
  5
3302
330
1F
100
AcDbEntity
  8
SUNPO
100
AcDbText
 10
3246.680311730542
 20
359.2274732162223
 30
0.0
 40
70.0
  1
１／２０
  7
ADD
100
AcDbText
1001
ACAD
1000
MTEXTBEGIN
1070
    73
1070
     1
1070
    44
1040
1.0
1070
    74
1070
     0
1000
MTEXTEND
1000
MTEXTBEGIN
1070
    73
1070
     1
1070
    44
1040
1.0
1070
    74
1070
     0
1000
MTEXTEND
1000
MTEXTBEGIN
1070
    73
1070
     1
1070
    44
1040
1.0
1070
    74
1070
     0
1000
MTEXTEND
1000
MTEXTBEGIN
1070
    73
1070
     1
1070
    44
1040
1.0
1070
    74
1070
     0
1000
MTEXTEND
1000
MTEXTBEGIN
1070
    73
1070
     1
1070
    44
1040
1.0
1070
    74
1070
     0
1000
MTEXTEND
1000
MTEXTBEGIN
1070
    73
1070
     1
1070
    44
1040
1.0
1070
    74
1070
     0
1000
MTEXTEND
1000
MTEXTBEGIN
1070
    73
1070
     1
1070
    44
1040
1.0
1070
    74
1070
     0
1000
MTEXTEND
1000
MTEXTBEGIN
1070
    73
1070
     1
1070
    44
1040
1.0
1070
    74
1070
     0
1000
MTEXTEND
1000
MTEXTBEGIN
1070
    73
1070
     1
1070
    44
1040
1.0
1070
    74
1070
     0
1000
MTEXTEND
1000
MTEXTBEGIN
1070
    73
1070
     1
1070
    44
1040
1.0
1070
    74
1070
     0
1000
MTEXTEND
1000
MTEXTBEGIN
1070
    73
1070
     1
1070
    44
1040
1.0
1070
    74
1070
     0
1000
MTEXTEND
1000
MTEXTBEGIN
1070
    73
1070
     1
1070
    44
1040
1.0
1070
    74
1070
     0
1000
MTEXTEND
1000
MTEXTBEGIN
1070
    73
1070
     1
1070
    44
1040
1.0
1070
    74
1070
     0
1000
MTEXTEND
1000
MTEXTBEGIN
1070
    73
1070
     1
1070
    44
1040
1.0
1070
    74
1070
     0
1000
MTEXTEND
1000
MTEXTBEGIN
1070
    73
1070
     1
1070
    44
1040
1.0
1070
    74
1070
     0
1000
MTEXTEND
1000
MTEXTBEGIN
1070
    73
1070
     1
1070
    44
1040
1.0
1070
    74
1070
     0
1000
MTEXTEND
1000
MTEXTBEGIN
1070
    73
1070
     1
1070
    44
1040
1.0
1070
    74
1070
     0
1000
MTEXTEND
1000
MTEXTBEGIN
1070
    73
1070
     1
1070
    44
1040
1.0
1070
    74
1070
     0
1000
MTEXTEND
1000
MTEXTBEGIN
1070
    73
1070
     1
1070
    44
1040
1.0
1070
    74
1070
     0
1000
MTEXTEND
1000
MTEXTBEGIN
1070
    73
1070
     1
1070
    44
1040
1.0
1070
    74
1070
     0
1000
MTEXTEND
1000
MTEXTBEGIN
1070
    73
1070
     1
1070
    44
1040
1.0
1070
    74
1070
     0
1000
MTEXTEND
1000
MTEXTBEGIN
1070
    73
1070
     1
1070
    44
1040
1.0
1070
    74
1070
     0
1000
MTEXTEND
1000
MTEXTBEGIN
1070
    73
1070
     1
1070
    44
1040
1.0
1070
    74
1070
     0
1000
MTEXTEND
1000
MTEXTBEGIN
1070
    73
1070
     1
1070
    44
1040
1.0
1070
    74
1070
     0
1000
MTEXTEND
1000
MTEXTBEGIN
1070
    73
1070
     1
1070
    44
1040
1.0
1070
    74
1070
     0
1000
MTEXTEND
  0
TEXT
  5
3303
330
1F
100
AcDbEntity
  8
SUNPO
100
AcDbText
 10
381.8862574011546
 20
488.6918916770627
 30
0.0
 40
50.0
  1
製品名
  7
ADD
100
AcDbText
1001
ACAD
1000
MTEXTBEGIN
1070
    73
1070
     1
1070
    44
1040
1.0
1070
    74
1070
     0
1000
MTEXTEND
1000
MTEXTBEGIN
1070
    73
1070
     1
1070
    44
1040
1.0
1070
    74
1070
     0
1000
MTEXTEND
1000
MTEXTBEGIN
1070
    73
1070
     1
1070
    44
1040
1.0
1070
    74
1070
     0
1000
MTEXTEND
1000
MTEXTBEGIN
1070
    73
1070
     1
1070
    44
1040
1.0
1070
    74
1070
     0
1000
MTEXTEND
1000
MTEXTBEGIN
1070
    73
1070
     1
1070
    44
1040
1.0
1070
    74
1070
     0
1000
MTEXTEND
1000
MTEXTBEGIN
1070
    73
1070
     1
1070
    44
1040
1.0
1070
    74
1070
     0
1000
MTEXTEND
1000
MTEXTBEGIN
1070
    73
1070
     1
1070
    44
1040
1.0
1070
    74
1070
     0
1000
MTEXTEND
1000
MTEXTBEGIN
1070
    73
1070
     1
1070
    44
1040
1.0
1070
    74
1070
     0
1000
MTEXTEND
1000
MTEXTBEGIN
1070
    73
1070
     1
1070
    44
1040
1.0
1070
    74
1070
     0
1000
MTEXTEND
1000
MTEXTBEGIN
1070
    73
1070
     1
1070
    44
1040
1.0
1070
    74
1070
     0
1000
MTEXTEND
1000
MTEXTBEGIN
1070
    73
1070
     1
1070
    44
1040
1.0
1070
    74
1070
     0
1000
MTEXTEND
1000
MTEXTBEGIN
1070
    73
1070
     1
1070
    44
1040
1.0
1070
    74
1070
     0
1000
MTEXTEND
1000
MTEXTBEGIN
1070
    73
1070
     1
1070
    44
1040
1.0
1070
    74
1070
     0
1000
MTEXTEND
1000
MTEXTBEGIN
1070
    73
1070
     1
1070
    44
1040
1.0
1070
    74
1070
     0
1000
MTEXTEND
1000
MTEXTBEGIN
1070
    73
1070
     1
1070
    44
1040
1.0
1070
    74
1070
     0
1000
MTEXTEND
1000
MTEXTBEGIN
1070
    73
1070
     1
1070
    44
1040
1.0
1070
    74
1070
     0
1000
MTEXTEND
1000
MTEXTBEGIN
1070
    73
1070
     1
1070
    44
1040
1.0
1070
    74
1070
     0
1000
MTEXTEND
1000
MTEXTBEGIN
1070
    73
1070
     1
1070
    44
1040
1.0
1070
    74
1070
     0
1000
MTEXTEND
1000
MTEXTBEGIN
1070
    73
1070
     1
1070
    44
1040
1.0
1070
    74
1070
     0
1000
MTEXTEND
1000
MTEXTBEGIN
1070
    73
1070
     1
1070
    44
1040
1.0
1070
    74
1070
     0
1000
MTEXTEND
1000
MTEXTBEGIN
1070
    73
1070
     1
1070
    44
1040
1.0
1070
    74
1070
     0
1000
MTEXTEND
1000
MTEXTBEGIN
1070
    73
1070
     1
1070
    44
1040
1.0
1070
    74
1070
     0
1000
MTEXTEND
1000
MTEXTBEGIN
1070
    73
1070
     1
1070
    44
1040
1.0
1070
    74
1070
     0
1000
MTEXTEND
1000
MTEXTBEGIN
1070
    73
1070
     1
1070
    44
1040
1.0
1070
    74
1070
     0
1000
MTEXTEND
1000
MTEXTBEGIN
1070
    73
1070
     1
1070
    44
1040
1.0
1070
    74
1070
     0
1000
MTEXTEND
  0
TEXT
  5
3304
330
1F
100
AcDbEntity
  8
SUNPO
100
AcDbText
 10
2276.290169028722
 20
494.4531736811823
 30
0.0
 40
50.0
  1
型式
  7
ADD
100
AcDbText
1001
ACAD
1000
MTEXTBEGIN
1070
    73
1070
     1
1070
    44
1040
1.0
1070
    74
1070
     0
1000
MTEXTEND
1000
MTEXTBEGIN
1070
    73
1070
     1
1070
    44
1040
1.0
1070
    74
1070
     0
1000
MTEXTEND
1000
MTEXTBEGIN
1070
    73
1070
     1
1070
    44
1040
1.0
1070
    74
1070
     0
1000
MTEXTEND
1000
MTEXTBEGIN
1070
    73
1070
     1
1070
    44
1040
1.0
1070
    74
1070
     0
1000
MTEXTEND
1000
MTEXTBEGIN
1070
    73
1070
     1
1070
    44
1040
1.0
1070
    74
1070
     0
1000
MTEXTEND
1000
MTEXTBEGIN
1070
    73
1070
     1
1070
    44
1040
1.0
1070
    74
1070
     0
1000
MTEXTEND
1000
MTEXTBEGIN
1070
    73
1070
     1
1070
    44
1040
1.0
1070
    74
1070
     0
1000
MTEXTEND
1000
MTEXTBEGIN
1070
    73
1070
     1
1070
    44
1040
1.0
1070
    74
1070
     0
1000
MTEXTEND
1000
MTEXTBEGIN
1070
    73
1070
     1
1070
    44
1040
1.0
1070
    74
1070
     0
1000
MTEXTEND
1000
MTEXTBEGIN
1070
    73
1070
     1
1070
    44
1040
1.0
1070
    74
1070
     0
1000
MTEXTEND
1000
MTEXTBEGIN
1070
    73
1070
     1
1070
    44
1040
1.0
1070
    74
1070
     0
1000
MTEXTEND
1000
MTEXTBEGIN
1070
    73
1070
     1
1070
    44
1040
1.0
1070
    74
1070
     0
1000
MTEXTEND
1000
MTEXTBEGIN
1070
    73
1070
     1
1070
    44
1040
1.0
1070
    74
1070
     0
1000
MTEXTEND
1000
MTEXTBEGIN
1070
    73
1070
     1
1070
    44
1040
1.0
1070
    74
1070
     0
1000
MTEXTEND
1000
MTEXTBEGIN
1070
    73
1070
     1
1070
    44
1040
1.0
1070
    74
1070
     0
1000
MTEXTEND
1000
MTEXTBEGIN
1070
    73
1070
     1
1070
    44
1040
1.0
1070
    74
1070
     0
1000
MTEXTEND
1000
MTEXTBEGIN
1070
    73
1070
     1
1070
    44
1040
1.0
1070
    74
1070
     0
1000
MTEXTEND
1000
MTEXTBEGIN
1070
    73
1070
     1
1070
    44
1040
1.0
1070
    74
1070
     0
1000
MTEXTEND
1000
MTEXTBEGIN
1070
    73
1070
     1
1070
    44
1040
1.0
1070
    74
1070
     0
1000
MTEXTEND
1000
MTEXTBEGIN
1070
    73
1070
     1
1070
    44
1040
1.0
1070
    74
1070
     0
1000
MTEXTEND
1000
MTEXTBEGIN
1070
    73
1070
     1
1070
    44
1040
1.0
1070
    74
1070
     0
1000
MTEXTEND
1000
MTEXTBEGIN
1070
    73
1070
     1
1070
    44
1040
1.0
1070
    74
1070
     0
1000
MTEXTEND
1000
MTEXTBEGIN
1070
    73
1070
     1
1070
    44
1040
1.0
1070
    74
1070
     0
1000
MTEXTEND
1000
MTEXTBEGIN
1070
    73
1070
     1
1070
    44
1040
1.0
1070
    74
1070
     0
1000
MTEXTEND
1000
MTEXTBEGIN
1070
    73
1070
     1
1070
    44
1040
1.0
1070
    74
1070
     0
1000
MTEXTEND
  0
TEXT
  5
3305
330
1F
100
AcDbEntity
  8
SUNPO
100
AcDbText
 10
3177.510249231658
 20
488.6918916770627
 30
0.0
 40
50.0
  1
縮尺
  7
ADD
100
AcDbText
1001
ACAD
1000
MTEXTBEGIN
1070
    73
1070
     1
1070
    44
1040
1.0
1070
    74
1070
     0
1000
MTEXTEND
1000
MTEXTBEGIN
1070
    73
1070
     1
1070
    44
1040
1.0
1070
    74
1070
     0
1000
MTEXTEND
1000
MTEXTBEGIN
1070
    73
1070
     1
1070
    44
1040
1.0
1070
    74
1070
     0
1000
MTEXTEND
1000
MTEXTBEGIN
1070
    73
1070
     1
1070
    44
1040
1.0
1070
    74
1070
     0
1000
MTEXTEND
1000
MTEXTBEGIN
1070
    73
1070
     1
1070
    44
1040
1.0
1070
    74
1070
     0
1000
MTEXTEND
1000
MTEXTBEGIN
1070
    73
1070
     1
1070
    44
1040
1.0
1070
    74
1070
     0
1000
MTEXTEND
1000
MTEXTBEGIN
1070
    73
1070
     1
1070
    44
1040
1.0
1070
    74
1070
     0
1000
MTEXTEND
1000
MTEXTBEGIN
1070
    73
1070
     1
1070
    44
1040
1.0
1070
    74
1070
     0
1000
MTEXTEND
1000
MTEXTBEGIN
1070
    73
1070
     1
1070
    44
1040
1.0
1070
    74
1070
     0
1000
MTEXTEND
1000
MTEXTBEGIN
1070
    73
1070
     1
1070
    44
1040
1.0
1070
    74
1070
     0
1000
MTEXTEND
1000
MTEXTBEGIN
1070
    73
1070
     1
1070
    44
1040
1.0
1070
    74
1070
     0
1000
MTEXTEND
1000
MTEXTBEGIN
1070
    73
1070
     1
1070
    44
1040
1.0
1070
    74
1070
     0
1000
MTEXTEND
1000
MTEXTBEGIN
1070
    73
1070
     1
1070
    44
1040
1.0
1070
    74
1070
     0
1000
MTEXTEND
1000
MTEXTBEGIN
1070
    73
1070
     1
1070
    44
1040
1.0
1070
    74
1070
     0
1000
MTEXTEND
1000
MTEXTBEGIN
1070
    73
1070
     1
1070
    44
1040
1.0
1070
    74
1070
     0
1000
MTEXTEND
1000
MTEXTBEGIN
1070
    73
1070
     1
1070
    44
1040
1.0
1070
    74
1070
     0
1000
MTEXTEND
1000
MTEXTBEGIN
1070
    73
1070
     1
1070
    44
1040
1.0
1070
    74
1070
     0
1000
MTEXTEND
1000
MTEXTBEGIN
1070
    73
1070
     1
1070
    44
1040
1.0
1070
    74
1070
     0
1000
MTEXTEND
1000
MTEXTBEGIN
1070
    73
1070
     1
1070
    44
1040
1.0
1070
    74
1070
     0
1000
MTEXTEND
1000
MTEXTBEGIN
1070
    73
1070
     1
1070
    44
1040
1.0
1070
    74
1070
     0
1000
MTEXTEND
1000
MTEXTBEGIN
1070
    73
1070
     1
1070
    44
1040
1.0
1070
    74
1070
     0
1000
MTEXTEND
1000
MTEXTBEGIN
1070
    73
1070
     1
1070
    44
1040
1.0
1070
    74
1070
     0
1000
MTEXTEND
1000
MTEXTBEGIN
1070
    73
1070
     1
1070
    44
1040
1.0
1070
    74
1070
     0
1000
MTEXTEND
1000
MTEXTBEGIN
1070
    73
1070
     1
1070
    44
1040
1.0
1070
    74
1070
     0
1000
MTEXTEND
1000
MTEXTBEGIN
1070
    73
1070
     1
1070
    44
1040
1.0
1070
    74
1070
     0
1000
MTEXTEND
  0
TEXT
  5
3306
330
1F
100
AcDbEntity
  8
SUNPO
100
AcDbText
 10
3730.870883051572
 20
352.2726133092145
 30
0.0
 40
100.0
  1
千葉県コンクリート製品協同組合
  7
ADD
100
AcDbText
1001
ACAD
1000
MTEXTBEGIN
1070
    73
1070
     1
1070
    44
1040
1.0
1070
    74
1070
     0
1000
MTEXTEND
1000
MTEXTBEGIN
1070
    73
1070
     1
1070
    44
1040
1.0
1070
    74
1070
     0
1000
MTEXTEND
1000
MTEXTBEGIN
1070
    73
1070
     1
1070
    44
1040
1.0
1070
    74
1070
     0
1000
MTEXTEND
1000
MTEXTBEGIN
1070
    73
1070
     1
1070
    44
1040
1.0
1070
    74
1070
     0
1000
MTEXTEND
1000
MTEXTBEGIN
1070
    73
1070
     1
1070
    44
1040
1.0
1070
    74
1070
     0
1000
MTEXTEND
1000
MTEXTBEGIN
1070
    73
1070
     1
1070
    44
1040
1.0
1070
    74
1070
     0
1000
MTEXTEND
1000
MTEXTBEGIN
1070
    73
1070
     1
1070
    44
1040
1.0
1070
    74
1070
     0
1000
MTEXTEND
1000
MTEXTBEGIN
1070
    73
1070
     1
1070
    44
1040
1.0
1070
    74
1070
     0
1000
MTEXTEND
1000
MTEXTBEGIN
1070
    73
1070
     1
1070
    44
1040
1.0
1070
    74
1070
     0
1000
MTEXTEND
1000
MTEXTBEGIN
1070
    73
1070
     1
1070
    44
1040
1.0
1070
    74
1070
     0
1000
MTEXTEND
1000
MTEXTBEGIN
1070
    73
1070
     1
1070
    44
1040
1.0
1070
    74
1070
     0
1000
MTEXTEND
1000
MTEXTBEGIN
1070
    73
1070
     1
1070
    44
1040
1.0
1070
    74
1070
     0
1000
MTEXTEND
1000
MTEXTBEGIN
1070
    73
1070
     1
1070
    44
1040
1.0
1070
    74
1070
     0
1000
MTEXTEND
1000
MTEXTBEGIN
1070
    73
1070
     1
1070
    44
1040
1.0
1070
    74
1070
     0
1000
MTEXTEND
1000
MTEXTBEGIN
1070
    73
1070
     1
1070
    44
1040
1.0
1070
    74
1070
     0
1000
MTEXTEND
1000
MTEXTBEGIN
1070
    73
1070
     1
1070
    44
1040
1.0
1070
    74
1070
     0
1000
MTEXTEND
1000
MTEXTBEGIN
1070
    73
1070
     1
1070
    44
1040
1.0
1070
    74
1070
     0
1000
MTEXTEND
1000
MTEXTBEGIN
1070
    73
1070
     1
1070
    44
1040
1.0
1070
    74
1070
     0
1000
MTEXTEND
1000
MTEXTBEGIN
1070
    73
1070
     1
1070
    44
1040
1.0
1070
    74
1070
     0
1000
MTEXTEND
1000
MTEXTBEGIN
1070
    73
1070
     1
1070
    44
1040
1.0
1070
    74
1070
     0
1000
MTEXTEND
1000
MTEXTBEGIN
1070
    73
1070
     1
1070
    44
1040
1.0
1070
    74
1070
     0
1000
MTEXTEND
1000
MTEXTBEGIN
1070
    73
1070
     1
1070
    44
1040
1.0
1070
    74
1070
     0
1000
MTEXTEND
1000
MTEXTBEGIN
1070
    73
1070
     1
1070
    44
1040
1.0
1070
    74
1070
     0
1000
MTEXTEND
1000
MTEXTBEGIN
1070
    73
1070
     1
1070
    44
1040
1.0
1070
    74
1070
     0
1000
MTEXTEND
1000
MTEXTBEGIN
1070
    73
1070
     1
1070
    44
1040
1.0
1070
    74
1070
     0
1000
MTEXTEND
  0
LINE
  5
3307
330
1F
100
AcDbEntity
  8
3C1
100
AcDbLine
 10
360.0
 20
260.0
 30
0.0
 11
5580.0
 21
260.0
 31
0.0
  0
LINE
  5
3308
330
1F
100
AcDbEntity
  8
3C1
100
AcDbLine
 10
5580.0
 20
260.0
 30
0.0
 11
5580.0
 21
3940.0
 31
0.0
  0
LINE
  5
3309
330
1F
100
AcDbEntity
  8
3C1
100
AcDbLine
 10
5580.0
 20
3940.0
 30
0.0
 11
360.0
 21
3940.0
 31
0.0
  0
LINE
  5
330A
330
1F
100
AcDbEntity
  8
3C1
100
AcDbLine
 10
360.0
 20
3940.0
 30
0.0
 11
360.0
 21
260.0
 31
0.0
  0
LINE
  5
330B
330
1F
100
AcDbEntity
  8
HOJO
100
AcDbLine
 10
0.0
 20
0.0
 30
0.0
 11
5940.0
 21
0.0
 31
0.0
  0
LINE
  5
330C
330
1F
100
AcDbEntity
  8
HOJO
100
AcDbLine
 10
5940.0
 20
0.0
 30
0.0
 11
5940.0
 21
4200.0
 31
0.0
  0
LINE
  5
330D
330
1F
100
AcDbEntity
  8
HOJO
100
AcDbLine
 10
5940.0
 20
4200.0
 30
0.0
 11
0.0
 21
4200.0
 31
0.0
  0
LINE
  5
330E
330
1F
100
AcDbEntity
  8
HOJO
100
AcDbLine
 10
0.0
 20
4200.0
 30
0.0
 11
0.0
 21
0.0
 31
0.0
  0
TEXT
  5
330F
330
1F
100
AcDbEntity
  8
SUNPO
 62
     7
100
AcDbText
 10
2071.542857142855
 20
2417.0
 30
0.0
 40
36.0
  1
45°
  7
ADD
100
AcDbText
1001
ACAD
1000
MTEXTBEGIN
1070
    73
1070
     1
1070
    44
1040
1.0
1070
    74
1070
     0
1000
MTEXTEND
1000
MTEXTBEGIN
1070
    73
1070
     1
1070
    44
1040
1.0
1070
    74
1070
     0
1000
MTEXTEND
1000
MTEXTBEGIN
1070
    73
1070
     1
1070
    44
1040
1.0
1070
    74
1070
     0
1000
MTEXTEND
1000
MTEXTBEGIN
1070
    73
1070
     1
1070
    44
1040
1.0
1070
    74
1070
     0
1000
MTEXTEND
1000
MTEXTBEGIN
1070
    73
1070
     1
1070
    44
1040
1.0
1070
    74
1070
     0
1000
MTEXTEND
1000
MTEXTBEGIN
1070
    73
1070
     1
1070
    44
1040
1.0
1070
    74
1070
     0
1000
MTEXTEND
1000
MTEXTBEGIN
1070
    73
1070
     1
1070
    44
1040
1.0
1070
    74
1070
     0
1000
MTEXTEND
1000
MTEXTBEGIN
1070
    73
1070
     1
1070
    44
1040
1.0
1070
    74
1070
     0
1000
MTEXTEND
1000
MTEXTBEGIN
1070
    73
1070
     1
1070
    44
1040
1.0
1070
    74
1070
     0
1000
MTEXTEND
  0
TEXT
  5
3310
330
1F
100
AcDbEntity
  8
SUNPO
 62
     7
100
AcDbText
 10
2021.542857142855
 20
2137.0
 30
0.0
 40
36.0
  1
45°
  7
ADD
100
AcDbText
1001
ACAD
1000
MTEXTBEGIN
1070
    73
1070
     1
1070
    44
1040
1.0
1070
    74
1070
     0
1000
MTEXTEND
1000
MTEXTBEGIN
1070
    73
1070
     1
1070
    44
1040
1.0
1070
    74
1070
     0
1000
MTEXTEND
1000
MTEXTBEGIN
1070
    73
1070
     1
1070
    44
1040
1.0
1070
    74
1070
     0
1000
MTEXTEND
1000
MTEXTBEGIN
1070
    73
1070
     1
1070
    44
1040
1.0
1070
    74
1070
     0
1000
MTEXTEND
1000
MTEXTBEGIN
1070
    73
1070
     1
1070
    44
1040
1.0
1070
    74
1070
     0
1000
MTEXTEND
1000
MTEXTBEGIN
1070
    73
1070
     1
1070
    44
1040
1.0
1070
    74
1070
     0
1000
MTEXTEND
1000
MTEXTBEGIN
1070
    73
1070
     1
1070
    44
1040
1.0
1070
    74
1070
     0
1000
MTEXTEND
1000
MTEXTBEGIN
1070
    73
1070
     1
1070
    44
1040
1.0
1070
    74
1070
     0
1000
MTEXTEND
1000
MTEXTBEGIN
1070
    73
1070
     1
1070
    44
1040
1.0
1070
    74
1070
     0
1000
MTEXTEND
  0
LINE
  5
3311
330
1F
100
AcDbEntity
  8
SUNPO
100
AcDbLine
 10
1624.999999999999
 20
2700.0
 30
0.0
 11
1649.999999999999
 21
2700.0
 31
0.0
1001
ACAD
1000
DSTYLE
1002
{
1070
     5
1000

1070
    40
1040
20.0
1070
    41
1040
1.1
1070
    77
1070
     0
1070
   140
1040
1.8
1070
   141
1040
1.399999999999999
1070
   147
1040
0.625
1070
   342
1005
0
1070
   372
1070
    -1
1002
}
  0
LINE
  5
3312
330
1F
100
AcDbEntity
  8
SUNPO
100
AcDbLine
 10
1627.999999999999
 20
2700.0
 30
0.0
 11
1602.999999999999
 21
2700.0
 31
0.0
1001
ACAD
1000
DSTYLE
1002
{
1070
     5
1000

1070
    40
1040
20.0
1070
    41
1040
1.1
1070
    77
1070
     0
1070
   140
1040
1.8
1070
   141
1040
1.399999999999999
1070
   147
1040
0.625
1070
   342
1005
0
1070
   372
1070
    -1
1002
}
  0
LINE
  5
3313
330
1F
100
AcDbEntity
  8
SUNPO
100
AcDbLine
 10
1578.0
 20
2700.0
 30
0.0
 11
1553.0
 21
2700.0
 31
0.0
1001
ACAD
1000
DSTYLE
1002
{
1070
     5
1000

1070
    40
1040
20.0
1070
    41
1040
1.1
1070
    77
1070
     0
1070
   140
1040
1.8
1070
   141
1040
1.399999999999999
1070
   147
1040
0.625
1070
   342
1005
0
1070
   372
1070
    -1
1002
}
  0
LINE
  5
3314
330
1F
100
AcDbEntity
  8
SUNPO
100
AcDbLine
 10
1566.999999999999
 20
2700.0
 30
0.0
 11
1591.999999999999
 21
2700.0
 31
0.0
1001
ACAD
1000
DSTYLE
1002
{
1070
     5
1000

1070
    40
1040
20.0
1070
    41
1040
1.1
1070
    77
1070
     0
1070
   140
1040
1.8
1070
   141
1040
1.399999999999999
1070
   147
1040
0.625
1070
   342
1005
0
1070
   372
1070
    -1
1002
}
  0
LINE
  5
3315
330
1F
100
AcDbEntity
  8
SUNPO
100
AcDbLine
 10
1975.0
 20
2700.0
 30
0.0
 11
1950.0
 21
2700.0
 31
0.0
1001
ACAD
1000
DSTYLE
1002
{
1070
     5
1000

1070
    40
1040
20.0
1070
    41
1040
1.1
1070
    77
1070
     0
1070
   140
1040
1.8
1070
   141
1040
1.399999999999999
1070
   147
1040
0.625
1070
   342
1005
0
1070
   372
1070
    -1
1002
}
  0
LINE
  5
3316
330
1F
100
AcDbEntity
  8
SUNPO
100
AcDbLine
 10
1972.0
 20
2700.0
 30
0.0
 11
1997.0
 21
2700.0
 31
0.0
1001
ACAD
1000
DSTYLE
1002
{
1070
     5
1000

1070
    40
1040
20.0
1070
    41
1040
1.1
1070
    77
1070
     0
1070
   140
1040
1.8
1070
   141
1040
1.399999999999999
1070
   147
1040
0.625
1070
   342
1005
0
1070
   372
1070
    -1
1002
}
  0
LINE
  5
3317
330
1F
100
AcDbEntity
  8
SUNPO
100
AcDbLine
 10
2021.999999999999
 20
2700.0
 30
0.0
 11
2046.999999999999
 21
2700.0
 31
0.0
1001
ACAD
1000
DSTYLE
1002
{
1070
     5
1000

1070
    40
1040
20.0
1070
    41
1040
1.1
1070
    77
1070
     0
1070
   140
1040
1.8
1070
   141
1040
1.399999999999999
1070
   147
1040
0.625
1070
   342
1005
0
1070
   372
1070
    -1
1002
}
  0
LINE
  5
3318
330
1F
100
AcDbEntity
  8
SUNPO
100
AcDbLine
 10
2033.0
 20
2700.0
 30
0.0
 11
2008.0
 21
2700.0
 31
0.0
1001
ACAD
1000
DSTYLE
1002
{
1070
     5
1000

1070
    40
1040
20.0
1070
    41
1040
1.1
1070
    77
1070
     0
1070
   140
1040
1.8
1070
   141
1040
1.399999999999999
1070
   147
1040
0.625
1070
   342
1005
0
1070
   372
1070
    -1
1002
}
  0
TEXT
  5
3319
330
1F
100
AcDbEntity
  8
SUNPO
 62
     7
100
AcDbText
 10
1748.571428571428
 20
2712.5
 30
0.0
 40
36.0
  1
300
  7
ADD
100
AcDbText
1001
ACAD
1000
MTEXTBEGIN
1070
    73
1070
     1
1070
    44
1040
1.0
1070
    74
1070
     0
1000
MTEXTEND
1000
MTEXTBEGIN
1070
    73
1070
     1
1070
    44
1040
1.0
1070
    74
1070
     0
1000
MTEXTEND
1000
MTEXTBEGIN
1070
    73
1070
     1
1070
    44
1040
1.0
1070
    74
1070
     0
1000
MTEXTEND
1000
MTEXTBEGIN
1070
    73
1070
     1
1070
    44
1040
1.0
1070
    74
1070
     0
1000
MTEXTEND
1000
MTEXTBEGIN
1070
    73
1070
     1
1070
    44
1040
1.0
1070
    74
1070
     0
1000
MTEXTEND
1000
MTEXTBEGIN
1070
    73
1070
     1
1070
    44
1040
1.0
1070
    74
1070
     0
1000
MTEXTEND
1000
MTEXTBEGIN
1070
    73
1070
     1
1070
    44
1040
1.0
1070
    74
1070
     0
1000
MTEXTEND
  0
TEXT
  5
331A
330
1F
100
AcDbEntity
  8
SUNPO
 62
     7
100
AcDbText
 10
1748.571428571428
 20
2862.5
 30
0.0
 40
36.0
  1
510
  7
ADD
100
AcDbText
1001
ACAD
1000
MTEXTBEGIN
1070
    73
1070
     1
1070
    44
1040
1.0
1070
    74
1070
     0
1000
MTEXTEND
1000
MTEXTBEGIN
1070
    73
1070
     1
1070
    44
1040
1.0
1070
    74
1070
     0
1000
MTEXTEND
1000
MTEXTBEGIN
1070
    73
1070
     1
1070
    44
1040
1.0
1070
    74
1070
     0
1000
MTEXTEND
1000
MTEXTBEGIN
1070
    73
1070
     1
1070
    44
1040
1.0
1070
    74
1070
     0
1000
MTEXTEND
1000
MTEXTBEGIN
1070
    73
1070
     1
1070
    44
1040
1.0
1070
    74
1070
     0
1000
MTEXTEND
1000
MTEXTBEGIN
1070
    73
1070
     1
1070
    44
1040
1.0
1070
    74
1070
     0
1000
MTEXTEND
1000
MTEXTBEGIN
1070
    73
1070
     1
1070
    44
1040
1.0
1070
    74
1070
     0
1000
MTEXTEND
  0
TEXT
  5
331B
330
1F
100
AcDbEntity
  8
SUNPO
 62
     7
100
AcDbText
 10
3581.42857142857
 20
2812.5
 30
0.0
 40
36.0
  1
2000
  7
ADD
100
AcDbText
1001
ACAD
1000
MTEXTBEGIN
1070
    73
1070
     1
1070
    44
1040
1.0
1070
    74
1070
     0
1000
MTEXTEND
1000
MTEXTBEGIN
1070
    73
1070
     1
1070
    44
1040
1.0
1070
    74
1070
     0
1000
MTEXTEND
1000
MTEXTBEGIN
1070
    73
1070
     1
1070
    44
1040
1.0
1070
    74
1070
     0
1000
MTEXTEND
1000
MTEXTBEGIN
1070
    73
1070
     1
1070
    44
1040
1.0
1070
    74
1070
     0
1000
MTEXTEND
1000
MTEXTBEGIN
1070
    73
1070
     1
1070
    44
1040
1.0
1070
    74
1070
     0
1000
MTEXTEND
1000
MTEXTBEGIN
1070
    73
1070
     1
1070
    44
1040
1.0
1070
    74
1070
     0
1000
MTEXTEND
1000
MTEXTBEGIN
1070
    73
1070
     1
1070
    44
1040
1.0
1070
    74
1070
     0
1000
MTEXTEND
  0
TEXT
  5
331C
330
1F
100
AcDbEntity
  8
SUNPO
 62
     7
100
AcDbText
 10
1437.5
 20
2473.5
 30
0.0
 40
36.0
  1
145
 50
90.0
  7
ADD
100
AcDbText
1001
ACAD
1000
MTEXTBEGIN
1070
    73
1070
     1
1070
    44
1040
1.0
1070
    74
1070
     0
1000
MTEXTEND
1000
MTEXTBEGIN
1070
    73
1070
     1
1070
    44
1040
1.0
1070
    74
1070
     0
1000
MTEXTEND
1000
MTEXTBEGIN
1070
    73
1070
     1
1070
    44
1040
1.0
1070
    74
1070
     0
1000
MTEXTEND
1000
MTEXTBEGIN
1070
    73
1070
     1
1070
    44
1040
1.0
1070
    74
1070
     0
1000
MTEXTEND
1000
MTEXTBEGIN
1070
    73
1070
     1
1070
    44
1040
1.0
1070
    74
1070
     0
1000
MTEXTEND
1000
MTEXTBEGIN
1070
    73
1070
     1
1070
    44
1040
1.0
1070
    74
1070
     0
1000
MTEXTEND
1000
MTEXTBEGIN
1070
    73
1070
     1
1070
    44
1040
1.0
1070
    74
1070
     0
1000
MTEXTEND
  0
TEXT
  5
331D
330
1F
100
AcDbEntity
  8
SUNPO
 62
     7
100
AcDbText
 10
1337.499999999999
 20
2313.571428571429
 30
0.0
 40
36.0
  1
470
 50
90.0
  7
ADD
100
AcDbText
1001
ACAD
1000
MTEXTBEGIN
1070
    73
1070
     1
1070
    44
1040
1.0
1070
    74
1070
     0
1000
MTEXTEND
1000
MTEXTBEGIN
1070
    73
1070
     1
1070
    44
1040
1.0
1070
    74
1070
     0
1000
MTEXTEND
1000
MTEXTBEGIN
1070
    73
1070
     1
1070
    44
1040
1.0
1070
    74
1070
     0
1000
MTEXTEND
1000
MTEXTBEGIN
1070
    73
1070
     1
1070
    44
1040
1.0
1070
    74
1070
     0
1000
MTEXTEND
1000
MTEXTBEGIN
1070
    73
1070
     1
1070
    44
1040
1.0
1070
    74
1070
     0
1000
MTEXTEND
1000
MTEXTBEGIN
1070
    73
1070
     1
1070
    44
1040
1.0
1070
    74
1070
     0
1000
MTEXTEND
1000
MTEXTBEGIN
1070
    73
1070
     1
1070
    44
1040
1.0
1070
    74
1070
     0
1000
MTEXTEND
  0
TEXT
  5
331E
330
1F
100
AcDbEntity
  8
SUNPO
 62
     7
100
AcDbText
 10
1748.571428571428
 20
2012.5
 30
0.0
 40
36.0
  1
360
  7
ADD
100
AcDbText
1001
ACAD
1000
MTEXTBEGIN
1070
    73
1070
     1
1070
    44
1040
1.0
1070
    74
1070
     0
1000
MTEXTEND
1000
MTEXTBEGIN
1070
    73
1070
     1
1070
    44
1040
1.0
1070
    74
1070
     0
1000
MTEXTEND
1000
MTEXTBEGIN
1070
    73
1070
     1
1070
    44
1040
1.0
1070
    74
1070
     0
1000
MTEXTEND
1000
MTEXTBEGIN
1070
    73
1070
     1
1070
    44
1040
1.0
1070
    74
1070
     0
1000
MTEXTEND
1000
MTEXTBEGIN
1070
    73
1070
     1
1070
    44
1040
1.0
1070
    74
1070
     0
1000
MTEXTEND
1000
MTEXTBEGIN
1070
    73
1070
     1
1070
    44
1040
1.0
1070
    74
1070
     0
1000
MTEXTEND
1000
MTEXTBEGIN
1070
    73
1070
     1
1070
    44
1040
1.0
1070
    74
1070
     0
1000
MTEXTEND
  0
TEXT
  5
331F
330
1F
100
AcDbEntity
  8
SUNPO
 62
     7
100
AcDbText
 10
1505.714285714286
 20
2012.0
 30
0.0
 40
36.0
  1
30
  7
ADD
100
AcDbText
1001
ACAD
1000
MTEXTBEGIN
1070
    73
1070
     1
1070
    44
1040
1.0
1070
    74
1070
     0
1000
MTEXTEND
1000
MTEXTBEGIN
1070
    73
1070
     1
1070
    44
1040
1.0
1070
    74
1070
     0
1000
MTEXTEND
1000
MTEXTBEGIN
1070
    73
1070
     1
1070
    44
1040
1.0
1070
    74
1070
     0
1000
MTEXTEND
1000
MTEXTBEGIN
1070
    73
1070
     1
1070
    44
1040
1.0
1070
    74
1070
     0
1000
MTEXTEND
1000
MTEXTBEGIN
1070
    73
1070
     1
1070
    44
1040
1.0
1070
    74
1070
     0
1000
MTEXTEND
1000
MTEXTBEGIN
1070
    73
1070
     1
1070
    44
1040
1.0
1070
    74
1070
     0
1000
MTEXTEND
1000
MTEXTBEGIN
1070
    73
1070
     1
1070
    44
1040
1.0
1070
    74
1070
     0
1000
MTEXTEND
  0
LINE
  5
3320
330
1F
100
AcDbEntity
  8
SUNPO
100
AcDbLine
 10
2068.383826174652
 20
2614.70097893347
 30
0.0
 11
2110.0
 21
2660.0
 31
0.0
1001
ACAD
1000
DSTYLE
1002
{
1070
     5
1000

1070
    40
1040
20.0
1070
    77
1070
     0
1070
   140
1040
1.8
1070
   141
1040
1.399999999999999
1070
   147
1040
0.625
1070
   342
1005
0
1070
   372
1070
    -1
1002
}
  0
LINE
  5
3321
330
1F
100
AcDbEntity
  8
SUNPO
100
AcDbLine
 10
2110.0
 20
2660.0
 30
0.0
 11
2190.0
 21
2660.0
 31
0.0
1001
ACAD
1000
DSTYLE
1002
{
1070
     5
1000

1070
    40
1040
20.0
1070
    77
1070
     0
1070
   140
1040
1.8
1070
   141
1040
1.399999999999999
1070
   147
1040
0.625
1070
   342
1005
0
1070
   372
1070
    -1
1002
}
  0
LINE
  5
3322
330
1F
100
AcDbEntity
  8
SUNPO
100
AcDbLine
 10
2638.979600160758
 20
2119.92197662189
 30
0.0
 11
2570.0
 21
2055.0
 31
0.0
1001
ACAD
1000
DSTYLE
1002
{
1070
     5
1000

1070
    40
1040
20.0
1070
    77
1070
     0
1070
   140
1040
1.8
1070
   141
1040
1.399999999999999
1070
   147
1040
0.625
1070
   342
1005
0
1070
   372
1070
    -1
1002
}
  0
LINE
  5
3323
330
1F
100
AcDbEntity
  8
SUNPO
100
AcDbLine
 10
2570.0
 20
2055.0
 30
0.0
 11
2475.0
 21
2055.0
 31
0.0
1001
ACAD
1000
DSTYLE
1002
{
1070
     5
1000

1070
    40
1040
20.0
1070
    77
1070
     0
1070
   140
1040
1.8
1070
   141
1040
1.399999999999999
1070
   147
1040
0.625
1070
   342
1005
0
1070
   372
1070
    -1
1002
}
  0
TEXT
  5
3324
330
1F
100
AcDbEntity
  8
SUNPO
 62
     7
100
AcDbText
 10
1556.216420737223
 20
2110.662919263195
 30
0.0
 40
36.0
  1
R50
 50
45.95769224993476
  7
ADD
100
AcDbText
1001
ACAD
1000
MTEXTBEGIN
1070
    73
1070
     1
1070
    44
1040
1.0
1070
    74
1070
     0
1000
MTEXTEND
1000
MTEXTBEGIN
1070
    73
1070
     1
1070
    44
1040
1.0
1070
    74
1070
     0
1000
MTEXTEND
1000
MTEXTBEGIN
1070
    73
1070
     1
1070
    44
1040
1.0
1070
    74
1070
     0
1000
MTEXTEND
1000
MTEXTBEGIN
1070
    73
1070
     1
1070
    44
1040
1.0
1070
    74
1070
     0
1000
MTEXTEND
1000
MTEXTBEGIN
1070
    73
1070
     1
1070
    44
1040
1.0
1070
    74
1070
     0
1000
MTEXTEND
1000
MTEXTBEGIN
1070
    73
1070
     1
1070
    44
1040
1.0
1070
    74
1070
     0
1000
MTEXTEND
1000
MTEXTBEGIN
1070
    73
1070
     1
1070
    44
1040
1.0
1070
    74
1070
     0
1000
MTEXTEND
  0
TEXT
  5
3325
330
1F
100
AcDbEntity
  8
SUNPO
 62
     7
100
AcDbText
 10
1748.571428571428
 20
2412.5
 30
0.0
 40
36.0
  1
280
  7
ADD
100
AcDbText
1001
ACAD
1000
MTEXTBEGIN
1070
    73
1070
     1
1070
    44
1040
1.0
1070
    74
1070
     0
1000
MTEXTEND
1000
MTEXTBEGIN
1070
    73
1070
     1
1070
    44
1040
1.0
1070
    74
1070
     0
1000
MTEXTEND
1000
MTEXTBEGIN
1070
    73
1070
     1
1070
    44
1040
1.0
1070
    74
1070
     0
1000
MTEXTEND
1000
MTEXTBEGIN
1070
    73
1070
     1
1070
    44
1040
1.0
1070
    74
1070
     0
1000
MTEXTEND
1000
MTEXTBEGIN
1070
    73
1070
     1
1070
    44
1040
1.0
1070
    74
1070
     0
1000
MTEXTEND
1000
MTEXTBEGIN
1070
    73
1070
     1
1070
    44
1040
1.0
1070
    74
1070
     0
1000
MTEXTEND
1000
MTEXTBEGIN
1070
    73
1070
     1
1070
    44
1040
1.0
1070
    74
1070
     0
1000
MTEXTEND
  0
LINE
  5
3326
330
1F
100
AcDbEntity
  8
SUNPO
100
AcDbLine
 10
1637.999999999999
 20
2400.0
 30
0.0
 11
1613.0
 21
2400.0
 31
0.0
1001
ACAD
1000
DSTYLE
1002
{
1070
     5
1000

1070
    40
1040
20.0
1070
    41
1040
1.1
1070
    77
1070
     0
1070
   140
1040
1.8
1070
   141
1040
1.399999999999999
1070
   147
1040
0.625
1070
   342
1005
0
1070
   372
1070
    -1
1002
}
  0
LINE
  5
3327
330
1F
100
AcDbEntity
  8
SUNPO
100
AcDbLine
 10
1611.999999999999
 20
2400.0
 30
0.0
 11
1636.999999999999
 21
2400.0
 31
0.0
1001
ACAD
1000
DSTYLE
1002
{
1070
     5
1000

1070
    40
1040
20.0
1070
    41
1040
1.1
1070
    77
1070
     0
1070
   140
1040
1.8
1070
   141
1040
1.399999999999999
1070
   147
1040
0.625
1070
   342
1005
0
1070
   372
1070
    -1
1002
}
  0
LINE
  5
3328
330
1F
100
AcDbEntity
  8
SUNPO
100
AcDbLine
 10
2250.0
 20
2522.0
 30
0.0
 11
2250.0
 21
2550.0
 31
0.0
1001
ACAD
1000
DSTYLE
1002
{
1070
     5
1000

1070
    40
1040
20.0
1070
    77
1070
     0
1070
   140
1040
1.8
1070
   141
1040
1.1
1070
   147
1040
0.625
1070
   342
1005
0
1070
   372
1070
    -1
1002
}
  0
LINE
  5
3329
330
1F
100
AcDbEntity
  8
SUNPO
100
AcDbLine
 10
2250.0
 20
2578.0
 30
0.0
 11
2250.0
 21
2550.0
 31
0.0
1001
ACAD
1000
DSTYLE
1002
{
1070
     5
1000

1070
    40
1040
20.0
1070
    77
1070
     0
1070
   140
1040
1.8
1070
   141
1040
1.1
1070
   147
1040
0.625
1070
   342
1005
0
1070
   372
1070
    -1
1002
}
  0
LINE
  5
332A
330
1F
100
AcDbEntity
  8
SUNPO
100
AcDbLine
 10
2250.0
 20
2178.0
 30
0.0
 11
2250.0
 21
2155.0
 31
0.0
1001
ACAD
1000
DSTYLE
1002
{
1070
     5
1000

1070
    40
1040
20.0
1070
    77
1070
     0
1070
   140
1040
1.8
1070
   141
1040
1.1
1070
   147
1040
0.625
1070
   342
1005
0
1070
   372
1070
    -1
1002
}
  0
LINE
  5
332B
330
1F
100
AcDbEntity
  8
SUNPO
100
AcDbLine
 10
2250.0
 20
2152.0
 30
0.0
 11
2250.0
 21
2175.0
 31
0.0
1001
ACAD
1000
DSTYLE
1002
{
1070
     5
1000

1070
    40
1040
20.0
1070
    77
1070
     0
1070
   140
1040
1.8
1070
   141
1040
1.1
1070
   147
1040
0.625
1070
   342
1005
0
1070
   372
1070
    -1
1002
}
  0
TEXT
  5
332C
330
1F
100
AcDbEntity
  8
SUNPO
 62
     7
100
AcDbText
 10
2237.499999999999
 20
2298.571428571429
 30
0.0
 40
36.0
  1
300
 50
90.0
  7
ADD
100
AcDbText
1001
ACAD
1000
MTEXTBEGIN
1070
    73
1070
     1
1070
    44
1040
1.0
1070
    74
1070
     0
1000
MTEXTEND
1000
MTEXTBEGIN
1070
    73
1070
     1
1070
    44
1040
1.0
1070
    74
1070
     0
1000
MTEXTEND
1000
MTEXTBEGIN
1070
    73
1070
     1
1070
    44
1040
1.0
1070
    74
1070
     0
1000
MTEXTEND
1000
MTEXTBEGIN
1070
    73
1070
     1
1070
    44
1040
1.0
1070
    74
1070
     0
1000
MTEXTEND
1000
MTEXTBEGIN
1070
    73
1070
     1
1070
    44
1040
1.0
1070
    74
1070
     0
1000
MTEXTEND
1000
MTEXTBEGIN
1070
    73
1070
     1
1070
    44
1040
1.0
1070
    74
1070
     0
1000
MTEXTEND
1000
MTEXTBEGIN
1070
    73
1070
     1
1070
    44
1040
1.0
1070
    74
1070
     0
1000
MTEXTEND
  0
VIEWPORT
  5
72
330
1B
100
AcDbEntity
 67
     1
  8
0
100
AcDbViewport
 10
645.8325449029127
 20
277.0
 30
0.0
 40
1380.967339805825
 41
628.4520000000001
 68
     2
 69
     1
1001
ACAD
1000
MVIEW
1002
{
1070
    16
1010
0.0
1020
0.0
1030
0.0
1010
0.0
1020
0.0
1030
1.0
1040
0.0
1040
628.4520000000001
1040
645.8325449029127
1040
277.0
1040
50.0
1040
0.0
1040
0.0
1070
     0
1070
   100
1070
     1
1070
     1
1070
     0
1070
     0
1070
     0
1070
     0
1040
0.0
1040
0.0
1040
0.0
1040
10.0
1040
10.0
1040
10.0
1040
10.0
1070
     0
1002
{
1002
}
1002
}
  0
VIEWPORT
  5
74
330
1B
100
AcDbEntity
 67
     1
  8
VIEWPORT
100
AcDbViewport
 10
414.3779638919211
 20
277.3177265058034
 30
0.0
 40
840.0353682728887
 41
567.2285469943826
 68
     1
 69
     2
1001
ACAD
1000
MVIEW
1002
{
1070
    16
1010
0.0
1020
0.0
1030
0.0
1010
0.0
1020
0.0
1030
1.0
1040
0.0
1040
579.5583043546323
1040
424.4938908624541
1040
286.1973242720074
1040
50.0
1040
0.0
1040
0.0
1070
     0
1070
   100
1070
     1
1070
     1
1070
     0
1070
     0
1070
     0
1070
     0
1040
0.0
1040
0.0
1040
0.0
1040
10.0
1040
10.0
1040
10.0
1040
10.0
1070
     0
1002
{
1002
}
1002
}
  0
ENDSEC
  0
SECTION
  2
OBJECTS
  0
DICTIONARY
  5
C
330
0
100
AcDbDictionary
  3
ACAD_GROUP
350
D
  3
ACAD_LAYOUT
350
1A
  3
ACAD_MLINESTYLE
350
17
  3
ACAD_PLOTSETTINGS
350
19
  3
DWGPROPS
350
4C7
1001
ACAD
1000
TREAT_AS_HARD
1070
     0
  0
DICTIONARY
  5
19FC
330
1F
100
AcDbDictionary
  3
ACAD_LAYOUTSELFREF
350
332F
1001
ACAD
1000
TREAT_AS_HARD
1070
     1
  0
DICTIONARY
  5
19FE
330
1B
100
AcDbDictionary
  3
ACAD_LAYOUTSELFREF
350
332E
1001
ACAD
1000
TREAT_AS_HARD
1070
     1
  0
DICTIONARY
  5
D
102
{ACAD_REACTORS
330
C
102
}
330
C
100
AcDbDictionary
1001
ACAD
1000
TREAT_AS_HARD
1070
     0
  0
DICTIONARY
  5
1A
102
{ACAD_REACTORS
330
C
102
}
330
C
100
AcDbDictionary
1001
ACAD
1000
TREAT_AS_HARD
1070
     0
  0
DICTIONARY
  5
17
102
{ACAD_REACTORS
330
C
102
}
330
C
100
AcDbDictionary
  3
STANDARD
350
18
1001
ACAD
1000
TREAT_AS_HARD
1070
     0
  0
DICTIONARY
  5
19
102
{ACAD_REACTORS
330
C
102
}
330
C
100
AcDbDictionary
1001
ACAD
1000
TREAT_AS_HARD
1070
     0
  0
XRECORD
  5
4C7
102
{ACAD_REACTORS
330
C
102
}
330
C
100
AcDbXrecord
  1
DWGPROPS COOKIE
  2
印刷用テスト
  3
AutoCAD2000による建築設計
  4
鈴木 裕二
  6

  7

  8
U2
  9

300
=
301
=
302
=
303
=
304
=
305
=
306
=
307
=
308
=
309
=
 40
0.7653446875
 41
2451285.4846114
 42
2451333.689743032
  1

 90
        0
  0
XRECORD
  5
332F
102
{ACAD_REACTORS
330
19FC
102
}
330
19FC
100
AcDbXrecord
340
1F
  0
XRECORD
  5
332E
102
{ACAD_REACTORS
330
19FE
102
}
330
19FE
100
AcDbXrecord
340
1B
  0
MLINESTYLE
  5
18
102
{ACAD_REACTORS
330
17
102
}
330
17
100
AcDbMlineStyle
  2
STANDARD
 70
     0
  3

 62
   256
 51
90.0
 52
90.0
 71
     2
 49
0.5
 62
   256
  6
BYLAYER
 49
-0.5
 62
   256
  6
BYLAYER
  0
ENDSEC
  0
EOF
