  0
SECTION
  2
HEADER
  9
$ACADVER
  1
AC1012
  9
$DWGCODEPAGE
  3
dos932
  9
$INSBASE
 10
0.0
 20
0.0
 30
0.0
  9
$EXTMIN
 10
-0.2718908761999046
 20
-0.1922558694768668
 30
-0.0015258207003583
  9
$EXTMAX
 10
5940.317247512655
 20
4200.438327852546
 30
0.0000000349246037
  9
$LIMMIN
 10
0.0
 20
0.0
  9
$LIMMAX
 10
5940.0
 20
4200.0
  9
$ORTHOMODE
 70
     0
  9
$REGENMODE
 70
     1
  9
$FILLMODE
 70
     1
  9
$QTEXTMODE
 70
     0
  9
$MIRRTEXT
 70
     1
  9
$DRAGMODE
 70
     2
  9
$LTSCALE
 40
20.0
  9
$OSMODE
 70
    37
  9
$ATTMODE
 70
     1
  9
$TEXTSIZE
 40
0.0
  9
$TRACEWID
 40
0.05
  9
$TEXTSTYLE
  7
STANDARD
  9
$CLAYER
  8
0
  9
$CELTYPE
  6
CONTINUOUS
  9
$CECOLOR
 62
   256
  9
$CELTSCALE
 40
1.0
  9
$DELOBJ
 70
     1
  9
$DISPSILH
 70
     0
  9
$DIMSCALE
 40
20.0
  9
$DIMASZ
 40
0.18
  9
$DIMEXO
 40
0.0625
  9
$DIMDLI
 40
0.38
  9
$DIMRND
 40
0.0
  9
$DIMDLE
 40
0.0
  9
$DIMEXE
 40
0.18
  9
$DIMTP
 40
0.0
  9
$DIMTM
 40
0.0
  9
$DIMTXT
 40
0.18
  9
$DIMCEN
 40
0.09
  9
$DIMTSZ
 40
0.0
  9
$DIMTOL
 70
     0
  9
$DIMLIM
 70
     0
  9
$DIMTIH
 70
     1
  9
$DIMTOH
 70
     1
  9
$DIMSE1
 70
     0
  9
$DIMSE2
 70
     0
  9
$DIMTAD
 70
     0
  9
$DIMZIN
 70
     0
  9
$DIMBLK
  1

  9
$DIMASO
 70
     1
  9
$DIMSHO
 70
     1
  9
$DIMPOST
  1

  9
$DIMAPOST
  1

  9
$DIMALT
 70
     0
  9
$DIMALTD
 70
     2
  9
$DIMALTF
 40
25.4
  9
$DIMLFAC
 40
1.0
  9
$DIMTOFL
 70
     0
  9
$DIMTVP
 40
0.0
  9
$DIMTIX
 70
     0
  9
$DIMSOXD
 70
     0
  9
$DIMSAH
 70
     0
  9
$DIMBLK1
  1

  9
$DIMBLK2
  1

  9
$DIMSTYLE
  2
STANDARD
  9
$DIMCLRD
 70
     0
  9
$DIMCLRE
 70
     0
  9
$DIMCLRT
 70
     0
  9
$DIMTFAC
 40
1.0
  9
$DIMGAP
 40
0.09
  9
$DIMJUST
 70
     0
  9
$DIMSD1
 70
     0
  9
$DIMSD2
 70
     0
  9
$DIMTOLJ
 70
     1
  9
$DIMTZIN
 70
     0
  9
$DIMALTZ
 70
     0
  9
$DIMALTTZ
 70
     0
  9
$DIMFIT
 70
     3
  9
$DIMUPT
 70
     0
  9
$DIMUNIT
 70
     2
  9
$DIMDEC
 70
     4
  9
$DIMTDEC
 70
     4
  9
$DIMALTU
 70
     2
  9
$DIMALTTD
 70
     2
  9
$DIMTXSTY
  7
STANDARD
  9
$DIMAUNIT
 70
     0
  9
$LUNITS
 70
     2
  9
$LUPREC
 70
     4
  9
$SKETCHINC
 40
0.1
  9
$FILLETRAD
 40
0.0
  9
$AUNITS
 70
     0
  9
$AUPREC
 70
     0
  9
$MENU
  1
.
  9
$ELEVATION
 40
0.0
  9
$PELEVATION
 40
0.0
  9
$THICKNESS
 40
0.0
  9
$LIMCHECK
 70
     0
  9
$BLIPMODE
 70
     0
  9
$CHAMFERA
 40
0.0
  9
$CHAMFERB
 40
0.0
  9
$CHAMFERC
 40
0.0
  9
$CHAMFERD
 40
0.0
  9
$SKPOLY
 70
     0
  9
$TDCREATE
 40
2451858.520509698
  9
$TDUPDATE
 40
2451858.521958889
  9
$TDINDWG
 40
0.0014516204
  9
$TDUSRTIMER
 40
0.0014516204
  9
$USRTIMER
 70
     1
  9
$ANGBASE
 50
0.0
  9
$ANGDIR
 70
     0
  9
$PDMODE
 70
     0
  9
$PDSIZE
 40
40.0
  9
$PLINEWID
 40
0.0
  9
$COORDS
 70
     1
  9
$SPLFRAME
 70
     0
  9
$SPLINETYPE
 70
     6
  9
$SPLINESEGS
 70
     8
  9
$ATTDIA
 70
     0
  9
$ATTREQ
 70
     1
  9
$HANDLING
 70
 10241
  9
$HANDSEED
  5
9D1C
  9
$SURFTAB1
 70
     6
  9
$SURFTAB2
 70
     6
  9
$SURFTYPE
 70
     6
  9
$SURFU
 70
     6
  9
$SURFV
 70
     6
  9
$UCSNAME
  2

  9
$UCSORG
 10
0.0
 20
0.0
 30
0.0
  9
$UCSXDIR
 10
1.0
 20
0.0
 30
0.0
  9
$UCSYDIR
 10
0.0
 20
1.0
 30
0.0
  9
$PUCSNAME
  2

  9
$PUCSORG
 10
0.0
 20
0.0
 30
0.0
  9
$PUCSXDIR
 10
1.0
 20
0.0
 30
0.0
  9
$PUCSYDIR
 10
0.0
 20
1.0
 30
0.0
  9
$USERI1
 70
     0
  9
$USERI2
 70
     0
  9
$USERI3
 70
     0
  9
$USERI4
 70
     0
  9
$USERI5
 70
     0
  9
$USERR1
 40
0.0
  9
$USERR2
 40
0.0
  9
$USERR3
 40
0.0
  9
$USERR4
 40
0.0
  9
$USERR5
 40
0.0
  9
$WORLDVIEW
 70
     1
  9
$SHADEDGE
 70
     3
  9
$SHADEDIF
 70
    70
  9
$TILEMODE
 70
     1
  9
$MAXACTVP
 70
    64
  9
$PINSBASE
 10
0.0
 20
0.0
 30
0.0
  9
$PLIMCHECK
 70
     0
  9
$PEXTMIN
 10
1.000000000000000E+20
 20
1.000000000000000E+20
 30
1.000000000000000E+20
  9
$PEXTMAX
 10
-1.000000000000000E+20
 20
-1.000000000000000E+20
 30
-1.000000000000000E+20
  9
$PLIMMIN
 10
0.0
 20
0.0
  9
$PLIMMAX
 10
12.0
 20
9.0
  9
$UNITMODE
 70
     0
  9
$VISRETAIN
 70
     1
  9
$PLINEGEN
 70
     0
  9
$PSLTSCALE
 70
     1
  9
$TREEDEPTH
 70
  3020
  9
$PICKSTYLE
 70
     1
  9
$CMLSTYLE
  2
STANDARD
  9
$CMLJUST
 70
     0
  9
$CMLSCALE
 40
1.0
  9
$SAVEIMAGES
 70
     1
  0
ENDSEC
  0
SECTION
  2
CLASSES
  0
CLASS
  1
ACDBDICTIONARYWDFLT
  2
AcDbDictionaryWithDefault
  3
AutoCAD 2000
 90
    32768
280
     0
281
     0
  0
CLASS
  1
ACDBPLACEHOLDER
  2
AcDbPlaceHolder
  3
AutoCAD 2000
 90
    32768
280
     0
281
     0
  0
CLASS
  1
LAYOUT
  2
AcDbLayout
  3
AutoCAD 2000
 90
    32768
280
     0
281
     0
  0
CLASS
  1
LONG_TRANSACTION
  2
AcDbLongTransaction
  3
AutoCAD 2000
 90
    32768
280
     0
281
     0
  0
CLASS
  1
LWPOLYLINE
  2
AcDbPolyline
  3
AutoCAD 2000
 90
    32768
280
     0
281
     1
  0
CLASS
  1
HATCH
  2
AcDbHatch
  3
AutoCAD 2000
 90
    32768
280
     0
281
     1
  0
CLASS
  1
XRECORD
  2
AcDbXrecord
  3
AutoCAD 2000
 90
    32768
280
     0
281
     0
  0
ENDSEC
  0
SECTION
  2
TABLES
  0
TABLE
  2
VPORT
  5
1F4
330
0
100
AcDbSymbolTable
 70
     3
  0
VPORT
  5
9D17
330
1F4
100
AcDbSymbolTableRecord
100
AcDbViewportTableRecord
  2
*ACTIVE
 70
     0
 10
0.0
 20
0.0
 11
1.0
 21
1.0
 12
2970.0
 22
3427.443609022556
 13
0.0
 23
0.0
 14
1.0
 24
1.0
 15
0.0
 25
0.0
 16
0.0
 26
0.0
 36
1.0
 17
0.0
 27
0.0
 37
0.0
 40
12554.88721804511
 41
1.577075098814229
 42
50.0
 43
0.0
 44
0.0
 50
0.0
 51
0.0
 71
     0
 72
   100
 73
     1
 74
     1
 75
     0
 76
     0
 77
     0
 78
     0
  0
ENDTAB
  0
TABLE
  2
LTYPE
  5
1F6
330
0
100
AcDbSymbolTable
 70
     9
  0
LTYPE
  5
1F7
330
1F6
100
AcDbSymbolTableRecord
100
AcDbLinetypeTableRecord
  2
BYBLOCK
 70
     0
  3

 72
    65
 73
     0
 40
0.0
  0
LTYPE
  5
1F8
330
1F6
100
AcDbSymbolTableRecord
100
AcDbLinetypeTableRecord
  2
BYLAYER
 70
     0
  3

 72
    65
 73
     0
 40
0.0
  0
LTYPE
  5
1F9
330
1F6
100
AcDbSymbolTableRecord
100
AcDbLinetypeTableRecord
  2
CONTINUOUS
 70
     0
  3
実線
 72
    65
 73
     0
 40
0.0
  0
LTYPE
  5
1FA
330
1F6
100
AcDbSymbolTableRecord
100
AcDbLinetypeTableRecord
  2
DOT
 70
     0
  3
--  --  --  --  --  --  --  --     
 72
    65
 73
     2
 40
10.0
 49
4.0
 74
     0
 49
-6.0
 74
     0
  0
LTYPE
  5
1FB
330
1F6
100
AcDbSymbolTableRecord
100
AcDbLinetypeTableRecord
  2
DASHED
 70
     0
  3
----    ----    ----    ----    
 72
    65
 73
     2
 40
10.0
 49
6.0
 74
     0
 49
-4.0
 74
     0
  0
LTYPE
  5
1FC
330
1F6
100
AcDbSymbolTableRecord
100
AcDbLinetypeTableRecord
  2
DASHED2
 70
     0
  3
------  ------  ------  ------ 
 72
    65
 73
     2
 40
15.0
 49
10.0
 74
     0
 49
-5.0
 74
     0
  0
LTYPE
  5
1FD
330
1F6
100
AcDbSymbolTableRecord
100
AcDbLinetypeTableRecord
  2
CENTER
 70
     0
  3
----- - ----- - ----- - ----- - 
 72
    65
 73
     4
 40
9.0
 49
6.0
 74
     0
 49
-1.0
 74
     0
 49
1.0
 74
     0
 49
-1.0
 74
     0
  0
LTYPE
  5
1FE
330
1F6
100
AcDbSymbolTableRecord
100
AcDbLinetypeTableRecord
  2
CENTER2
 70
     0
  3
----------  --  ----------  --  
 72
    65
 73
     4
 40
18.0
 49
12.0
 74
     0
 49
-2.0
 74
     0
 49
2.0
 74
     0
 49
-2.0
 74
     0
  0
LTYPE
  5
1FF
330
1F6
100
AcDbSymbolTableRecord
100
AcDbLinetypeTableRecord
  2
PHANTOM
 70
     0
  3
--- - - --- - - --- - - --- - - 
 72
    65
 73
     6
 40
10.0
 49
5.0
 74
     0
 49
-1.0
 74
     0
 49
1.0
 74
     0
 49
-1.0
 74
     0
 49
1.0
 74
     0
 49
-1.0
 74
     0
  0
LTYPE
  5
200
330
1F6
100
AcDbSymbolTableRecord
100
AcDbLinetypeTableRecord
  2
PHANTOM2
 70
     0
  3
--------  -  -  --------  -  - 
 72
    65
 73
     6
 40
16.0
 49
6.0
 74
     0
 49
-2.0
 74
     0
 49
2.0
 74
     0
 49
-2.0
 74
     0
 49
2.0
 74
     0
 49
-2.0
 74
     0
  0
LTYPE
  5
201
330
1F6
100
AcDbSymbolTableRecord
100
AcDbLinetypeTableRecord
  2
HIDDEN
 70
     0
  3
-   -   -   -   -   -   -   -   
 72
    65
 73
     2
 40
2.5
 49
0.5
 74
     0
 49
-2.0
 74
     0
  0
ENDTAB
  0
TABLE
  2
LAYER
  5
561
330
0
100
AcDbSymbolTable
 70
     7
  0
LAYER
  5
562
330
561
100
AcDbSymbolTableRecord
100
AcDbLayerTableRecord
  2
0
 70
     0
 62
     7
  6
CONTINUOUS
  0
LAYER
  5
563
330
561
100
AcDbSymbolTableRecord
100
AcDbLayerTableRecord
  2
0-3C1
 70
     0
 62
     7
  6
CONTINUOUS
  0
LAYER
  5
564
330
561
100
AcDbSymbolTableRecord
100
AcDbLayerTableRecord
  2
0-ADD
 70
     0
 62
    -7
  6
CONTINUOUS
  0
LAYER
  5
565
330
561
100
AcDbSymbolTableRecord
100
AcDbLayerTableRecord
  2
1-HOJO
 70
     0
 62
     7
  6
CONTINUOUS
  0
LAYER
  5
566
330
561
100
AcDbSymbolTableRecord
100
AcDbLayerTableRecord
  2
1-SUNPO
 70
     0
 62
     7
  6
CONTINUOUS
  0
LAYER
  5
567
330
561
100
AcDbSymbolTableRecord
100
AcDbLayerTableRecord
  2
1-ADD
 70
     0
 62
    -7
  6
CONTINUOUS
  0
LAYER
  5
9CD6
330
561
100
AcDbSymbolTableRecord
100
AcDbLayerTableRecord
  2
MOJI
 70
     0
 62
     7
  6
CONTINUOUS
  0
ENDTAB
  0
TABLE
  2
STYLE
  5
202
330
0
100
AcDbSymbolTable
 70
     4
  0
STYLE
  5
203
330
202
100
AcDbSymbolTableRecord
100
AcDbTextStyleTableRecord
  2
STANDARD
 70
     0
 40
0.0
 41
1.0
 50
0.0
 71
     0
 42
0.0
  3
txt.shx
  4
extfont.shx
  0
STYLE
  5
204
330
202
100
AcDbSymbolTableRecord
100
AcDbTextStyleTableRecord
  2
TATEGAKI
 70
     4
 40
0.0
 41
1.0
 50
0.0
 71
     0
 42
0.0
  3
txt.shx
  4
extfont.shx
  0
STYLE
  5
205
330
202
100
AcDbSymbolTableRecord
100
AcDbTextStyleTableRecord
  2
MT
 70
     0
 40
0.0
 41
1.0
 50
0.0
 71
     0
 42
0.0
  3
MS Gothic
  4

  0
STYLE
  5
206
330
202
100
AcDbSymbolTableRecord
100
AcDbTextStyleTableRecord
  2
TMT
 70
     4
 40
0.0
 41
1.0
 50
0.0
 71
     0
 42
0.0
  3
@MS Gothic
  4

  0
ENDTAB
  0
TABLE
  2
VIEW
  5
207
330
0
100
AcDbSymbolTable
 70
     0
  0
ENDTAB
  0
TABLE
  2
UCS
  5
208
330
0
100
AcDbSymbolTable
 70
     0
  0
ENDTAB
  0
TABLE
  2
APPID
  5
209
330
0
100
AcDbSymbolTable
 70
     1
  0
APPID
  5
20A
330
209
100
AcDbSymbolTableRecord
100
AcDbRegAppTableRecord
  2
ACAD
 70
     0
  0
ENDTAB
  0
TABLE
  2
DIMSTYLE
  5
20B
330
0
100
AcDbSymbolTable
 70
     1
  0
DIMSTYLE
105
20C
330
20B
100
AcDbSymbolTableRecord
100
AcDbDimStyleTableRecord
  2
STANDARD
 70
     0
  3

  4

  5

  6

  7

 40
1.0
 41
0.18
 42
0.0625
 43
0.38
 44
0.18
 45
0.0
 46
0.0
 47
0.0
 48
0.0
140
0.18
141
0.09
142
0.0
143
25.4
144
1.0
145
0.0
146
1.0
147
0.09
 71
     0
 72
     0
 73
     1
 74
     1
 75
     0
 76
     0
 77
     0
 78
     0
170
     0
171
     2
172
     0
173
     0
174
     0
175
     0
176
     0
177
     0
178
     0
270
     2
271
     4
272
     4
273
     2
274
     2
340
0
275
     0
280
     0
281
     0
282
     0
283
     1
284
     0
285
     0
286
     0
287
     3
288
     0
  0
ENDTAB
  0
TABLE
  2
BLOCK_RECORD
  5
20D
330
0
100
AcDbSymbolTable
 70
     1
  0
BLOCK_RECORD
  5
20E
102
{ACAD_XDICTIONARY
360
9D18
102
}
330
20D
100
AcDbSymbolTableRecord
100
AcDbBlockTableRecord
  2
*MODEL_SPACE
  0
BLOCK_RECORD
  5
20F
102
{ACAD_XDICTIONARY
360
9D1A
102
}
330
20D
100
AcDbSymbolTableRecord
100
AcDbBlockTableRecord
  2
*PAPER_SPACE
  0
BLOCK_RECORD
  5
210
330
20D
100
AcDbSymbolTableRecord
100
AcDbBlockTableRecord
  2
REVDATE
  0
ENDTAB
  0
ENDSEC
  0
SECTION
  2
BLOCKS
  0
BLOCK
  5
568
330
20E
100
AcDbEntity
  8
0
100
AcDbBlockBegin
  2
*MODEL_SPACE
 70
     0
 10
0.0
 20
0.0
 30
0.0
  3
*MODEL_SPACE
  1

  0
ENDBLK
  5
569
330
20E
100
AcDbEntity
  8
0
100
AcDbBlockEnd
  0
BLOCK
  5
56A
330
20F
100
AcDbEntity
 67
     1
  8
0
100
AcDbBlockBegin
  2
*PAPER_SPACE
 70
     0
 10
0.0
 20
0.0
 30
0.0
  3
*PAPER_SPACE
  1

  0
ENDBLK
  5
56B
330
20F
100
AcDbEntity
 67
     1
  8
0
100
AcDbBlockEnd
  0
BLOCK
  5
56C
330
210
100
AcDbEntity
  8
0
100
AcDbBlockBegin
  2
REVDATE
 70
     2
 10
0.0
 20
0.0
 30
0.0
  3
REVDATE
  1
REVDATE
  0
ATTDEF
  5
56D
330
210
100
AcDbEntity
  8
0
 62
     0
100
AcDbText
 10
0.0
 20
0.0
 30
0.0
 40
1.0
  1

100
AcDbAttributeDefinition
  3

  2
USER
 70
     8
  0
ATTDEF
  5
56E
330
210
100
AcDbEntity
  8
0
 62
     0
100
AcDbText
 10
0.0
 20
0.0
 30
0.0
 40
1.0
  1

100
AcDbAttributeDefinition
  3

  2
REVDATE
 70
     8
  0
ATTDEF
  5
56F
330
210
100
AcDbEntity
  8
0
 62
     0
100
AcDbText
 10
0.0
 20
0.0
 30
0.0
 40
1.0
  1

100
AcDbAttributeDefinition
  3

  2
FNAME
 70
     8
  0
ENDBLK
  5
570
330
210
100
AcDbEntity
  8
0
100
AcDbBlockEnd
  0
ENDSEC
  0
SECTION
  2
ENTITIES
  0
LINE
  5
571
330
20E
100
AcDbEntity
  8
1-HOJO
  6
CONTINUOUS
 62
     5
100
AcDbLine
 10
0.0
 20
0.0
 30
0.0
 11
5940.0
 21
0.0
 31
0.0
  0
LINE
  5
572
330
20E
100
AcDbEntity
  8
1-HOJO
  6
CONTINUOUS
 62
     5
100
AcDbLine
 10
5940.0
 20
0.0
 30
0.0
 11
5940.0
 21
4200.0
 31
0.0
  0
LINE
  5
573
330
20E
100
AcDbEntity
  8
1-HOJO
  6
CONTINUOUS
 62
     5
100
AcDbLine
 10
5940.0
 20
4200.0
 30
0.0
 11
0.0
 21
4200.0
 31
0.0
  0
LINE
  5
574
330
20E
100
AcDbEntity
  8
1-HOJO
  6
CONTINUOUS
 62
     5
100
AcDbLine
 10
0.0
 20
4200.0
 30
0.0
 11
0.0
 21
0.0
 31
0.0
  0
LINE
  5
575
330
20E
100
AcDbEntity
  8
1-HOJO
  6
CONTINUOUS
 62
     5
100
AcDbLine
 10
360.0
 20
260.0
 30
0.0
 11
5580.0
 21
260.0
 31
0.0
  0
LINE
  5
576
330
20E
100
AcDbEntity
  8
1-HOJO
  6
CONTINUOUS
 62
     5
100
AcDbLine
 10
5580.0
 20
260.0
 30
0.0
 11
5580.0
 21
3940.0
 31
0.0
  0
LINE
  5
577
330
20E
100
AcDbEntity
  8
1-HOJO
  6
CONTINUOUS
 62
     5
100
AcDbLine
 10
5580.0
 20
3940.0
 30
0.0
 11
360.0
 21
3940.0
 31
0.0
  0
LINE
  5
578
330
20E
100
AcDbEntity
  8
1-HOJO
  6
CONTINUOUS
 62
     5
100
AcDbLine
 10
360.0
 20
3940.0
 30
0.0
 11
360.0
 21
260.0
 31
0.0
  0
LINE
  5
579
330
20E
100
AcDbEntity
  8
1-HOJO
  6
CONTINUOUS
 62
     5
100
AcDbLine
 10
360.0
 20
260.0
 30
0.0
 11
5580.0
 21
260.0
 31
0.0
  0
LINE
  5
57A
330
20E
100
AcDbEntity
  8
1-HOJO
  6
CONTINUOUS
 62
     5
100
AcDbLine
 10
360.0
 20
560.0
 30
0.0
 11
5580.0
 21
560.0
 31
0.0
  0
LINE
  5
57B
330
20E
100
AcDbEntity
  8
1-HOJO
  6
CONTINUOUS
 62
     5
100
AcDbLine
 10
360.0
 20
260.0
 30
0.0
 11
360.0
 21
560.0
 31
0.0
  0
LINE
  5
57C
330
20E
100
AcDbEntity
  8
1-HOJO
  6
CONTINUOUS
 62
     5
100
AcDbLine
 10
2360.0
 20
260.0
 30
0.0
 11
2360.0
 21
560.0
 31
0.0
  0
LINE
  5
57D
330
20E
100
AcDbEntity
  8
1-HOJO
  6
CONTINUOUS
 62
     5
100
AcDbLine
 10
3160.0
 20
260.0
 30
0.0
 11
3160.0
 21
560.0
 31
0.0
  0
LINE
  5
57E
330
20E
100
AcDbEntity
  8
1-HOJO
  6
CONTINUOUS
 62
     5
100
AcDbLine
 10
3660.0
 20
260.0
 30
0.0
 11
3660.0
 21
560.0
 31
0.0
  0
LINE
  5
57F
330
20E
100
AcDbEntity
  8
0-3C1
  6
CONTINUOUS
100
AcDbLine
 10
2557.69
 20
2861.6
 30
0.0
 11
2557.69
 21
2761.6
 31
0.0
  0
LINE
  5
580
330
20E
100
AcDbEntity
  8
0-3C1
  6
CONTINUOUS
100
AcDbLine
 10
3047.69
 20
2861.6
 30
0.0
 11
3047.69
 21
2761.6
 31
0.0
  0
LINE
  5
581
330
20E
100
AcDbEntity
  8
0-3C1
  6
CONTINUOUS
100
AcDbLine
 10
2557.69
 20
2093.3
 30
0.0
 11
2557.69
 21
1598.3
 31
0.0
  0
LINE
  5
582
330
20E
100
AcDbEntity
  8
0-3C1
  6
CONTINUOUS
100
AcDbLine
 10
3047.69
 20
2093.3
 30
0.0
 11
3047.69
 21
1598.3
 31
0.0
  0
LINE
  5
583
330
20E
100
AcDbEntity
  8
0-3C1
  6
CONTINUOUS
100
AcDbLine
 10
2557.69
 20
2761.6
 30
0.0
 11
2602.69
 21
2761.6
 31
0.0
  0
LINE
  5
584
330
20E
100
AcDbEntity
  8
0-3C1
  6
CONTINUOUS
100
AcDbLine
 10
3002.69
 20
2761.6
 30
0.0
 11
3047.69
 21
2761.6
 31
0.0
  0
LINE
  5
585
330
20E
100
AcDbEntity
  8
0-3C1
  6
CONTINUOUS
100
AcDbLine
 10
2602.69
 20
2761.6
 30
0.0
 11
2632.69
 21
2791.6
 31
0.0
  0
LINE
  5
586
330
20E
100
AcDbEntity
  8
0-3C1
  6
CONTINUOUS
100
AcDbLine
 10
2972.69
 20
2791.6
 30
0.0
 11
3002.69
 21
2761.6
 31
0.0
  0
LINE
  5
587
330
20E
100
AcDbEntity
  8
0-3C1
  6
CONTINUOUS
100
AcDbLine
 10
2702.69
 20
2093.3
 30
0.0
 11
2732.69
 21
2063.3
 31
0.0
  0
LINE
  5
588
330
20E
100
AcDbEntity
  8
0-3C1
  6
CONTINUOUS
100
AcDbLine
 10
2732.69
 20
2063.3
 30
0.0
 11
2872.69
 21
2063.3
 31
0.0
  0
LINE
  5
589
330
20E
100
AcDbEntity
  8
0-3C1
  6
CONTINUOUS
100
AcDbLine
 10
2902.69
 20
2093.3
 30
0.0
 11
2872.69
 21
2063.3
 31
0.0
  0
LINE
  5
58A
330
20E
100
AcDbEntity
  8
0-3C1
  6
CONTINUOUS
100
AcDbLine
 10
2702.69
 20
2791.6
 30
0.0
 11
2702.69
 21
2861.6
 31
0.0
  0
LINE
  5
58B
330
20E
100
AcDbEntity
  8
0-3C1
  6
CONTINUOUS
100
AcDbLine
 10
2732.69
 20
2791.6
 30
0.0
 11
2732.69
 21
2861.6
 31
0.0
  0
LINE
  5
58C
330
20E
100
AcDbEntity
  8
0-3C1
  6
CONTINUOUS
100
AcDbLine
 10
2872.69
 20
2791.6
 30
0.0
 11
2872.69
 21
2861.6
 31
0.0
  0
LINE
  5
58D
330
20E
100
AcDbEntity
  8
0-3C1
  6
CONTINUOUS
100
AcDbLine
 10
2902.69
 20
2791.6
 30
0.0
 11
2902.69
 21
2861.6
 31
0.0
  0
LINE
  5
58E
330
20E
100
AcDbEntity
  8
1-SUNPO
  6
CONTINUOUS
100
AcDbLine
 10
2702.69
 20
2243.3
 30
0.0
 11
2732.69
 21
2243.3
 31
0.0
  0
LINE
  5
58F
330
20E
100
AcDbEntity
  8
1-SUNPO
  6
CONTINUOUS
100
AcDbLine
 10
2702.69
 20
2112.02
 30
0.0
 11
2702.69
 21
2243.3
 31
0.0
  0
LINE
  5
590
330
20E
100
AcDbEntity
  8
1-SUNPO
  6
CONTINUOUS
100
AcDbLine
 10
2732.69
 20
2112.02
 30
0.0
 11
2732.69
 21
2243.3
 31
0.0
  0
LINE
  5
591
330
20E
100
AcDbEntity
  8
1-SUNPO
  6
CONTINUOUS
100
AcDbLine
 10
2702.69
 20
2243.3
 30
0.0
 11
2722.01
 21
2248.47
 31
0.0
  0
LINE
  5
592
330
20E
100
AcDbEntity
  8
1-SUNPO
  6
CONTINUOUS
100
AcDbLine
 10
2702.69
 20
2243.3
 30
0.0
 11
2722.01
 21
2238.119999999999
 31
0.0
  0
LINE
  5
593
330
20E
100
AcDbEntity
  8
1-SUNPO
  6
CONTINUOUS
100
AcDbLine
 10
2732.69
 20
2243.3
 30
0.0
 11
2713.38
 21
2248.47
 31
0.0
  0
LINE
  5
594
330
20E
100
AcDbEntity
  8
1-SUNPO
  6
CONTINUOUS
100
AcDbLine
 10
2732.69
 20
2243.3
 30
0.0
 11
2713.38
 21
2238.119999999999
 31
0.0
  0
LINE
  5
595
330
20E
100
AcDbEntity
  8
1-SUNPO
  6
CONTINUOUS
100
AcDbLine
 10
2732.69
 20
2243.3
 30
0.0
 11
2872.69
 21
2243.3
 31
0.0
  0
LINE
  5
596
330
20E
100
AcDbEntity
  8
1-SUNPO
  6
CONTINUOUS
100
AcDbLine
 10
2872.69
 20
2112.02
 30
0.0
 11
2872.69
 21
2243.3
 31
0.0
  0
LINE
  5
597
330
20E
100
AcDbEntity
  8
1-SUNPO
  6
CONTINUOUS
100
AcDbLine
 10
2732.69
 20
2243.3
 30
0.0
 11
2752.01
 21
2248.47
 31
0.0
  0
LINE
  5
598
330
20E
100
AcDbEntity
  8
1-SUNPO
  6
CONTINUOUS
100
AcDbLine
 10
2732.69
 20
2243.3
 30
0.0
 11
2752.01
 21
2238.119999999999
 31
0.0
  0
LINE
  5
599
330
20E
100
AcDbEntity
  8
1-SUNPO
  6
CONTINUOUS
100
AcDbLine
 10
2872.69
 20
2243.3
 30
0.0
 11
2853.38
 21
2248.47
 31
0.0
  0
LINE
  5
59A
330
20E
100
AcDbEntity
  8
1-SUNPO
  6
CONTINUOUS
100
AcDbLine
 10
2872.69
 20
2243.3
 30
0.0
 11
2853.38
 21
2238.119999999999
 31
0.0
  0
LINE
  5
59B
330
20E
100
AcDbEntity
  8
1-SUNPO
  6
CONTINUOUS
100
AcDbLine
 10
2872.69
 20
2243.3
 30
0.0
 11
2902.69
 21
2243.3
 31
0.0
  0
LINE
  5
59C
330
20E
100
AcDbEntity
  8
1-SUNPO
  6
CONTINUOUS
100
AcDbLine
 10
2902.69
 20
2112.02
 30
0.0
 11
2902.69
 21
2243.3
 31
0.0
  0
LINE
  5
59D
330
20E
100
AcDbEntity
  8
1-SUNPO
  6
CONTINUOUS
100
AcDbLine
 10
2872.69
 20
2243.3
 30
0.0
 11
2892.01
 21
2248.47
 31
0.0
  0
LINE
  5
59E
330
20E
100
AcDbEntity
  8
1-SUNPO
  6
CONTINUOUS
100
AcDbLine
 10
2872.69
 20
2243.3
 30
0.0
 11
2892.01
 21
2238.119999999999
 31
0.0
  0
LINE
  5
59F
330
20E
100
AcDbEntity
  8
1-SUNPO
  6
CONTINUOUS
100
AcDbLine
 10
2902.69
 20
2243.3
 30
0.0
 11
2883.38
 21
2248.47
 31
0.0
  0
LINE
  5
5A0
330
20E
100
AcDbEntity
  8
1-SUNPO
  6
CONTINUOUS
100
AcDbLine
 10
2902.69
 20
2243.3
 30
0.0
 11
2883.38
 21
2238.119999999999
 31
0.0
  0
LINE
  5
5A1
330
20E
100
AcDbEntity
  8
1-SUNPO
  6
CONTINUOUS
100
AcDbLine
 10
2557.69
 20
2870.32
 30
0.0
 11
2557.69
 21
3011.6
 31
0.0
  0
LINE
  5
5A2
330
20E
100
AcDbEntity
  8
1-SUNPO
  6
CONTINUOUS
100
AcDbLine
 10
3047.69
 20
2870.32
 30
0.0
 11
3047.69
 21
3011.6
 31
0.0
  0
LINE
  5
5A3
330
20E
100
AcDbEntity
  8
1-SUNPO
  6
CONTINUOUS
100
AcDbLine
 10
2557.69
 20
3011.6
 30
0.0
 11
2577.01
 21
3016.77
 31
0.0
  0
LINE
  5
5A4
330
20E
100
AcDbEntity
  8
1-SUNPO
  6
CONTINUOUS
100
AcDbLine
 10
2557.69
 20
3011.6
 30
0.0
 11
2577.01
 21
3006.42
 31
0.0
  0
LINE
  5
5A5
330
20E
100
AcDbEntity
  8
1-SUNPO
  6
CONTINUOUS
100
AcDbLine
 10
3047.69
 20
3011.6
 30
0.0
 11
3028.37
 21
3016.77
 31
0.0
  0
LINE
  5
5A6
330
20E
100
AcDbEntity
  8
1-SUNPO
  6
CONTINUOUS
100
AcDbLine
 10
3047.69
 20
3011.6
 30
0.0
 11
3028.37
 21
3006.42
 31
0.0
  0
LINE
  5
5A7
330
20E
100
AcDbEntity
  8
1-SUNPO
  6
CONTINUOUS
100
AcDbLine
 10
2557.69
 20
2611.6
 30
0.0
 11
2602.69
 21
2611.6
 31
0.0
  0
LINE
  5
5A8
330
20E
100
AcDbEntity
  8
1-SUNPO
  6
CONTINUOUS
100
AcDbLine
 10
2557.69
 20
2750.36
 30
0.0
 11
2557.69
 21
2611.6
 31
0.0
  0
LINE
  5
5A9
330
20E
100
AcDbEntity
  8
1-SUNPO
  6
CONTINUOUS
100
AcDbLine
 10
2602.69
 20
2750.36
 30
0.0
 11
2602.69
 21
2611.6
 31
0.0
  0
LINE
  5
5AA
330
20E
100
AcDbEntity
  8
1-SUNPO
  6
CONTINUOUS
100
AcDbLine
 10
2557.69
 20
2611.6
 30
0.0
 11
2577.01
 21
2616.77
 31
0.0
  0
LINE
  5
5AB
330
20E
100
AcDbEntity
  8
1-SUNPO
  6
CONTINUOUS
100
AcDbLine
 10
2557.69
 20
2611.6
 30
0.0
 11
2577.01
 21
2606.419999999999
 31
0.0
  0
LINE
  5
5AC
330
20E
100
AcDbEntity
  8
1-SUNPO
  6
CONTINUOUS
100
AcDbLine
 10
2602.69
 20
2611.6
 30
0.0
 11
2583.38
 21
2616.77
 31
0.0
  0
LINE
  5
5AD
330
20E
100
AcDbEntity
  8
1-SUNPO
  6
CONTINUOUS
100
AcDbLine
 10
2602.69
 20
2611.6
 30
0.0
 11
2583.38
 21
2606.419999999999
 31
0.0
  0
LINE
  5
5AE
330
20E
100
AcDbEntity
  8
1-SUNPO
  6
CONTINUOUS
100
AcDbLine
 10
2602.69
 20
2611.6
 30
0.0
 11
2632.69
 21
2611.6
 31
0.0
  0
LINE
  5
5AF
330
20E
100
AcDbEntity
  8
1-SUNPO
  6
CONTINUOUS
100
AcDbLine
 10
2632.69
 20
2750.36
 30
0.0
 11
2632.69
 21
2611.6
 31
0.0
  0
LINE
  5
5B0
330
20E
100
AcDbEntity
  8
1-SUNPO
  6
CONTINUOUS
100
AcDbLine
 10
2602.69
 20
2611.6
 30
0.0
 11
2622.01
 21
2616.77
 31
0.0
  0
LINE
  5
5B1
330
20E
100
AcDbEntity
  8
1-SUNPO
  6
CONTINUOUS
100
AcDbLine
 10
2602.69
 20
2611.6
 30
0.0
 11
2622.01
 21
2606.419999999999
 31
0.0
  0
LINE
  5
5B2
330
20E
100
AcDbEntity
  8
1-SUNPO
  6
CONTINUOUS
100
AcDbLine
 10
2632.69
 20
2611.6
 30
0.0
 11
2613.38
 21
2616.77
 31
0.0
  0
LINE
  5
5B3
330
20E
100
AcDbEntity
  8
1-SUNPO
  6
CONTINUOUS
100
AcDbLine
 10
2632.69
 20
2611.6
 30
0.0
 11
2613.38
 21
2606.419999999999
 31
0.0
  0
LINE
  5
5B4
330
20E
100
AcDbEntity
  8
1-SUNPO
  6
CONTINUOUS
100
AcDbLine
 10
2972.69
 20
2750.36
 30
0.0
 11
2972.69
 21
2611.6
 31
0.0
  0
LINE
  5
5B5
330
20E
100
AcDbEntity
  8
1-SUNPO
  6
CONTINUOUS
100
AcDbLine
 10
2632.69
 20
2611.6
 30
0.0
 11
2652.01
 21
2616.77
 31
0.0
  0
LINE
  5
5B6
330
20E
100
AcDbEntity
  8
1-SUNPO
  6
CONTINUOUS
100
AcDbLine
 10
2632.69
 20
2611.6
 30
0.0
 11
2652.01
 21
2606.419999999999
 31
0.0
  0
LINE
  5
5B7
330
20E
100
AcDbEntity
  8
1-SUNPO
  6
CONTINUOUS
100
AcDbLine
 10
2972.69
 20
2611.6
 30
0.0
 11
3002.69
 21
2611.6
 31
0.0
  0
LINE
  5
5B8
330
20E
100
AcDbEntity
  8
1-SUNPO
  6
CONTINUOUS
100
AcDbLine
 10
3002.69
 20
2750.36
 30
0.0
 11
3002.69
 21
2611.6
 31
0.0
  0
LINE
  5
5B9
330
20E
100
AcDbEntity
  8
1-SUNPO
  6
CONTINUOUS
100
AcDbLine
 10
2972.69
 20
2611.6
 30
0.0
 11
2992.01
 21
2616.77
 31
0.0
  0
LINE
  5
5BA
330
20E
100
AcDbEntity
  8
1-SUNPO
  6
CONTINUOUS
100
AcDbLine
 10
2972.69
 20
2611.6
 30
0.0
 11
2992.01
 21
2606.419999999999
 31
0.0
  0
LINE
  5
5BB
330
20E
100
AcDbEntity
  8
1-SUNPO
  6
CONTINUOUS
100
AcDbLine
 10
3002.69
 20
2611.6
 30
0.0
 11
2983.38
 21
2616.77
 31
0.0
  0
LINE
  5
5BC
330
20E
100
AcDbEntity
  8
1-SUNPO
  6
CONTINUOUS
100
AcDbLine
 10
3002.69
 20
2611.6
 30
0.0
 11
2983.38
 21
2606.419999999999
 31
0.0
  0
LINE
  5
5BD
330
20E
100
AcDbEntity
  8
1-SUNPO
  6
CONTINUOUS
100
AcDbLine
 10
3002.69
 20
2611.6
 30
0.0
 11
3047.69
 21
2611.6
 31
0.0
  0
LINE
  5
5BE
330
20E
100
AcDbEntity
  8
1-SUNPO
  6
CONTINUOUS
100
AcDbLine
 10
3047.69
 20
2750.36
 30
0.0
 11
3047.69
 21
2611.6
 31
0.0
  0
LINE
  5
5BF
330
20E
100
AcDbEntity
  8
1-SUNPO
  6
CONTINUOUS
100
AcDbLine
 10
3002.69
 20
2611.6
 30
0.0
 11
3022.01
 21
2616.77
 31
0.0
  0
LINE
  5
5C0
330
20E
100
AcDbEntity
  8
1-SUNPO
  6
CONTINUOUS
100
AcDbLine
 10
3002.69
 20
2611.6
 30
0.0
 11
3022.01
 21
2606.419999999999
 31
0.0
  0
LINE
  5
5C1
330
20E
100
AcDbEntity
  8
1-SUNPO
  6
CONTINUOUS
100
AcDbLine
 10
3047.69
 20
2611.6
 30
0.0
 11
3028.37
 21
2616.77
 31
0.0
  0
LINE
  5
5C2
330
20E
100
AcDbEntity
  8
1-SUNPO
  6
CONTINUOUS
100
AcDbLine
 10
3047.69
 20
2611.6
 30
0.0
 11
3028.37
 21
2606.419999999999
 31
0.0
  0
LINE
  5
5C3
330
20E
100
AcDbEntity
  8
1-SUNPO
  6
CONTINUOUS
100
AcDbLine
 10
2387.69
 20
1598.3
 30
0.0
 11
2387.69
 21
2093.3
 31
0.0
  0
LINE
  5
5C4
330
20E
100
AcDbEntity
  8
1-SUNPO
  6
CONTINUOUS
100
AcDbLine
 10
2387.69
 20
1598.3
 30
0.0
 11
2382.519999999999
 21
1617.609999999999
 31
0.0
  0
LINE
  5
5C5
330
20E
100
AcDbEntity
  8
1-SUNPO
  6
CONTINUOUS
100
AcDbLine
 10
2387.69
 20
1598.3
 30
0.0
 11
2392.869999999999
 21
1617.609999999999
 31
0.0
  0
LINE
  5
5C6
330
20E
100
AcDbEntity
  8
1-SUNPO
  6
CONTINUOUS
100
AcDbLine
 10
2387.69
 20
2093.3
 30
0.0
 11
2382.519999999999
 21
2073.98
 31
0.0
  0
LINE
  5
5C7
330
20E
100
AcDbEntity
  8
1-SUNPO
  6
CONTINUOUS
100
AcDbLine
 10
2387.69
 20
2093.3
 30
0.0
 11
2392.869999999999
 21
2073.98
 31
0.0
  0
LINE
  5
5C8
330
20E
100
AcDbEntity
  8
1-SUNPO
  6
CONTINUOUS
100
AcDbLine
 10
2387.69
 20
2761.6
 30
0.0
 11
2387.69
 21
2861.6
 31
0.0
  0
LINE
  5
5C9
330
20E
100
AcDbEntity
  8
1-SUNPO
  6
CONTINUOUS
100
AcDbLine
 10
2387.69
 20
2761.6
 30
0.0
 11
2382.519999999999
 21
2780.91
 31
0.0
  0
LINE
  5
5CA
330
20E
100
AcDbEntity
  8
1-SUNPO
  6
CONTINUOUS
100
AcDbLine
 10
2387.69
 20
2761.6
 30
0.0
 11
2392.869999999999
 21
2780.91
 31
0.0
  0
LINE
  5
5CB
330
20E
100
AcDbEntity
  8
1-SUNPO
  6
CONTINUOUS
100
AcDbLine
 10
2387.69
 20
2861.6
 30
0.0
 11
2382.519999999999
 21
2842.28
 31
0.0
  0
LINE
  5
5CC
330
20E
100
AcDbEntity
  8
1-SUNPO
  6
CONTINUOUS
100
AcDbLine
 10
2387.69
 20
2861.6
 30
0.0
 11
2392.869999999999
 21
2842.28
 31
0.0
  0
LINE
  5
5CD
330
20E
100
AcDbEntity
  8
1-SUNPO
  6
CONTINUOUS
100
AcDbLine
 10
2471.78
 20
2063.3
 30
0.0
 11
2471.78
 21
2093.3
 31
0.0
  0
LINE
  5
5CE
330
20E
100
AcDbEntity
  8
1-SUNPO
  6
CONTINUOUS
100
AcDbLine
 10
2540.33
 20
2063.3
 30
0.0
 11
2471.78
 21
2063.3
 31
0.0
  0
LINE
  5
5CF
330
20E
100
AcDbEntity
  8
1-SUNPO
  6
CONTINUOUS
100
AcDbLine
 10
2540.33
 20
2093.3
 30
0.0
 11
2471.78
 21
2093.3
 31
0.0
  0
LINE
  5
5D0
330
20E
100
AcDbEntity
  8
1-SUNPO
  6
CONTINUOUS
100
AcDbLine
 10
2471.78
 20
2063.3
 30
0.0
 11
2466.6
 21
2082.61
 31
0.0
  0
LINE
  5
5D1
330
20E
100
AcDbEntity
  8
1-SUNPO
  6
CONTINUOUS
100
AcDbLine
 10
2471.78
 20
2063.3
 30
0.0
 11
2476.96
 21
2082.61
 31
0.0
  0
LINE
  5
5D2
330
20E
100
AcDbEntity
  8
1-SUNPO
  6
CONTINUOUS
100
AcDbLine
 10
2471.78
 20
2093.3
 30
0.0
 11
2466.6
 21
2073.98
 31
0.0
  0
LINE
  5
5D3
330
20E
100
AcDbEntity
  8
1-SUNPO
  6
CONTINUOUS
100
AcDbLine
 10
2471.78
 20
2093.3
 30
0.0
 11
2476.96
 21
2073.98
 31
0.0
  0
LINE
  5
5D4
330
20E
100
AcDbEntity
  8
1-SUNPO
  6
CONTINUOUS
100
AcDbLine
 10
2471.78
 20
2761.6
 30
0.0
 11
2471.78
 21
2791.6
 31
0.0
  0
LINE
  5
5D5
330
20E
100
AcDbEntity
  8
1-SUNPO
  6
CONTINUOUS
100
AcDbLine
 10
2540.33
 20
2761.6
 30
0.0
 11
2471.78
 21
2761.6
 31
0.0
  0
LINE
  5
5D6
330
20E
100
AcDbEntity
  8
1-SUNPO
  6
CONTINUOUS
100
AcDbLine
 10
2540.33
 20
2791.6
 30
0.0
 11
2471.78
 21
2791.6
 31
0.0
  0
LINE
  5
5D7
330
20E
100
AcDbEntity
  8
1-SUNPO
  6
CONTINUOUS
100
AcDbLine
 10
2471.78
 20
2761.6
 30
0.0
 11
2466.6
 21
2780.91
 31
0.0
  0
LINE
  5
5D8
330
20E
100
AcDbEntity
  8
1-SUNPO
  6
CONTINUOUS
100
AcDbLine
 10
2471.78
 20
2761.6
 30
0.0
 11
2476.96
 21
2780.91
 31
0.0
  0
LINE
  5
5D9
330
20E
100
AcDbEntity
  8
1-SUNPO
  6
CONTINUOUS
100
AcDbLine
 10
2471.78
 20
2791.6
 30
0.0
 11
2466.6
 21
2772.28
 31
0.0
  0
LINE
  5
5DA
330
20E
100
AcDbEntity
  8
1-SUNPO
  6
CONTINUOUS
100
AcDbLine
 10
2471.78
 20
2791.6
 30
0.0
 11
2476.96
 21
2772.28
 31
0.0
  0
LINE
  5
5DB
330
20E
100
AcDbEntity
  8
1-SUNPO
  6
CONTINUOUS
100
AcDbLine
 10
2471.78
 20
2791.6
 30
0.0
 11
2471.78
 21
2861.6
 31
0.0
  0
LINE
  5
5DC
330
20E
100
AcDbEntity
  8
1-SUNPO
  6
CONTINUOUS
100
AcDbLine
 10
2540.33
 20
2861.6
 30
0.0
 11
2471.78
 21
2861.6
 31
0.0
  0
LINE
  5
5DD
330
20E
100
AcDbEntity
  8
1-SUNPO
  6
CONTINUOUS
100
AcDbLine
 10
2471.78
 20
2791.6
 30
0.0
 11
2466.6
 21
2810.909999999999
 31
0.0
  0
LINE
  5
5DE
330
20E
100
AcDbEntity
  8
1-SUNPO
  6
CONTINUOUS
100
AcDbLine
 10
2471.78
 20
2791.6
 30
0.0
 11
2476.96
 21
2810.909999999999
 31
0.0
  0
LINE
  5
5DF
330
20E
100
AcDbEntity
  8
1-SUNPO
  6
CONTINUOUS
100
AcDbLine
 10
2471.78
 20
2861.6
 30
0.0
 11
2466.6
 21
2842.28
 31
0.0
  0
LINE
  5
5E0
330
20E
100
AcDbEntity
  8
1-SUNPO
  6
CONTINUOUS
100
AcDbLine
 10
2471.78
 20
2861.6
 30
0.0
 11
2476.96
 21
2842.28
 31
0.0
  0
LINE
  5
5E1
330
20E
100
AcDbEntity
  8
1-SUNPO
  6
CONTINUOUS
100
AcDbLine
 10
2540.33
 20
2093.3
 30
0.0
 11
2387.69
 21
2093.3
 31
0.0
  0
LINE
  5
5E2
330
20E
100
AcDbEntity
  8
1-SUNPO
  6
CONTINUOUS
100
AcDbLine
 10
2540.33
 20
1598.3
 30
0.0
 11
2387.69
 21
1598.3
 31
0.0
  0
LINE
  5
5E3
330
20E
100
AcDbEntity
  8
1-SUNPO
  6
CONTINUOUS
100
AcDbLine
 10
2540.33
 20
2861.6
 30
0.0
 11
2387.69
 21
2861.6
 31
0.0
  0
LINE
  5
5E4
330
20E
100
AcDbEntity
  8
1-SUNPO
  6
CONTINUOUS
100
AcDbLine
 10
2540.33
 20
2761.6
 30
0.0
 11
2387.69
 21
2761.6
 31
0.0
  0
LINE
  5
5E5
330
20E
100
AcDbEntity
  8
1-SUNPO
  6
CONTINUOUS
100
AcDbLine
 10
2972.69
 20
2611.6
 30
0.0
 11
2953.38
 21
2616.77
 31
0.0
  0
LINE
  5
5E6
330
20E
100
AcDbEntity
  8
1-SUNPO
  6
CONTINUOUS
100
AcDbLine
 10
2972.69
 20
2611.6
 30
0.0
 11
2953.38
 21
2606.419999999999
 31
0.0
  0
LINE
  5
5E7
330
20E
100
AcDbEntity
  8
1-SUNPO
  6
CONTINUOUS
100
AcDbLine
 10
2632.69
 20
2611.6
 30
0.0
 11
2972.69
 21
2611.6
 31
0.0
  0
LINE
  5
5E8
330
20E
100
AcDbEntity
  8
0-3C1
  6
CONTINUOUS
100
AcDbLine
 10
2632.69
 20
2791.6
 30
0.0
 11
2972.69
 21
2791.6
 31
0.0
  0
LINE
  5
5E9
330
20E
100
AcDbEntity
  8
0-3C1
  6
CONTINUOUS
100
AcDbLine
 10
2557.69
 20
2861.6
 30
0.0
 11
3047.69
 21
2861.6
 31
0.0
  0
LINE
  5
5EA
330
20E
100
AcDbEntity
  8
1-SUNPO
  6
CONTINUOUS
100
AcDbLine
 10
2557.69
 20
3011.6
 30
0.0
 11
3047.69
 21
3011.6
 31
0.0
  0
LINE
  5
5EB
330
20E
100
AcDbEntity
  8
0-3C1
  6
CONTINUOUS
100
AcDbLine
 10
2902.69
 20
2093.3
 30
0.0
 11
3047.69
 21
2093.3
 31
0.0
  0
LINE
  5
5EC
330
20E
100
AcDbEntity
  8
0-3C1
  6
CONTINUOUS
100
AcDbLine
 10
2557.69
 20
1598.3
 30
0.0
 11
3047.69
 21
1598.3
 31
0.0
  0
LINE
  5
5ED
330
20E
100
AcDbEntity
  8
0-3C1
  6
CONTINUOUS
100
AcDbLine
 10
2557.69
 20
2093.3
 30
0.0
 11
2702.69
 21
2093.3
 31
0.0
  0
MTEXT
  5
5EE
330
20E
100
AcDbEntity
  8
MOJI
100
AcDbMText
 10
3809.85
 20
363.73
 30
0.0
 40
78.0
 41
0.0
 71
     7
 72
     1
  1
千葉県コンクリート製品協同組合
1001
ACAD
1000
MTEXTBEGIN
1070
    73
1070
     1
1070
    44
1040
1.0
1070
    74
1070
     0
1000
MTEXTEND
  0
MTEXT
  5
5EF
330
20E
100
AcDbEntity
  8
MOJI
100
AcDbMText
 10
3173.61
 20
506.92
 30
0.0
 40
31.2
 41
0.0
 71
     7
 72
     1
  1
縮尺
1001
ACAD
1000
MTEXTBEGIN
1070
    73
1070
     1
1070
    44
1040
1.0
1070
    74
1070
     0
1000
MTEXTEND
  0
MTEXT
  5
5F0
330
20E
100
AcDbEntity
  8
MOJI
100
AcDbMText
 10
373.72
 20
505.86
 30
0.0
 40
31.2
 41
0.0
 71
     7
 72
     1
  1
製品名
1001
ACAD
1000
MTEXTBEGIN
1070
    73
1070
     1
1070
    44
1040
1.0
1070
    74
1070
     0
1000
MTEXTEND
  0
MTEXT
  5
5F1
330
20E
100
AcDbEntity
  8
MOJI
100
AcDbMText
 10
2373.19
 20
505.86
 30
0.0
 40
31.2
 41
0.0
 71
     7
 72
     1
  1
型式
1001
ACAD
1000
MTEXTBEGIN
1070
    73
1070
     1
1070
    44
1040
1.0
1070
    74
1070
     0
1000
MTEXTEND
  0
MTEXT
  5
5F2
330
20E
100
AcDbEntity
  8
MOJI
100
AcDbMText
 10
3237.55
 20
376.17
 30
0.0
 40
62.4
 41
0.0
 71
     7
 72
     1
  1
１／２０
1001
ACAD
1000
MTEXTBEGIN
1070
    73
1070
     1
1070
    44
1040
1.0
1070
    74
1070
     0
1000
MTEXTEND
  0
MTEXT
  5
5FF
330
20E
100
AcDbEntity
  8
MOJI
100
AcDbMText
 10
669.08
 20
365.3299999999999
 30
0.0
 40
78.0
 41
0.0
 71
     7
 72
     1
  1
千葉県型側溝用ふた（歩道用）
1001
ACAD
1000
MTEXTBEGIN
1070
    73
1070
     1
1070
    44
1040
1.0
1070
    74
1070
     0
1000
MTEXTEND
  0
MTEXT
  5
602
330
20E
100
AcDbEntity
  8
MOJI
100
AcDbMText
 10
2486.76
 20
365.3299999999999
 30
0.0
 40
78.0
 41
0.0
 71
     7
 72
     1
  1
\W0.700;CHL 1-40
1001
ACAD
1000
MTEXTBEGIN
1070
    73
1070
     1
1070
    44
1040
1.0
1070
    74
1070
     0
1000
MTEXTEND
  0
TEXT
  5
9D09
330
20E
100
AcDbEntity
  8
0
  6
CONTINUOUS
100
AcDbText
 10
2692.69
 20
2253.3
 30
0.0
 40
39.0
  1
30
 41
0.8
100
AcDbText
  0
TEXT
  5
9D0A
330
20E
100
AcDbEntity
  8
0
  6
CONTINUOUS
100
AcDbText
 10
2765.19
 20
2253.3
 30
0.0
 40
39.0
  1
140
 41
0.8
100
AcDbText
  0
TEXT
  5
9D0B
330
20E
100
AcDbEntity
  8
0
  6
CONTINUOUS
100
AcDbText
 10
2862.69
 20
2253.3
 30
0.0
 40
39.0
  1
30
 41
0.8
100
AcDbText
  0
TEXT
  5
9D0C
330
20E
100
AcDbEntity
  8
0
  6
CONTINUOUS
100
AcDbText
 10
2555.19
 20
2621.6
 30
0.0
 40
39.0
  1
45
 41
0.8
100
AcDbText
  0
TEXT
  5
9D0D
330
20E
100
AcDbEntity
  8
0
  6
CONTINUOUS
100
AcDbText
 10
2608.94
 20
2621.6
 30
0.0
 40
39.0
  1
30
 41
0.8
100
AcDbText
  0
TEXT
  5
9D0E
330
20E
100
AcDbEntity
  8
0
  6
CONTINUOUS
100
AcDbText
 10
2949.06
 20
2621.6
 30
0.0
 40
39.0
  1
30
 41
0.8
100
AcDbText
  0
TEXT
  5
9D0F
330
20E
100
AcDbEntity
  8
0
  6
CONTINUOUS
100
AcDbText
 10
3000.19
 20
2621.6
 30
0.0
 40
39.0
  1
45
 41
0.8
100
AcDbText
  0
TEXT
  5
9D10
330
20E
100
AcDbEntity
  8
0
  6
CONTINUOUS
100
AcDbText
 10
2377.69
 20
1808.3
 30
0.0
 40
39.0
  1
495
 50
90.0
 41
0.8
100
AcDbText
  0
TEXT
  5
9D11
330
20E
100
AcDbEntity
  8
0
  6
CONTINUOUS
100
AcDbText
 10
2377.69
 20
2774.1
 30
0.0
 40
39.0
  1
100
 50
90.0
 41
0.8
100
AcDbText
  0
TEXT
  5
9D12
330
20E
100
AcDbEntity
  8
0
  6
CONTINUOUS
100
AcDbText
 10
2461.78
 20
2044.83
 30
0.0
 40
39.0
  1
30
 50
90.0
 41
0.8
100
AcDbText
  0
TEXT
  5
9D13
330
20E
100
AcDbEntity
  8
0
  6
CONTINUOUS
100
AcDbText
 10
2461.78
 20
2739.1
 30
0.0
 40
39.0
  1
30
 50
90.0
 41
0.8
100
AcDbText
  0
TEXT
  5
9D14
330
20E
100
AcDbEntity
  8
0
  6
CONTINUOUS
100
AcDbText
 10
2461.78
 20
2801.6
 30
0.0
 40
39.0
  1
70
 50
90.0
 41
0.8
100
AcDbText
  0
TEXT
  5
9D15
330
20E
100
AcDbEntity
  8
0
  6
CONTINUOUS
100
AcDbText
 10
2765.19
 20
3021.6
 30
0.0
 40
39.0
  1
490
 41
0.8
100
AcDbText
  0
TEXT
  5
9D16
330
20E
100
AcDbEntity
  8
0
  6
CONTINUOUS
100
AcDbText
 10
2765.19
 20
2621.6
 30
0.0
 40
39.0
  1
340
 41
0.8
100
AcDbText
  0
ENDSEC
  0
SECTION
  2
OBJECTS
  0
DICTIONARY
  5
603
330
0
100
AcDbDictionary
  3
ACAD_GROUP
350
604
  3
ACAD_MLINESTYLE
350
605
  3
ACAD_LAYOUT
350
9CD9
  3
ACAD_PLOTSETTINGS
350
9CDA
1001
ACAD
1000
TREAT_AS_HARD
1070
     0
  0
DICTIONARY
  5
9D18
330
20E
100
AcDbDictionary
  3
ACAD_LAYOUTSELFREF
350
9D19
  0
DICTIONARY
  5
9D1A
330
20F
100
AcDbDictionary
  3
ACAD_LAYOUTSELFREF
350
9D1B
  0
DICTIONARY
  5
604
102
{ACAD_REACTORS
330
603
102
}
330
603
100
AcDbDictionary
1001
ACAD
1000
TREAT_AS_HARD
1070
     0
  0
DICTIONARY
  5
605
102
{ACAD_REACTORS
330
603
102
}
330
603
100
AcDbDictionary
1001
ACAD
1000
TREAT_AS_HARD
1070
     0
  0
DICTIONARY
  5
9CD9
102
{ACAD_REACTORS
330
603
102
}
330
603
100
AcDbDictionary
1001
ACAD
1000
TREAT_AS_HARD
1070
     0
  0
DICTIONARY
  5
9CDA
102
{ACAD_REACTORS
330
603
102
}
330
603
100
AcDbDictionary
1001
ACAD
1000
TREAT_AS_HARD
1070
     0
  0
XRECORD
  5
9D19
102
{ACAD_REACTORS
330
9D18
102
}
330
9D18
100
AcDbXrecord
340
20E
  0
XRECORD
  5
9D1B
102
{ACAD_REACTORS
330
9D1A
102
}
330
9D1A
100
AcDbXrecord
340
20F
  0
ENDSEC
  0
EOF
