  0
SECTION
  2
HEADER
  9
$ACADVER
  1
AC1012
  9
$DWGCODEPAGE
  3
dos932
  9
$INSBASE
 10
0.0
 20
0.0
 30
0.0
  9
$EXTMIN
 10
0.0
 20
0.0
 30
0.0
  9
$EXTMAX
 10
5940.0
 20
4200.0
 30
0.0
  9
$LIMMIN
 10
0.0
 20
0.0
  9
$LIMMAX
 10
5940.0
 20
4200.0
  9
$ORTHOMODE
 70
     1
  9
$REGENMODE
 70
     1
  9
$FILLMODE
 70
     1
  9
$QTEXTMODE
 70
     0
  9
$MIRRTEXT
 70
     0
  9
$DRAGMODE
 70
     2
  9
$LTSCALE
 40
10.0
  9
$OSMODE
 70
    39
  9
$ATTMODE
 70
     1
  9
$TEXTSIZE
 40
50.0
  9
$TRACEWID
 40
1.0
  9
$TEXTSTYLE
  7
ADD
  9
$CLAYER
  8
SUNPO
  9
$CELTYPE
  6
BYLAYER
  9
$CECOLOR
 62
   256
  9
$CELTSCALE
 40
1.0
  9
$DELOBJ
 70
     1
  9
$DISPSILH
 70
     0
  9
$DIMSCALE
 40
20.0
  9
$DIMASZ
 40
1.1
  9
$DIMEXO
 40
1.0
  9
$DIMDLI
 40
7.0
  9
$DIMRND
 40
0.0
  9
$DIMDLE
 40
0.0
  9
$DIMEXE
 40
0.5
  9
$DIMTP
 40
0.0
  9
$DIMTM
 40
0.0
  9
$DIMTXT
 40
1.8
  9
$DIMCEN
 40
1.1
  9
$DIMTSZ
 40
0.0
  9
$DIMTOL
 70
     0
  9
$DIMLIM
 70
     0
  9
$DIMTIH
 70
     0
  9
$DIMTOH
 70
     0
  9
$DIMSE1
 70
     0
  9
$DIMSE2
 70
     0
  9
$DIMTAD
 70
     1
  9
$DIMZIN
 70
     8
  9
$DIMBLK
  1

  9
$DIMASO
 70
     1
  9
$DIMSHO
 70
     1
  9
$DIMPOST
  1

  9
$DIMAPOST
  1

  9
$DIMALT
 70
     0
  9
$DIMALTD
 70
     3
  9
$DIMALTF
 40
0.03937007874016
  9
$DIMLFAC
 40
1.0
  9
$DIMTOFL
 70
     1
  9
$DIMTVP
 40
0.7
  9
$DIMTIX
 70
     1
  9
$DIMSOXD
 70
     0
  9
$DIMSAH
 70
     0
  9
$DIMBLK1
  1

  9
$DIMBLK2
  1

  9
$DIMSTYLE
  2
ADD
  9
$DIMCLRD
 70
   144
  9
$DIMCLRE
 70
   144
  9
$DIMCLRT
 70
     7
  9
$DIMTFAC
 40
1.0
  9
$DIMGAP
 40
0.625
  9
$DIMJUST
 70
     0
  9
$DIMSD1
 70
     0
  9
$DIMSD2
 70
     0
  9
$DIMTOLJ
 70
     2
  9
$DIMTZIN
 70
     8
  9
$DIMALTZ
 70
     0
  9
$DIMALTTZ
 70
     0
  9
$DIMFIT
 70
     5
  9
$DIMUPT
 70
     0
  9
$DIMUNIT
 70
     2
  9
$DIMDEC
 70
     1
  9
$DIMTDEC
 70
     1
  9
$DIMALTU
 70
     2
  9
$DIMALTTD
 70
     3
  9
$DIMTXSTY
  7
ADD
  9
$DIMAUNIT
 70
     0
  9
$LUNITS
 70
     2
  9
$LUPREC
 70
     4
  9
$SKETCHINC
 40
1.0
  9
$FILLETRAD
 40
70.0
  9
$AUNITS
 70
     0
  9
$AUPREC
 70
     1
  9
$MENU
  1
.
  9
$ELEVATION
 40
0.0
  9
$PELEVATION
 40
0.0
  9
$THICKNESS
 40
0.0
  9
$LIMCHECK
 70
     0
  9
$BLIPMODE
 70
     0
  9
$CHAMFERA
 40
3.0
  9
$CHAMFERB
 40
3.0
  9
$CHAMFERC
 40
25.0
  9
$CHAMFERD
 40
0.7853981633974483
  9
$SKPOLY
 70
     0
  9
$TDCREATE
 40
2451801.142532870
  9
$TDUPDATE
 40
2451861.849502777
  9
$TDINDWG
 40
0.9255507986
  9
$TDUSRTIMER
 40
0.9255507986
  9
$USRTIMER
 70
     1
  9
$ANGBASE
 50
0.0
  9
$ANGDIR
 70
     0
  9
$PDMODE
 70
     0
  9
$PDSIZE
 40
0.0
  9
$PLINEWID
 40
0.0
  9
$COORDS
 70
     2
  9
$SPLFRAME
 70
     0
  9
$SPLINETYPE
 70
     6
  9
$SPLINESEGS
 70
     8
  9
$ATTDIA
 70
     0
  9
$ATTREQ
 70
     1
  9
$HANDLING
 70
 10241
  9
$HANDSEED
  5
37FD
  9
$SURFTAB1
 70
     6
  9
$SURFTAB2
 70
     6
  9
$SURFTYPE
 70
     6
  9
$SURFU
 70
     6
  9
$SURFV
 70
     6
  9
$UCSNAME
  2

  9
$UCSORG
 10
0.0
 20
0.0
 30
0.0
  9
$UCSXDIR
 10
1.0
 20
0.0
 30
0.0
  9
$UCSYDIR
 10
0.0
 20
1.0
 30
0.0
  9
$PUCSNAME
  2

  9
$PUCSORG
 10
0.0
 20
0.0
 30
0.0
  9
$PUCSXDIR
 10
1.0
 20
0.0
 30
0.0
  9
$PUCSYDIR
 10
0.0
 20
1.0
 30
0.0
  9
$USERI1
 70
     0
  9
$USERI2
 70
     0
  9
$USERI3
 70
     0
  9
$USERI4
 70
     0
  9
$USERI5
 70
     0
  9
$USERR1
 40
841.0
  9
$USERR2
 40
594.0
  9
$USERR3
 40
1.0
  9
$USERR4
 40
0.0
  9
$USERR5
 40
0.0
  9
$WORLDVIEW
 70
     1
  9
$SHADEDGE
 70
     3
  9
$SHADEDIF
 70
    70
  9
$TILEMODE
 70
     1
  9
$MAXACTVP
 70
    48
  9
$PINSBASE
 10
0.0
 20
0.0
 30
0.0
  9
$PLIMCHECK
 70
     0
  9
$PEXTMIN
 10
-5.639720244523232
 20
-6.296546991387913
 30
0.0
  9
$PEXTMAX
 10
834.3956480283654
 20
560.9320000029947
 30
0.0
  9
$PLIMMIN
 10
-7.500000000000001
 20
-20.0
  9
$PLIMMAX
 10
833.5000000000002
 20
574.0000000000001
  9
$UNITMODE
 70
     0
  9
$VISRETAIN
 70
     1
  9
$PLINEGEN
 70
     0
  9
$PSLTSCALE
 70
     1
  9
$TREEDEPTH
 70
  3020
  9
$PICKSTYLE
 70
     1
  9
$CMLSTYLE
  2
STANDARD
  9
$CMLJUST
 70
     0
  9
$CMLSCALE
 40
20.0
  9
$SAVEIMAGES
 70
     1
  0
ENDSEC
  0
SECTION
  2
CLASSES
  0
CLASS
  1
ACDBDICTIONARYWDFLT
  2
AcDbDictionaryWithDefault
  3
AutoCAD 2000
 90
    32768
280
     0
281
     0
  0
CLASS
  1
ACDBPLACEHOLDER
  2
AcDbPlaceHolder
  3
AutoCAD 2000
 90
    32768
280
     0
281
     0
  0
CLASS
  1
LAYOUT
  2
AcDbLayout
  3
AutoCAD 2000
 90
    32768
280
     0
281
     0
  0
CLASS
  1
RTEXT
  2
RText
  3
RText|AutoCAD Express Tool|expresstools@autodesk.com
 90
    32768
280
     0
281
     1
  0
CLASS
  1
DICTIONARYVAR
  2
AcDbDictionaryVar
  3
AutoCAD 2000
 90
    32768
280
     0
281
     0
  0
CLASS
  1
LONG_TRANSACTION
  2
AcDbLongTransaction
  3
AutoCAD 2000
 90
    32768
280
     0
281
     0
  0
CLASS
  1
LWPOLYLINE
  2
AcDbPolyline
  3
AutoCAD 2000
 90
    32768
280
     0
281
     1
  0
CLASS
  1
HATCH
  2
AcDbHatch
  3
AutoCAD 2000
 90
    32768
280
     0
281
     1
  0
CLASS
  1
XRECORD
  2
AcDbXrecord
  3
AutoCAD 2000
 90
    32768
280
     0
281
     0
  0
CLASS
  1
LONG_TRANSACTION
  2
AcDbLongTransaction
  3
AutoCAD 2000
 90
    32768
280
     0
281
     0
  0
CLASS
  1
LWPOLYLINE
  2
AcDbPolyline
  3
AutoCAD 2000
 90
    32768
280
     0
281
     1
  0
CLASS
  1
HATCH
  2
AcDbHatch
  3
AutoCAD 2000
 90
    32768
280
     0
281
     1
  0
CLASS
  1
XRECORD
  2
AcDbXrecord
  3
AutoCAD 2000
 90
    32768
280
     0
281
     0
  0
CLASS
  1
LONG_TRANSACTION
  2
AcDbLongTransaction
  3
AutoCAD 2000
 90
    32768
280
     0
281
     0
  0
CLASS
  1
LWPOLYLINE
  2
AcDbPolyline
  3
AutoCAD 2000
 90
    32768
280
     0
281
     1
  0
CLASS
  1
HATCH
  2
AcDbHatch
  3
AutoCAD 2000
 90
    32768
280
     0
281
     1
  0
CLASS
  1
XRECORD
  2
AcDbXrecord
  3
AutoCAD 2000
 90
    32768
280
     0
281
     0
  0
CLASS
  1
LONG_TRANSACTION
  2
AcDbLongTransaction
  3
AutoCAD 2000
 90
    32768
280
     0
281
     0
  0
CLASS
  1
LWPOLYLINE
  2
AcDbPolyline
  3
AutoCAD 2000
 90
    32768
280
     0
281
     1
  0
CLASS
  1
HATCH
  2
AcDbHatch
  3
AutoCAD 2000
 90
    32768
280
     0
281
     1
  0
CLASS
  1
XRECORD
  2
AcDbXrecord
  3
AutoCAD 2000
 90
    32768
280
     0
281
     0
  0
CLASS
  1
LONG_TRANSACTION
  2
AcDbLongTransaction
  3
AutoCAD 2000
 90
    32768
280
     0
281
     0
  0
CLASS
  1
LWPOLYLINE
  2
AcDbPolyline
  3
AutoCAD 2000
 90
    32768
280
     0
281
     1
  0
CLASS
  1
HATCH
  2
AcDbHatch
  3
AutoCAD 2000
 90
    32768
280
     0
281
     1
  0
CLASS
  1
XRECORD
  2
AcDbXrecord
  3
AutoCAD 2000
 90
    32768
280
     0
281
     0
  0
CLASS
  1
LONG_TRANSACTION
  2
AcDbLongTransaction
  3
AutoCAD 2000
 90
    32768
280
     0
281
     0
  0
CLASS
  1
LWPOLYLINE
  2
AcDbPolyline
  3
AutoCAD 2000
 90
    32768
280
     0
281
     1
  0
CLASS
  1
HATCH
  2
AcDbHatch
  3
AutoCAD 2000
 90
    32768
280
     0
281
     1
  0
CLASS
  1
XRECORD
  2
AcDbXrecord
  3
AutoCAD 2000
 90
    32768
280
     0
281
     0
  0
CLASS
  1
LONG_TRANSACTION
  2
AcDbLongTransaction
  3
AutoCAD 2000
 90
    32768
280
     0
281
     0
  0
CLASS
  1
LWPOLYLINE
  2
AcDbPolyline
  3
AutoCAD 2000
 90
    32768
280
     0
281
     1
  0
CLASS
  1
HATCH
  2
AcDbHatch
  3
AutoCAD 2000
 90
    32768
280
     0
281
     1
  0
CLASS
  1
XRECORD
  2
AcDbXrecord
  3
AutoCAD 2000
 90
    32768
280
     0
281
     0
  0
CLASS
  1
LONG_TRANSACTION
  2
AcDbLongTransaction
  3
AutoCAD 2000
 90
    32768
280
     0
281
     0
  0
CLASS
  1
LWPOLYLINE
  2
AcDbPolyline
  3
AutoCAD 2000
 90
    32768
280
     0
281
     1
  0
CLASS
  1
HATCH
  2
AcDbHatch
  3
AutoCAD 2000
 90
    32768
280
     0
281
     1
  0
CLASS
  1
XRECORD
  2
AcDbXrecord
  3
AutoCAD 2000
 90
    32768
280
     0
281
     0
  0
CLASS
  1
LONG_TRANSACTION
  2
AcDbLongTransaction
  3
AutoCAD 2000
 90
    32768
280
     0
281
     0
  0
CLASS
  1
LWPOLYLINE
  2
AcDbPolyline
  3
AutoCAD 2000
 90
    32768
280
     0
281
     1
  0
CLASS
  1
HATCH
  2
AcDbHatch
  3
AutoCAD 2000
 90
    32768
280
     0
281
     1
  0
CLASS
  1
XRECORD
  2
AcDbXrecord
  3
AutoCAD 2000
 90
    32768
280
     0
281
     0
  0
CLASS
  1
LONG_TRANSACTION
  2
AcDbLongTransaction
  3
AutoCAD 2000
 90
    32768
280
     0
281
     0
  0
CLASS
  1
LWPOLYLINE
  2
AcDbPolyline
  3
AutoCAD 2000
 90
    32768
280
     0
281
     1
  0
CLASS
  1
HATCH
  2
AcDbHatch
  3
AutoCAD 2000
 90
    32768
280
     0
281
     1
  0
CLASS
  1
XRECORD
  2
AcDbXrecord
  3
AutoCAD 2000
 90
    32768
280
     0
281
     0
  0
CLASS
  1
LONG_TRANSACTION
  2
AcDbLongTransaction
  3
AutoCAD 2000
 90
    32768
280
     0
281
     0
  0
CLASS
  1
LWPOLYLINE
  2
AcDbPolyline
  3
AutoCAD 2000
 90
    32768
280
     0
281
     1
  0
CLASS
  1
HATCH
  2
AcDbHatch
  3
AutoCAD 2000
 90
    32768
280
     0
281
     1
  0
CLASS
  1
XRECORD
  2
AcDbXrecord
  3
AutoCAD 2000
 90
    32768
280
     0
281
     0
  0
CLASS
  1
LONG_TRANSACTION
  2
AcDbLongTransaction
  3
AutoCAD 2000
 90
    32768
280
     0
281
     0
  0
CLASS
  1
LWPOLYLINE
  2
AcDbPolyline
  3
AutoCAD 2000
 90
    32768
280
     0
281
     1
  0
CLASS
  1
HATCH
  2
AcDbHatch
  3
AutoCAD 2000
 90
    32768
280
     0
281
     1
  0
CLASS
  1
XRECORD
  2
AcDbXrecord
  3
AutoCAD 2000
 90
    32768
280
     0
281
     0
  0
CLASS
  1
LONG_TRANSACTION
  2
AcDbLongTransaction
  3
AutoCAD 2000
 90
    32768
280
     0
281
     0
  0
CLASS
  1
LWPOLYLINE
  2
AcDbPolyline
  3
AutoCAD 2000
 90
    32768
280
     0
281
     1
  0
CLASS
  1
HATCH
  2
AcDbHatch
  3
AutoCAD 2000
 90
    32768
280
     0
281
     1
  0
CLASS
  1
XRECORD
  2
AcDbXrecord
  3
AutoCAD 2000
 90
    32768
280
     0
281
     0
  0
CLASS
  1
LONG_TRANSACTION
  2
AcDbLongTransaction
  3
AutoCAD 2000
 90
    32768
280
     0
281
     0
  0
CLASS
  1
LWPOLYLINE
  2
AcDbPolyline
  3
AutoCAD 2000
 90
    32768
280
     0
281
     1
  0
CLASS
  1
HATCH
  2
AcDbHatch
  3
AutoCAD 2000
 90
    32768
280
     0
281
     1
  0
CLASS
  1
XRECORD
  2
AcDbXrecord
  3
AutoCAD 2000
 90
    32768
280
     0
281
     0
  0
CLASS
  1
LONG_TRANSACTION
  2
AcDbLongTransaction
  3
AutoCAD 2000
 90
    32768
280
     0
281
     0
  0
CLASS
  1
LWPOLYLINE
  2
AcDbPolyline
  3
AutoCAD 2000
 90
    32768
280
     0
281
     1
  0
CLASS
  1
HATCH
  2
AcDbHatch
  3
AutoCAD 2000
 90
    32768
280
     0
281
     1
  0
CLASS
  1
XRECORD
  2
AcDbXrecord
  3
AutoCAD 2000
 90
    32768
280
     0
281
     0
  0
CLASS
  1
LONG_TRANSACTION
  2
AcDbLongTransaction
  3
AutoCAD 2000
 90
    32768
280
     0
281
     0
  0
CLASS
  1
LWPOLYLINE
  2
AcDbPolyline
  3
AutoCAD 2000
 90
    32768
280
     0
281
     1
  0
CLASS
  1
HATCH
  2
AcDbHatch
  3
AutoCAD 2000
 90
    32768
280
     0
281
     1
  0
CLASS
  1
XRECORD
  2
AcDbXrecord
  3
AutoCAD 2000
 90
    32768
280
     0
281
     0
  0
CLASS
  1
LONG_TRANSACTION
  2
AcDbLongTransaction
  3
AutoCAD 2000
 90
    32768
280
     0
281
     0
  0
CLASS
  1
LWPOLYLINE
  2
AcDbPolyline
  3
AutoCAD 2000
 90
    32768
280
     0
281
     1
  0
CLASS
  1
HATCH
  2
AcDbHatch
  3
AutoCAD 2000
 90
    32768
280
     0
281
     1
  0
CLASS
  1
XRECORD
  2
AcDbXrecord
  3
AutoCAD 2000
 90
    32768
280
     0
281
     0
  0
CLASS
  1
LONG_TRANSACTION
  2
AcDbLongTransaction
  3
AutoCAD 2000
 90
    32768
280
     0
281
     0
  0
CLASS
  1
LWPOLYLINE
  2
AcDbPolyline
  3
AutoCAD 2000
 90
    32768
280
     0
281
     1
  0
CLASS
  1
HATCH
  2
AcDbHatch
  3
AutoCAD 2000
 90
    32768
280
     0
281
     1
  0
CLASS
  1
XRECORD
  2
AcDbXrecord
  3
AutoCAD 2000
 90
    32768
280
     0
281
     0
  0
CLASS
  1
LONG_TRANSACTION
  2
AcDbLongTransaction
  3
AutoCAD 2000
 90
    32768
280
     0
281
     0
  0
CLASS
  1
LWPOLYLINE
  2
AcDbPolyline
  3
AutoCAD 2000
 90
    32768
280
     0
281
     1
  0
CLASS
  1
HATCH
  2
AcDbHatch
  3
AutoCAD 2000
 90
    32768
280
     0
281
     1
  0
CLASS
  1
XRECORD
  2
AcDbXrecord
  3
AutoCAD 2000
 90
    32768
280
     0
281
     0
  0
CLASS
  1
LONG_TRANSACTION
  2
AcDbLongTransaction
  3
AutoCAD 2000
 90
    32768
280
     0
281
     0
  0
CLASS
  1
LWPOLYLINE
  2
AcDbPolyline
  3
AutoCAD 2000
 90
    32768
280
     0
281
     1
  0
CLASS
  1
HATCH
  2
AcDbHatch
  3
AutoCAD 2000
 90
    32768
280
     0
281
     1
  0
CLASS
  1
XRECORD
  2
AcDbXrecord
  3
AutoCAD 2000
 90
    32768
280
     0
281
     0
  0
CLASS
  1
LONG_TRANSACTION
  2
AcDbLongTransaction
  3
AutoCAD 2000
 90
    32768
280
     0
281
     0
  0
CLASS
  1
LWPOLYLINE
  2
AcDbPolyline
  3
AutoCAD 2000
 90
    32768
280
     0
281
     1
  0
CLASS
  1
HATCH
  2
AcDbHatch
  3
AutoCAD 2000
 90
    32768
280
     0
281
     1
  0
CLASS
  1
XRECORD
  2
AcDbXrecord
  3
AutoCAD 2000
 90
    32768
280
     0
281
     0
  0
CLASS
  1
LONG_TRANSACTION
  2
AcDbLongTransaction
  3
AutoCAD 2000
 90
    32768
280
     0
281
     0
  0
CLASS
  1
LWPOLYLINE
  2
AcDbPolyline
  3
AutoCAD 2000
 90
    32768
280
     0
281
     1
  0
CLASS
  1
HATCH
  2
AcDbHatch
  3
AutoCAD 2000
 90
    32768
280
     0
281
     1
  0
CLASS
  1
XRECORD
  2
AcDbXrecord
  3
AutoCAD 2000
 90
    32768
280
     0
281
     0
  0
CLASS
  1
LONG_TRANSACTION
  2
AcDbLongTransaction
  3
AutoCAD 2000
 90
    32768
280
     0
281
     0
  0
CLASS
  1
LWPOLYLINE
  2
AcDbPolyline
  3
AutoCAD 2000
 90
    32768
280
     0
281
     1
  0
CLASS
  1
HATCH
  2
AcDbHatch
  3
AutoCAD 2000
 90
    32768
280
     0
281
     1
  0
CLASS
  1
XRECORD
  2
AcDbXrecord
  3
AutoCAD 2000
 90
    32768
280
     0
281
     0
  0
CLASS
  1
LONG_TRANSACTION
  2
AcDbLongTransaction
  3
AutoCAD 2000
 90
    32768
280
     0
281
     0
  0
CLASS
  1
LWPOLYLINE
  2
AcDbPolyline
  3
AutoCAD 2000
 90
    32768
280
     0
281
     1
  0
CLASS
  1
HATCH
  2
AcDbHatch
  3
AutoCAD 2000
 90
    32768
280
     0
281
     1
  0
CLASS
  1
XRECORD
  2
AcDbXrecord
  3
AutoCAD 2000
 90
    32768
280
     0
281
     0
  0
CLASS
  1
LONG_TRANSACTION
  2
AcDbLongTransaction
  3
AutoCAD 2000
 90
    32768
280
     0
281
     0
  0
CLASS
  1
LWPOLYLINE
  2
AcDbPolyline
  3
AutoCAD 2000
 90
    32768
280
     0
281
     1
  0
CLASS
  1
HATCH
  2
AcDbHatch
  3
AutoCAD 2000
 90
    32768
280
     0
281
     1
  0
CLASS
  1
XRECORD
  2
AcDbXrecord
  3
AutoCAD 2000
 90
    32768
280
     0
281
     0
  0
CLASS
  1
LONG_TRANSACTION
  2
AcDbLongTransaction
  3
AutoCAD 2000
 90
    32768
280
     0
281
     0
  0
CLASS
  1
LWPOLYLINE
  2
AcDbPolyline
  3
AutoCAD 2000
 90
    32768
280
     0
281
     1
  0
CLASS
  1
HATCH
  2
AcDbHatch
  3
AutoCAD 2000
 90
    32768
280
     0
281
     1
  0
CLASS
  1
XRECORD
  2
AcDbXrecord
  3
AutoCAD 2000
 90
    32768
280
     0
281
     0
  0
ENDSEC
  0
SECTION
  2
TABLES
  0
TABLE
  2
VPORT
  5
8
330
0
100
AcDbSymbolTable
 70
     2
  0
VPORT
  5
37ED
330
8
100
AcDbSymbolTableRecord
100
AcDbViewportTableRecord
  2
*ACTIVE
 70
     0
 10
0.0
 20
0.0
 11
1.0
 21
1.0
 12
2970.000027661122
 22
2300.266140043013
 13
0.0
 23
0.0
 14
5.0
 24
5.0
 15
10.0
 25
10.0
 16
0.0
 26
0.0
 36
1.0
 17
0.0
 27
0.0
 37
0.0
 40
4682.083782365117
 41
2.091445427728613
 42
50.0
 43
0.0
 44
0.0
 50
0.0
 51
0.0
 71
     0
 72
   100
 73
     1
 74
     1
 75
     1
 76
     0
 77
     0
 78
     0
  0
ENDTAB
  0
TABLE
  2
LTYPE
  5
5
330
0
100
AcDbSymbolTable
 70
     5
  0
LTYPE
  5
14
330
5
100
AcDbSymbolTableRecord
100
AcDbLinetypeTableRecord
  2
BYBLOCK
 70
     0
  3

 72
    65
 73
     0
 40
0.0
  0
LTYPE
  5
15
330
5
100
AcDbSymbolTableRecord
100
AcDbLinetypeTableRecord
  2
BYLAYER
 70
     0
  3

 72
    65
 73
     0
 40
0.0
  0
LTYPE
  5
16
330
5
100
AcDbSymbolTableRecord
100
AcDbLinetypeTableRecord
  2
CONTINUOUS
 70
     0
  3
Solid line
 72
    65
 73
     0
 40
0.0
  0
LTYPE
  5
555
330
5
100
AcDbSymbolTableRecord
100
AcDbLinetypeTableRecord
  2
CENTER
 70
     0
  3
Center ____ _ ____ _ ____ _ ____ _ ____ _ ____
 72
    65
 73
     4
 40
50.8
 49
31.75
 74
     0
 49
-6.349999999999999
 74
     0
 49
6.349999999999999
 74
     0
 49
-6.349999999999999
 74
     0
  0
LTYPE
  5
556
330
5
100
AcDbSymbolTableRecord
100
AcDbLinetypeTableRecord
  2
HIDDEN
 70
     0
  3
Hidden __ __ __ __ __ __ __ __ __ __ __ __ __ _
 72
    65
 73
     2
 40
9.524999999999998
 49
6.349999999999999
 74
     0
 49
-3.174999999999999
 74
     0
  0
LTYPE
  5
557
330
5
100
AcDbSymbolTableRecord
100
AcDbLinetypeTableRecord
  2
HIDDEN2
 70
     0
  3
Hidden (.5x) _ _ _ _ _ _ _ _ _ _ _ _ _ _ _ _ _
 72
    65
 73
     2
 40
4.762499999999999
 49
3.174999999999999
 74
     0
 49
-1.587499999999999
 74
     0
  0
LTYPE
  5
558
330
5
100
AcDbSymbolTableRecord
100
AcDbLinetypeTableRecord
  2
PHANTOM
 70
     0
  3
Phantom ______  __  __  ______  __  __  ______
 72
    65
 73
     6
 40
63.5
 49
31.75
 74
     0
 49
-6.349999999999999
 74
     0
 49
6.349999999999999
 74
     0
 49
-6.349999999999999
 74
     0
 49
6.349999999999999
 74
     0
 49
-6.349999999999999
 74
     0
  0
ENDTAB
  0
TABLE
  2
LAYER
  5
2
330
0
100
AcDbSymbolTable
 70
    22
  0
LAYER
  5
10
330
2
100
AcDbSymbolTableRecord
100
AcDbLayerTableRecord
  2
0
 70
     0
 62
     7
  6
CONTINUOUS
  0
LAYER
  5
75
330
2
100
AcDbSymbolTableRecord
100
AcDbLayerTableRecord
  2
VIEWPORT
 70
     0
 62
     1
  6
CONTINUOUS
  0
LAYER
  5
504
330
2
100
AcDbSymbolTableRecord
100
AcDbLayerTableRecord
  2
DEFPOINTS
 70
     0
 62
     7
  6
CONTINUOUS
  0
LAYER
  5
505
330
2
100
AcDbSymbolTableRecord
100
AcDbLayerTableRecord
  2
1C1
 70
     0
 62
   254
  6
CONTINUOUS
  0
LAYER
  5
506
330
2
100
AcDbSymbolTableRecord
100
AcDbLayerTableRecord
  2
1C2
 70
     0
 62
   254
  6
CONTINUOUS
  0
LAYER
  5
507
330
2
100
AcDbSymbolTableRecord
100
AcDbLayerTableRecord
  2
2C1
 70
     0
 62
   144
  6
CONTINUOUS
  0
LAYER
  5
508
330
2
100
AcDbSymbolTableRecord
100
AcDbLayerTableRecord
  2
2C2
 70
     0
 62
   144
  6
CONTINUOUS
  0
LAYER
  5
509
330
2
100
AcDbSymbolTableRecord
100
AcDbLayerTableRecord
  2
2H1
 70
     0
 62
   144
  6
HIDDEN
  0
LAYER
  5
50A
330
2
100
AcDbSymbolTableRecord
100
AcDbLayerTableRecord
  2
2H2
 70
     0
 62
   144
  6
HIDDEN2
  0
LAYER
  5
50B
330
2
100
AcDbSymbolTableRecord
100
AcDbLayerTableRecord
  2
2P1
 70
     0
 62
   144
  6
PHANTOM
  0
LAYER
  5
50C
330
2
100
AcDbSymbolTableRecord
100
AcDbLayerTableRecord
  2
3C1
 70
     0
 62
     7
  6
CONTINUOUS
  0
LAYER
  5
50D
330
2
100
AcDbSymbolTableRecord
100
AcDbLayerTableRecord
  2
3C2
 70
     0
 62
     7
  6
CONTINUOUS
  0
LAYER
  5
50E
330
2
100
AcDbSymbolTableRecord
100
AcDbLayerTableRecord
  2
3C3
 70
     0
 62
     7
  6
CONTINUOUS
  0
LAYER
  5
50F
330
2
100
AcDbSymbolTableRecord
100
AcDbLayerTableRecord
  2
4H1
 70
     0
 62
     6
  6
HIDDEN
  0
LAYER
  5
510
330
2
100
AcDbSymbolTableRecord
100
AcDbLayerTableRecord
  2
4H2
 70
     0
 62
     6
  6
HIDDEN2
  0
LAYER
  5
511
330
2
100
AcDbSymbolTableRecord
100
AcDbLayerTableRecord
  2
5C1
 70
     0
 62
    55
  6
CONTINUOUS
  0
LAYER
  5
512
330
2
100
AcDbSymbolTableRecord
100
AcDbLayerTableRecord
  2
5C2
 70
     0
 62
    55
  6
CONTINUOUS
  0
LAYER
  5
513
330
2
100
AcDbSymbolTableRecord
100
AcDbLayerTableRecord
  2
8C1
 70
     0
 62
    92
  6
CONTINUOUS
  0
LAYER
  5
514
330
2
100
AcDbSymbolTableRecord
100
AcDbLayerTableRecord
  2
HOJO
 70
     0
 62
     5
  6
CONTINUOUS
  0
LAYER
  5
515
330
2
100
AcDbSymbolTableRecord
100
AcDbLayerTableRecord
  2
KIJUN
 70
     0
 62
     1
  6
CENTER
  0
LAYER
  5
516
330
2
100
AcDbSymbolTableRecord
100
AcDbLayerTableRecord
  2
MOJI
 70
     0
 62
     7
  6
CONTINUOUS
  0
LAYER
  5
517
330
2
100
AcDbSymbolTableRecord
100
AcDbLayerTableRecord
  2
SUNPO
 70
     0
 62
   144
  6
CONTINUOUS
  0
ENDTAB
  0
TABLE
  2
STYLE
  5
3
330
0
100
AcDbSymbolTable
 70
     6
  0
STYLE
  5
11
330
3
100
AcDbSymbolTableRecord
100
AcDbTextStyleTableRecord
  2
STANDARD
 70
     0
 40
0.0
 41
1.0
 50
0.0
 71
     0
 42
2.5
  3
txt
  4

  0
STYLE
  5
2C
330
3
100
AcDbSymbolTableRecord
100
AcDbTextStyleTableRecord
  2

 70
     1
 40
0.0
 41
1.0
 50
0.0
 71
     0
 42
2.5
  3
ltypeshp.shx
  4

  0
STYLE
  5
18E
330
3
100
AcDbSymbolTableRecord
100
AcDbTextStyleTableRecord
  2
ADD
 70
     0
 40
0.0
 41
1.0
 50
0.0
 71
     0
 42
50.0
  3
romans.shx
  4
bigfont.shx
  0
STYLE
  5
191
330
3
100
AcDbSymbolTableRecord
100
AcDbTextStyleTableRecord
  2
MSG
 70
     0
 40
0.0
 41
1.0
 50
0.0
 71
     0
 42
2.5
  3
MS Gothic.ttf
  4

1001
ACAD
1000
MS Gothic
1071
    32817
  0
STYLE
  5
5C8
330
3
100
AcDbSymbolTableRecord
100
AcDbTextStyleTableRecord
  2
STANDARD15
 70
     0
 40
0.0
 41
1.0
 50
15.0
 71
     0
 42
2.5
  3
ROMANS
  4
bigfont
  0
STYLE
  5
5C9
330
3
100
AcDbSymbolTableRecord
100
AcDbTextStyleTableRecord
  2
ROMANS15
 70
     0
 40
0.0
 41
1.0
 50
15.0
 71
     0
 42
2.5
  3
romans
  4

  0
ENDTAB
  0
TABLE
  2
VIEW
  5
6
330
0
100
AcDbSymbolTable
 70
     1
  0
VIEW
  5
54D
330
6
100
AcDbSymbolTableRecord
100
AcDbViewTableRecord
  2
ALL
 70
     0
 40
594.0
 10
420.5
 20
297.0
 41
865.125
 11
0.0
 21
0.0
 31
1.0
 12
0.0
 22
0.0
 32
0.0
 42
50.0
 43
0.0
 44
0.0
 50
0.0
 71
     0
  0
ENDTAB
  0
TABLE
  2
UCS
  5
7
330
0
100
AcDbSymbolTable
 70
     0
  0
ENDTAB
  0
TABLE
  2
APPID
  5
9
330
0
100
AcDbSymbolTable
 70
     4
  0
APPID
  5
12
330
9
100
AcDbSymbolTableRecord
100
AcDbRegAppTableRecord
  2
ACAD
 70
     0
  0
APPID
  5
5CB
330
9
100
AcDbSymbolTableRecord
100
AcDbRegAppTableRecord
  2
ARAIGUMI_YOHEKI
 70
     0
  0
APPID
  5
5CC
330
9
100
AcDbSymbolTableRecord
100
AcDbRegAppTableRecord
  2
CONTENTTABDATA
 70
     0
  0
APPID
  5
5CD
330
9
100
AcDbSymbolTableRecord
100
AcDbRegAppTableRecord
  2
CONTENTCURRENTTAB
 70
     0
  0
ENDTAB
  0
TABLE
  2
DIMSTYLE
  5
A
330
0
100
AcDbSymbolTable
 70
    10
  0
DIMSTYLE
105
27
330
A
100
AcDbSymbolTableRecord
100
AcDbDimStyleTableRecord
  2
ISO-25
 70
     0
  3

  4

  5

  6

  7

 40
1.0
 41
2.5
 42
0.625
 43
3.75
 44
1.25
 45
0.0
 46
0.0
 47
0.0
 48
0.0
140
2.5
141
2.5
142
0.0
143
0.03937007874016
144
1.0
145
0.0
146
1.0
147
0.625
 71
     0
 72
     0
 73
     0
 74
     0
 75
     0
 76
     0
 77
     1
 78
     8
170
     0
171
     3
172
     1
173
     0
174
     0
175
     0
176
     0
177
     0
178
     0
270
     2
271
     2
272
     2
273
     2
274
     3
340
11
275
     0
280
     0
281
     0
282
     0
283
     0
284
     8
285
     0
286
     0
287
     3
288
     0
  0
DIMSTYLE
105
197
330
A
100
AcDbSymbolTableRecord
100
AcDbDimStyleTableRecord
  2
ADD
 70
     0
  3

  4

  5

  6

  7

 40
1.0
 41
2.5
 42
1.0
 43
7.0
 44
0.5
 45
0.0
 46
0.0
 47
0.0
 48
0.0
140
2.5
141
2.5
142
0.0
143
0.03937007874016
144
1.0
145
0.7
146
1.0
147
0.625
 71
     0
 72
     0
 73
     0
 74
     0
 75
     0
 76
     0
 77
     1
 78
     8
170
     0
171
     3
172
     1
173
     0
174
     1
175
     0
176
   144
177
   144
178
     7
270
     2
271
     1
272
     1
273
     2
274
     3
340
18E
275
     0
280
     0
281
     0
282
     0
283
     2
284
     8
285
     0
286
     0
287
     5
288
     0
  0
DIMSTYLE
105
3E6
330
A
100
AcDbSymbolTableRecord
100
AcDbDimStyleTableRecord
  2
ADD$2
 70
     0
  3

  4

  5
NONE
  6

  7

 40
1.0
 41
1.399999999999999
 42
1.0
 43
7.0
 44
0.5
 45
0.0
 46
0.0
 47
0.0
 48
0.0
140
1.9
141
2.5
142
0.0
143
0.03937007874016
144
1.0
145
0.7
146
1.0
147
0.625
 71
     0
 72
     0
 73
     1
 74
     1
 75
     0
 76
     0
 77
     2
 78
     8
170
     0
171
     3
172
     1
173
     0
174
     1
175
     0
176
   144
177
   144
178
     7
270
     2
271
     1
272
     1
273
     2
274
     3
340
18E
275
     0
280
     0
281
     0
282
     0
283
     2
284
     8
285
     0
286
     0
287
     5
288
     0
  0
DIMSTYLE
105
3E7
330
A
100
AcDbSymbolTableRecord
100
AcDbDimStyleTableRecord
  2
ADD$4
 70
     0
  3

  4

  5

  6

  7

 40
1.0
 41
2.5
 42
1.0
 43
7.0
 44
0.5
 45
0.0
 46
0.0
 47
0.0
 48
0.0
140
2.5
141
2.5
142
0.0
143
0.03937007874016
144
1.0
145
0.0
146
1.0
147
0.625
 71
     0
 72
     0
 73
     0
 74
     0
 75
     0
 76
     0
 77
     1
 78
     8
170
     0
171
     3
172
     1
173
     0
174
     1
175
     0
176
   144
177
   144
178
     7
270
     2
271
     1
272
     1
273
     2
274
     3
340
18E
275
     0
280
     0
281
     0
282
     0
283
     2
284
     8
285
     0
286
     0
287
     5
288
     0
  0
DIMSTYLE
105
3E8
330
A
100
AcDbSymbolTableRecord
100
AcDbDimStyleTableRecord
  2
ADD$3
 70
     0
  3

  4

  5

  6

  7

 40
1.0
 41
2.5
 42
1.0
 43
7.0
 44
0.5
 45
0.0
 46
0.0
 47
0.0
 48
0.0
140
2.5
141
0.0
142
0.0
143
0.03937007874016
144
1.0
145
0.0
146
1.0
147
0.625
 71
     0
 72
     0
 73
     0
 74
     0
 75
     0
 76
     0
 77
     1
 78
     8
170
     0
171
     3
172
     0
173
     0
174
     1
175
     0
176
   144
177
   144
178
     7
270
     2
271
     1
272
     1
273
     2
274
     3
340
18E
275
     0
280
     0
281
     0
282
     0
283
     2
284
     8
285
     0
286
     0
287
     4
288
     1
  0
DIMSTYLE
105
3E9
330
A
100
AcDbSymbolTableRecord
100
AcDbDimStyleTableRecord
  2
ADD$6
 70
     0
  3

  4

  5

  6

  7

 40
1.0
 41
2.5
 42
1.0
 43
7.0
 44
0.5
 45
0.0
 46
0.0
 47
0.0
 48
0.0
140
2.5
141
2.5
142
0.0
143
0.03937007874016
144
1.0
145
0.0
146
1.0
147
0.625
 71
     0
 72
     0
 73
     0
 74
     0
 75
     0
 76
     0
 77
     1
 78
     8
170
     0
171
     3
172
     1
173
     0
174
     1
175
     0
176
   144
177
   144
178
     7
270
     2
271
     1
272
     1
273
     2
274
     3
340
18E
275
     0
280
     0
281
     0
282
     0
283
     2
284
     8
285
     0
286
     0
287
     5
288
     0
  0
DIMSTYLE
105
3EA
330
A
100
AcDbSymbolTableRecord
100
AcDbDimStyleTableRecord
  2
ADD$7
 70
     0
  3

  4

  5

  6

  7

 40
1.0
 41
1.1
 42
1.0
 43
7.0
 44
0.5
 45
0.0
 46
0.0
 47
0.0
 48
0.0
140
2.5
141
2.5
142
0.0
143
0.03937007874016
144
1.0
145
0.0
146
1.0
147
0.625
 71
     0
 72
     0
 73
     0
 74
     0
 75
     0
 76
     0
 77
     0
 78
     8
170
     0
171
     3
172
     1
173
     0
174
     1
175
     0
176
   144
177
   144
178
     7
270
     2
271
     1
272
     1
273
     2
274
     3
340
18E
275
     0
280
     0
281
     0
282
     0
283
     2
284
     8
285
     0
286
     0
287
     5
288
     0
  0
DIMSTYLE
105
518
330
A
100
AcDbSymbolTableRecord
100
AcDbDimStyleTableRecord
  2
STANDARD
 70
     0
  3

  4

  5

  6

  7

 40
1.0
 41
0.18
 42
0.0625
 43
0.38
 44
0.18
 45
0.0
 46
0.0
 47
0.0
 48
0.0
140
0.18
141
0.09
142
0.0
143
25.4
144
1.0
145
0.0
146
1.0
147
0.09
 71
     0
 72
     0
 73
     1
 74
     1
 75
     0
 76
     0
 77
     0
 78
     0
170
     0
171
     2
172
     0
173
     0
174
     0
175
     0
176
     0
177
     0
178
     0
270
     2
271
     4
272
     4
273
     2
274
     2
340
11
275
     0
280
     0
281
     0
282
     0
283
     1
284
     0
285
     0
286
     0
287
     3
288
     0
  0
DIMSTYLE
105
550
102
{ACAD_REACTORS
330
3549
330
34AC
330
3497
330
32E2
330
32C6
330
328C
330
327D
330
3270
330
3229
102
}
330
A
100
AcDbSymbolTableRecord
100
AcDbDimStyleTableRecord
  2
ADD$0
 70
     0
  3

  4

  5

  6

  7

 40
1.0
 41
1.0
 42
1.0
 43
7.0
 44
0.5
 45
0.0
 46
0.0
 47
0.0
 48
0.0
140
1.9
141
2.5
142
0.0
143
0.03937007874016
144
1.0
145
0.7
146
1.0
147
0.625
 71
     0
 72
     0
 73
     0
 74
     0
 75
     0
 76
     0
 77
     1
 78
     8
170
     0
171
     3
172
     1
173
     0
174
     1
175
     0
176
   144
177
   144
178
     7
270
     2
271
     1
272
     1
273
     2
274
     3
340
18E
275
     0
280
     0
281
     0
282
     0
283
     2
284
     8
285
     0
286
     0
287
     5
288
     0
  0
DIMSTYLE
105
59B
330
A
100
AcDbSymbolTableRecord
100
AcDbDimStyleTableRecord
  2
ADD_M
 70
     0
  3

  4

  5

  6

  7

 40
1.0
 41
2.5
 42
1.0
 43
7.0
 44
0.5
 45
0.0
 46
0.0
 47
0.0
 48
0.0
140
2.5
141
2.5
142
0.0
143
0.03937007874016
144
1.0
145
0.7
146
1.0
147
0.625
 71
     0
 72
     0
 73
     0
 74
     0
 75
     0
 76
     0
 77
     1
 78
     8
170
     0
171
     3
172
     1
173
     0
174
     1
175
     0
176
   144
177
   144
178
     7
270
     2
271
     1
272
     1
273
     2
274
     3
340
18E
275
     0
280
     0
281
     0
282
     0
283
     2
284
     8
285
     0
286
     0
287
     5
288
     0
  0
ENDTAB
  0
TABLE
  2
BLOCK_RECORD
  5
1
330
0
100
AcDbSymbolTable
 70
    15
  0
BLOCK_RECORD
  5
1F
102
{ACAD_XDICTIONARY
360
19FC
102
}
330
1
100
AcDbSymbolTableRecord
100
AcDbBlockTableRecord
  2
*MODEL_SPACE
  0
BLOCK_RECORD
  5
1B
102
{ACAD_XDICTIONARY
360
19FE
102
}
330
1
100
AcDbSymbolTableRecord
100
AcDbBlockTableRecord
  2
*PAPER_SPACE
  0
BLOCK_RECORD
  5
192
330
1
100
AcDbSymbolTableRecord
100
AcDbBlockTableRecord
  2
_DOT
  0
BLOCK_RECORD
  5
5CE
330
1
100
AcDbSymbolTableRecord
100
AcDbBlockTableRecord
  2
A4
  0
BLOCK_RECORD
  5
636
330
1
100
AcDbSymbolTableRecord
100
AcDbBlockTableRecord
  2
_OPEN90
  0
BLOCK_RECORD
  5
63C
330
1
100
AcDbSymbolTableRecord
100
AcDbBlockTableRecord
  2
_OPEN30
  0
BLOCK_RECORD
  5
FDC
330
1
100
AcDbSymbolTableRecord
100
AcDbBlockTableRecord
  2
_DATUMFILLED
  0
BLOCK_RECORD
  5
2445
330
1
100
AcDbSymbolTableRecord
100
AcDbBlockTableRecord
  2
_NONE
  0
BLOCK_RECORD
  5
322A
330
1
100
AcDbSymbolTableRecord
100
AcDbBlockTableRecord
  2
*D6
  0
BLOCK_RECORD
  5
3271
330
1
100
AcDbSymbolTableRecord
100
AcDbBlockTableRecord
  2
*D7
  0
BLOCK_RECORD
  5
327E
330
1
100
AcDbSymbolTableRecord
100
AcDbBlockTableRecord
  2
*D8
  0
BLOCK_RECORD
  5
328D
330
1
100
AcDbSymbolTableRecord
100
AcDbBlockTableRecord
  2
*D9
  0
BLOCK_RECORD
  5
32C7
330
1
100
AcDbSymbolTableRecord
100
AcDbBlockTableRecord
  2
*D10
  0
BLOCK_RECORD
  5
32E3
330
1
100
AcDbSymbolTableRecord
100
AcDbBlockTableRecord
  2
*D11
  0
BLOCK_RECORD
  5
3498
330
1
100
AcDbSymbolTableRecord
100
AcDbBlockTableRecord
  2
*D12
  0
BLOCK_RECORD
  5
34AD
330
1
100
AcDbSymbolTableRecord
100
AcDbBlockTableRecord
  2
*D13
  0
BLOCK_RECORD
  5
354A
330
1
100
AcDbSymbolTableRecord
100
AcDbBlockTableRecord
  2
*D14
  0
ENDTAB
  0
ENDSEC
  0
SECTION
  2
BLOCKS
  0
BLOCK
  5
20
330
1F
100
AcDbEntity
  8
0
100
AcDbBlockBegin
  2
*MODEL_SPACE
 70
     0
 10
0.0
 20
0.0
 30
0.0
  3
*MODEL_SPACE
  1

  0
ENDBLK
  5
21
330
1F
100
AcDbEntity
  8
0
100
AcDbBlockEnd
  0
BLOCK
  5
1C
330
1B
100
AcDbEntity
 67
     1
  8
0
100
AcDbBlockBegin
  2
*PAPER_SPACE
 70
     0
 10
0.0
 20
0.0
 30
0.0
  3
*PAPER_SPACE
  1

  0
ENDBLK
  5
1D
330
1B
100
AcDbEntity
 67
     1
  8
0
100
AcDbBlockEnd
  0
BLOCK
  5
195
330
192
100
AcDbEntity
  8
0
100
AcDbBlockBegin
  2
_DOT
 70
     0
 10
0.0
 20
0.0
 30
0.0
  3
_DOT
  1

  0
POLYLINE
  5
193
330
192
100
AcDbEntity
  8
0
 62
     0
100
AcDb2dPolyline
 66
     1
 10
0.0
 20
0.0
 30
0.0
 70
     1
 40
0.5
 41
0.5
  0
VERTEX
  5
37F0
330
193
100
AcDbEntity
  8
0
 62
     0
100
AcDbVertex
100
AcDb2dVertex
 10
-0.25
 20
0.0
 30
0.0
 42
1.0
  0
VERTEX
  5
37F1
330
193
100
AcDbEntity
  8
0
 62
     0
100
AcDbVertex
100
AcDb2dVertex
 10
0.25
 20
0.0
 30
0.0
 42
1.0
  0
SEQEND
  5
37F2
330
193
100
AcDbEntity
  8
0
 62
     0
  0
LINE
  5
194
330
192
100
AcDbEntity
  8
0
 62
     0
100
AcDbLine
 10
-0.5
 20
0.0
 30
0.0
 11
-1.0
 21
0.0
 31
0.0
  0
ENDBLK
  5
196
330
192
100
AcDbEntity
  8
0
100
AcDbBlockEnd
  0
BLOCK
  5
5D1
330
5CE
100
AcDbEntity
  8
0
100
AcDbBlockBegin
  2
A4
 70
     0
 10
0.0
 20
0.0
 30
0.0
  3
A4
  1

  0
POLYLINE
  5
5CF
330
5CE
100
AcDbEntity
  8
HOJO
100
AcDb2dPolyline
 66
     1
 10
0.0
 20
0.0
 30
0.0
 70
     1
  0
VERTEX
  5
37F3
330
5CF
100
AcDbEntity
  8
HOJO
100
AcDbVertex
100
AcDb2dVertex
 10
0.0
 20
0.0
 30
0.0
  0
VERTEX
  5
37F4
330
5CF
100
AcDbEntity
  8
HOJO
100
AcDbVertex
100
AcDb2dVertex
 10
297.0
 20
0.0
 30
0.0
  0
VERTEX
  5
37F5
330
5CF
100
AcDbEntity
  8
HOJO
100
AcDbVertex
100
AcDb2dVertex
 10
297.0
 20
210.0
 30
0.0
  0
VERTEX
  5
37F6
330
5CF
100
AcDbEntity
  8
HOJO
100
AcDbVertex
100
AcDb2dVertex
 10
0.0
 20
210.0
 30
0.0
  0
SEQEND
  5
37F7
330
5CF
100
AcDbEntity
  8
HOJO
  0
POLYLINE
  5
5D0
330
5CE
100
AcDbEntity
  8
HOJO
100
AcDb2dPolyline
 66
     1
 10
0.0
 20
0.0
 30
0.0
 70
     1
  0
VERTEX
  5
37F8
330
5D0
100
AcDbEntity
  8
HOJO
100
AcDbVertex
100
AcDb2dVertex
 10
18.0
 20
13.0
 30
0.0
  0
VERTEX
  5
37F9
330
5D0
100
AcDbEntity
  8
HOJO
100
AcDbVertex
100
AcDb2dVertex
 10
279.0
 20
13.0
 30
0.0
  0
VERTEX
  5
37FA
330
5D0
100
AcDbEntity
  8
HOJO
100
AcDbVertex
100
AcDb2dVertex
 10
279.0
 20
197.0
 30
0.0
  0
VERTEX
  5
37FB
330
5D0
100
AcDbEntity
  8
HOJO
100
AcDbVertex
100
AcDb2dVertex
 10
18.0
 20
197.0
 30
0.0
  0
SEQEND
  5
37FC
330
5D0
100
AcDbEntity
  8
HOJO
  0
ENDBLK
  5
5D2
330
5CE
100
AcDbEntity
  8
0
100
AcDbBlockEnd
  0
BLOCK
  5
63A
330
636
100
AcDbEntity
  8
0
100
AcDbBlockBegin
  2
_OPEN90
 70
     0
 10
0.0
 20
0.0
 30
0.0
  3
_OPEN90
  1

  0
LINE
  5
637
330
636
100
AcDbEntity
  8
SUNPO
 62
     0
100
AcDbLine
 10
-0.5
 20
0.5
 30
0.0
 11
0.0
 21
0.0
 31
0.0
  0
LINE
  5
638
330
636
100
AcDbEntity
  8
SUNPO
 62
     0
100
AcDbLine
 10
0.0
 20
0.0
 30
0.0
 11
-0.5
 21
-0.5
 31
0.0
  0
LINE
  5
639
330
636
100
AcDbEntity
  8
SUNPO
 62
     0
100
AcDbLine
 10
0.0
 20
0.0
 30
0.0
 11
-1.0
 21
0.0
 31
0.0
  0
ENDBLK
  5
63B
330
636
100
AcDbEntity
  8
0
100
AcDbBlockEnd
  0
BLOCK
  5
640
330
63C
100
AcDbEntity
  8
0
100
AcDbBlockBegin
  2
_OPEN30
 70
     0
 10
0.0
 20
0.0
 30
0.0
  3
_OPEN30
  1

  0
LINE
  5
63D
330
63C
100
AcDbEntity
  8
SUNPO
 62
     0
100
AcDbLine
 10
-1.0
 20
0.26794919
 30
0.0
 11
0.0
 21
0.0
 31
0.0
  0
LINE
  5
63E
330
63C
100
AcDbEntity
  8
SUNPO
 62
     0
100
AcDbLine
 10
0.0
 20
0.0
 30
0.0
 11
-1.0
 21
-0.26794919
 31
0.0
  0
LINE
  5
63F
330
63C
100
AcDbEntity
  8
SUNPO
 62
     0
100
AcDbLine
 10
0.0
 20
0.0
 30
0.0
 11
-1.0
 21
0.0
 31
0.0
  0
ENDBLK
  5
641
330
63C
100
AcDbEntity
  8
0
100
AcDbBlockEnd
  0
BLOCK
  5
FDE
330
FDC
100
AcDbEntity
  8
0
100
AcDbBlockBegin
  2
_DATUMFILLED
 70
     0
 10
0.0
 20
0.0
 30
0.0
  3
_DATUMFILLED
  1

  0
SOLID
  5
FDD
330
FDC
100
AcDbEntity
  8
MOJI
 62
     0
100
AcDbTrace
 10
0.0
 20
0.5773502700000001
 30
0.0
 11
-1.0
 21
0.0
 31
0.0
 12
0.0
 22
-0.5773502700000001
 32
0.0
 13
0.0
 23
-0.5773502700000001
 33
0.0
  0
ENDBLK
  5
FDF
330
FDC
100
AcDbEntity
  8
0
100
AcDbBlockEnd
  0
BLOCK
  5
2446
330
2445
100
AcDbEntity
  8
0
100
AcDbBlockBegin
  2
_NONE
 70
     0
 10
0.0
 20
0.0
 30
0.0
  3
_NONE
  1

  0
ENDBLK
  5
2447
330
2445
100
AcDbEntity
  8
0
100
AcDbBlockEnd
  0
BLOCK
  5
3234
330
322A
100
AcDbEntity
  8
0
100
AcDbBlockBegin
  2
*D6
 70
     1
 10
0.0
 20
0.0
 30
0.0
  3
*D6
  1

  0
LINE
  5
3480
330
322A
100
AcDbEntity
  8
SUNPO
 62
   144
100
AcDbLine
 10
2755.0
 20
2920.0
 30
0.0
 11
2755.0
 21
3060.0
 31
0.0
  0
LINE
  5
3481
330
322A
100
AcDbEntity
  8
SUNPO
 62
   144
100
AcDbLine
 10
3245.0
 20
2920.0
 30
0.0
 11
3245.0
 21
3060.0
 31
0.0
  0
LINE
  5
3482
330
322A
100
AcDbEntity
  8
SUNPO
 62
   144
100
AcDbLine
 10
2777.0
 20
3050.0
 30
0.0
 11
3223.0
 21
3050.0
 31
0.0
  0
SOLID
  5
3483
330
322A
100
AcDbEntity
  8
SUNPO
 62
   144
100
AcDbTrace
 10
2777.0
 20
3053.666666666666
 30
0.0
 11
2777.0
 21
3046.333333333333
 31
0.0
 12
2755.0
 22
3050.0
 32
0.0
 13
2755.0
 23
3050.0
 33
0.0
  0
SOLID
  5
3484
330
322A
100
AcDbEntity
  8
SUNPO
 62
   144
100
AcDbTrace
 10
3223.0
 20
3053.666666666666
 30
0.0
 11
3223.0
 21
3046.333333333333
 31
0.0
 12
3245.0
 22
3050.0
 32
0.0
 13
3245.0
 23
3050.0
 33
0.0
  0
MTEXT
  5
3485
330
322A
100
AcDbEntity
  8
SUNPO
 62
     7
100
AcDbMText
 10
3000.0
 20
3080.5
 30
0.0
 40
36.0
 41
0.0
 71
     5
 72
     1
  1
\A2;490
  7
ADD
1001
ACAD
1000
MTEXTBEGIN
1070
    73
1070
     1
1070
    44
1040
1.0
1070
    74
1070
     0
1000
MTEXTEND
1000
MTEXTBEGIN
1070
    73
1070
     1
1070
    44
1040
1.0
1070
    74
1070
     0
1000
MTEXTEND
1000
MTEXTBEGIN
1070
    73
1070
     1
1070
    44
1040
1.0
1070
    74
1070
     0
1000
MTEXTEND
  0
POINT
  5
3486
330
322A
100
AcDbEntity
  8
DEFPOINTS
 62
     0
100
AcDbPoint
 10
2755.0
 20
2900.0
 30
0.0
  0
POINT
  5
3487
330
322A
100
AcDbEntity
  8
DEFPOINTS
 62
     0
100
AcDbPoint
 10
3245.0
 20
2900.0
 30
0.0
  0
POINT
  5
3488
330
322A
100
AcDbEntity
  8
DEFPOINTS
 62
     0
100
AcDbPoint
 10
3245.0
 20
3050.0
 30
0.0
  0
ENDBLK
  5
3235
330
322A
100
AcDbEntity
  8
0
100
AcDbBlockEnd
  0
BLOCK
  5
327B
330
3271
100
AcDbEntity
  8
0
100
AcDbBlockBegin
  2
*D7
 70
     1
 10
0.0
 20
0.0
 30
0.0
  3
*D7
  1

  0
LINE
  5
3272
330
3271
100
AcDbEntity
  8
SUNPO
 62
   144
100
AcDbLine
 10
2930.0
 20
2090.0
 30
0.0
 11
2930.0
 21
2210.0
 31
0.0
  0
LINE
  5
3273
330
3271
100
AcDbEntity
  8
SUNPO
 62
   144
100
AcDbLine
 10
3069.999999999999
 20
2090.0
 30
0.0
 11
3069.999999999999
 21
2210.0
 31
0.0
  0
LINE
  5
3274
330
3271
100
AcDbEntity
  8
SUNPO
 62
   144
100
AcDbLine
 10
2952.0
 20
2200.0
 30
0.0
 11
3048.0
 21
2200.0
 31
0.0
  0
SOLID
  5
3275
330
3271
100
AcDbEntity
  8
SUNPO
 62
   144
100
AcDbTrace
 10
2952.0
 20
2203.666666666666
 30
0.0
 11
2952.0
 21
2196.333333333333
 31
0.0
 12
2930.0
 22
2200.0
 32
0.0
 13
2930.0
 23
2200.0
 33
0.0
  0
SOLID
  5
3276
330
3271
100
AcDbEntity
  8
SUNPO
 62
   144
100
AcDbTrace
 10
3048.0
 20
2203.666666666666
 30
0.0
 11
3048.0
 21
2196.333333333333
 31
0.0
 12
3069.999999999999
 22
2200.0
 32
0.0
 13
3069.999999999999
 23
2200.0
 33
0.0
  0
MTEXT
  5
3277
330
3271
100
AcDbEntity
  8
SUNPO
 62
     7
100
AcDbMText
 10
3000.0
 20
2230.5
 30
0.0
 40
36.0
 41
0.0
 71
     5
 72
     1
  1
\A2;140
  7
ADD
1001
ACAD
1000
MTEXTBEGIN
1070
    73
1070
     1
1070
    44
1040
1.0
1070
    74
1070
     0
1000
MTEXTEND
1000
MTEXTBEGIN
1070
    73
1070
     1
1070
    44
1040
1.0
1070
    74
1070
     0
1000
MTEXTEND
1000
MTEXTBEGIN
1070
    73
1070
     1
1070
    44
1040
1.0
1070
    74
1070
     0
1000
MTEXTEND
  0
POINT
  5
3278
330
3271
100
AcDbEntity
  8
DEFPOINTS
 62
     0
100
AcDbPoint
 10
2930.0
 20
2070.0
 30
0.0
  0
POINT
  5
3279
330
3271
100
AcDbEntity
  8
DEFPOINTS
 62
     0
100
AcDbPoint
 10
3069.999999999999
 20
2070.0
 30
0.0
  0
POINT
  5
327A
330
3271
100
AcDbEntity
  8
DEFPOINTS
 62
     0
100
AcDbPoint
 10
3069.999999999999
 20
2200.0
 30
0.0
  0
ENDBLK
  5
327C
330
3271
100
AcDbEntity
  8
0
100
AcDbBlockEnd
  0
BLOCK
  5
328A
330
327E
100
AcDbEntity
  8
0
100
AcDbBlockBegin
  2
*D8
 70
     1
 10
0.0
 20
0.0
 30
0.0
  3
*D8
  1

  0
LINE
  5
327F
330
327E
100
AcDbEntity
  8
SUNPO
 62
   144
100
AcDbLine
 10
2900.0
 20
2120.0
 30
0.0
 11
2900.0
 21
2210.0
 31
0.0
  0
LINE
  5
3280
330
327E
100
AcDbEntity
  8
SUNPO
 62
   144
100
AcDbLine
 10
2930.0
 20
2090.0
 30
0.0
 11
2930.0
 21
2210.0
 31
0.0
  0
LINE
  5
3281
330
327E
100
AcDbEntity
  8
SUNPO
 62
   144
100
AcDbLine
 10
2878.0
 20
2200.0
 30
0.0
 11
2855.999999999999
 21
2200.0
 31
0.0
  0
LINE
  5
3282
330
327E
100
AcDbEntity
  8
SUNPO
 62
   144
100
AcDbLine
 10
2952.0
 20
2200.0
 30
0.0
 11
2974.0
 21
2200.0
 31
0.0
  0
LINE
  5
3283
330
327E
100
AcDbEntity
  8
SUNPO
 62
   144
100
AcDbLine
 10
2900.0
 20
2200.0
 30
0.0
 11
2930.0
 21
2200.0
 31
0.0
  0
SOLID
  5
3284
330
327E
100
AcDbEntity
  8
SUNPO
 62
   144
100
AcDbTrace
 10
2878.0
 20
2203.666666666666
 30
0.0
 11
2878.0
 21
2196.333333333333
 31
0.0
 12
2900.0
 22
2200.0
 32
0.0
 13
2900.0
 23
2200.0
 33
0.0
  0
SOLID
  5
3285
330
327E
100
AcDbEntity
  8
SUNPO
 62
   144
100
AcDbTrace
 10
2952.0
 20
2203.666666666666
 30
0.0
 11
2952.0
 21
2196.333333333333
 31
0.0
 12
2930.0
 22
2200.0
 32
0.0
 13
2930.0
 23
2200.0
 33
0.0
  0
MTEXT
  5
3286
330
327E
100
AcDbEntity
  8
SUNPO
 62
     7
100
AcDbMText
 10
2915.0
 20
2230.5
 30
0.0
 40
36.0
 41
0.0
 71
     5
 72
     1
  1
\A2;30
  7
ADD
1001
ACAD
1000
MTEXTBEGIN
1070
    73
1070
     1
1070
    44
1040
1.0
1070
    74
1070
     0
1000
MTEXTEND
1000
MTEXTBEGIN
1070
    73
1070
     1
1070
    44
1040
1.0
1070
    74
1070
     0
1000
MTEXTEND
1000
MTEXTBEGIN
1070
    73
1070
     1
1070
    44
1040
1.0
1070
    74
1070
     0
1000
MTEXTEND
  0
POINT
  5
3287
330
327E
100
AcDbEntity
  8
DEFPOINTS
 62
     0
100
AcDbPoint
 10
2900.0
 20
2100.0
 30
0.0
  0
POINT
  5
3288
330
327E
100
AcDbEntity
  8
DEFPOINTS
 62
     0
100
AcDbPoint
 10
2930.0
 20
2070.0
 30
0.0
  0
POINT
  5
3289
330
327E
100
AcDbEntity
  8
DEFPOINTS
 62
     0
100
AcDbPoint
 10
2930.0
 20
2200.0
 30
0.0
  0
ENDBLK
  5
328B
330
327E
100
AcDbEntity
  8
0
100
AcDbBlockEnd
  0
BLOCK
  5
3299
330
328D
100
AcDbEntity
  8
0
100
AcDbBlockBegin
  2
*D9
 70
     1
 10
0.0
 20
0.0
 30
0.0
  3
*D9
  1

  0
LINE
  5
328E
330
328D
100
AcDbEntity
  8
SUNPO
 62
   144
100
AcDbLine
 10
3069.999999999999
 20
2090.0
 30
0.0
 11
3069.999999999999
 21
2210.0
 31
0.0
  0
LINE
  5
328F
330
328D
100
AcDbEntity
  8
SUNPO
 62
   144
100
AcDbLine
 10
3099.999999999999
 20
2120.0
 30
0.0
 11
3099.999999999999
 21
2210.0
 31
0.0
  0
LINE
  5
3290
330
328D
100
AcDbEntity
  8
SUNPO
 62
   144
100
AcDbLine
 10
3048.0
 20
2200.0
 30
0.0
 11
3025.999999999999
 21
2200.0
 31
0.0
  0
LINE
  5
3291
330
328D
100
AcDbEntity
  8
SUNPO
 62
   144
100
AcDbLine
 10
3121.999999999999
 20
2200.0
 30
0.0
 11
3144.0
 21
2200.0
 31
0.0
  0
LINE
  5
3292
330
328D
100
AcDbEntity
  8
SUNPO
 62
   144
100
AcDbLine
 10
3069.999999999999
 20
2200.0
 30
0.0
 11
3099.999999999999
 21
2200.0
 31
0.0
  0
SOLID
  5
3293
330
328D
100
AcDbEntity
  8
SUNPO
 62
   144
100
AcDbTrace
 10
3048.0
 20
2203.666666666666
 30
0.0
 11
3048.0
 21
2196.333333333333
 31
0.0
 12
3069.999999999999
 22
2200.0
 32
0.0
 13
3069.999999999999
 23
2200.0
 33
0.0
  0
SOLID
  5
3294
330
328D
100
AcDbEntity
  8
SUNPO
 62
   144
100
AcDbTrace
 10
3121.999999999999
 20
2203.666666666666
 30
0.0
 11
3121.999999999999
 21
2196.333333333333
 31
0.0
 12
3099.999999999999
 22
2200.0
 32
0.0
 13
3099.999999999999
 23
2200.0
 33
0.0
  0
MTEXT
  5
3295
330
328D
100
AcDbEntity
  8
SUNPO
 62
     7
100
AcDbMText
 10
3084.999999999999
 20
2230.5
 30
0.0
 40
36.0
 41
0.0
 71
     5
 72
     1
  1
\A2;30
  7
ADD
1001
ACAD
1000
MTEXTBEGIN
1070
    73
1070
     1
1070
    44
1040
1.0
1070
    74
1070
     0
1000
MTEXTEND
1000
MTEXTBEGIN
1070
    73
1070
     1
1070
    44
1040
1.0
1070
    74
1070
     0
1000
MTEXTEND
1000
MTEXTBEGIN
1070
    73
1070
     1
1070
    44
1040
1.0
1070
    74
1070
     0
1000
MTEXTEND
  0
POINT
  5
3296
330
328D
100
AcDbEntity
  8
DEFPOINTS
 62
     0
100
AcDbPoint
 10
3069.999999999999
 20
2070.0
 30
0.0
  0
POINT
  5
3297
330
328D
100
AcDbEntity
  8
DEFPOINTS
 62
     0
100
AcDbPoint
 10
3099.999999999999
 20
2100.0
 30
0.0
  0
POINT
  5
3298
330
328D
100
AcDbEntity
  8
DEFPOINTS
 62
     0
100
AcDbPoint
 10
3099.999999999999
 20
2200.0
 30
0.0
  0
ENDBLK
  5
329A
330
328D
100
AcDbEntity
  8
0
100
AcDbBlockEnd
  0
BLOCK
  5
32D1
330
32C7
100
AcDbEntity
  8
0
100
AcDbBlockBegin
  2
*D10
 70
     1
 10
0.0
 20
0.0
 30
0.0
  3
*D10
  1

  0
LINE
  5
3579
330
32C7
100
AcDbEntity
  8
SUNPO
 62
   144
100
AcDbLine
 10
2734.999999999999
 20
2100.0
 30
0.0
 11
2590.0
 21
2100.0
 31
0.0
  0
LINE
  5
357A
330
32C7
100
AcDbEntity
  8
SUNPO
 62
   144
100
AcDbLine
 10
2734.999999999999
 20
1605.0
 30
0.0
 11
2590.0
 21
1605.0
 31
0.0
  0
LINE
  5
357B
330
32C7
100
AcDbEntity
  8
SUNPO
 62
   144
100
AcDbLine
 10
2600.0
 20
2078.0
 30
0.0
 11
2600.0
 21
1627.0
 31
0.0
  0
SOLID
  5
357C
330
32C7
100
AcDbEntity
  8
SUNPO
 62
   144
100
AcDbTrace
 10
2596.333333333333
 20
2078.0
 30
0.0
 11
2603.666666666666
 21
2078.0
 31
0.0
 12
2600.0
 22
2100.0
 32
0.0
 13
2600.0
 23
2100.0
 33
0.0
  0
SOLID
  5
357D
330
32C7
100
AcDbEntity
  8
SUNPO
 62
   144
100
AcDbTrace
 10
2596.333333333333
 20
1627.0
 30
0.0
 11
2603.666666666666
 21
1627.0
 31
0.0
 12
2600.0
 22
1605.0
 32
0.0
 13
2600.0
 23
1605.0
 33
0.0
  0
MTEXT
  5
357E
330
32C7
100
AcDbEntity
  8
SUNPO
 62
     7
100
AcDbMText
 10
2569.499999999999
 20
1852.5
 30
0.0
 40
36.0
 41
0.0
 71
     5
 72
     1
  1
\A2;495
  7
ADD
 11
0.0000000000000001
 21
1.0
 31
0.0
1001
ACAD
1000
MTEXTBEGIN
1070
    73
1070
     1
1070
    44
1040
1.0
1070
    74
1070
     0
1000
MTEXTEND
1000
MTEXTBEGIN
1070
    73
1070
     1
1070
    44
1040
1.0
1070
    74
1070
     0
1000
MTEXTEND
1000
MTEXTBEGIN
1070
    73
1070
     1
1070
    44
1040
1.0
1070
    74
1070
     0
1000
MTEXTEND
  0
POINT
  5
357F
330
32C7
100
AcDbEntity
  8
DEFPOINTS
 62
     0
100
AcDbPoint
 10
2754.999999999999
 20
2100.0
 30
0.0
  0
POINT
  5
3580
330
32C7
100
AcDbEntity
  8
DEFPOINTS
 62
     0
100
AcDbPoint
 10
2754.999999999999
 20
1605.0
 30
0.0
  0
POINT
  5
3581
330
32C7
100
AcDbEntity
  8
DEFPOINTS
 62
     0
100
AcDbPoint
 10
2600.0
 20
1605.0
 30
0.0
  0
ENDBLK
  5
32D2
330
32C7
100
AcDbEntity
  8
0
100
AcDbBlockEnd
  0
BLOCK
  5
32EF
330
32E3
100
AcDbEntity
  8
0
100
AcDbBlockBegin
  2
*D11
 70
     1
 10
0.0
 20
0.0
 30
0.0
  3
*D11
  1

  0
LINE
  5
356E
330
32E3
100
AcDbEntity
  8
SUNPO
 62
   144
100
AcDbLine
 10
2735.0
 20
2100.0
 30
0.0
 11
2665.0
 21
2100.0
 31
0.0
  0
LINE
  5
356F
330
32E3
100
AcDbEntity
  8
SUNPO
 62
   144
100
AcDbLine
 10
2735.0
 20
2070.0
 30
0.0
 11
2665.0
 21
2070.0
 31
0.0
  0
LINE
  5
3570
330
32E3
100
AcDbEntity
  8
SUNPO
 62
   144
100
AcDbLine
 10
2675.0
 20
2122.0
 30
0.0
 11
2675.0
 21
2144.0
 31
0.0
  0
LINE
  5
3571
330
32E3
100
AcDbEntity
  8
SUNPO
 62
   144
100
AcDbLine
 10
2675.0
 20
2047.999999999999
 30
0.0
 11
2675.0
 21
2025.999999999999
 31
0.0
  0
MTEXT
  5
3572
330
32E3
100
AcDbEntity
  8
SUNPO
 62
     7
100
AcDbMText
 10
2650.0
 20
2150.0
 30
0.0
 40
36.0
 41
0.0
 71
     5
 72
     1
  1
\A2;30
  7
ADD
 11
0.0000000000000001
 21
1.0
 31
0.0
1001
ACAD
1000
MTEXTBEGIN
1070
    73
1070
     1
1070
    44
1040
1.0
1070
    74
1070
     0
1000
MTEXTEND
1000
MTEXTBEGIN
1070
    73
1070
     1
1070
    44
1040
1.0
1070
    74
1070
     0
1000
MTEXTEND
1000
MTEXTBEGIN
1070
    73
1070
     1
1070
    44
1040
1.0
1070
    74
1070
     0
1000
MTEXTEND
  0
LINE
  5
3573
330
32E3
100
AcDbEntity
  8
SUNPO
 62
   144
100
AcDbLine
 10
2675.0
 20
2100.0
 30
0.0
 11
2675.0
 21
2070.0
 31
0.0
  0
SOLID
  5
3574
330
32E3
100
AcDbEntity
  8
SUNPO
 62
   144
100
AcDbTrace
 10
2671.333333333333
 20
2122.0
 30
0.0
 11
2678.666666666666
 21
2122.0
 31
0.0
 12
2675.0
 22
2100.0
 32
0.0
 13
2675.0
 23
2100.0
 33
0.0
  0
SOLID
  5
3575
330
32E3
100
AcDbEntity
  8
SUNPO
 62
   144
100
AcDbTrace
 10
2671.333333333333
 20
2047.999999999999
 30
0.0
 11
2678.666666666666
 21
2047.999999999999
 31
0.0
 12
2675.0
 22
2070.0
 32
0.0
 13
2675.0
 23
2070.0
 33
0.0
  0
POINT
  5
3576
330
32E3
100
AcDbEntity
  8
DEFPOINTS
 62
     0
100
AcDbPoint
 10
2755.0
 20
2100.0
 30
0.0
  0
POINT
  5
3577
330
32E3
100
AcDbEntity
  8
DEFPOINTS
 62
     0
100
AcDbPoint
 10
2755.0
 20
2070.0
 30
0.0
  0
POINT
  5
3578
330
32E3
100
AcDbEntity
  8
DEFPOINTS
 62
     0
100
AcDbPoint
 10
2675.0
 20
2070.0
 30
0.0
  0
ENDBLK
  5
32F0
330
32E3
100
AcDbEntity
  8
0
100
AcDbBlockEnd
  0
BLOCK
  5
34A2
330
3498
100
AcDbEntity
  8
0
100
AcDbBlockBegin
  2
*D12
 70
     1
 10
0.0
 20
0.0
 30
0.0
  3
*D12
  1

  0
LINE
  5
3499
330
3498
100
AcDbEntity
  8
SUNPO
 62
   144
100
AcDbLine
 10
2735.0
 20
2900.0
 30
0.0
 11
2590.0
 21
2900.0
 31
0.0
  0
LINE
  5
349A
330
3498
100
AcDbEntity
  8
SUNPO
 62
   144
100
AcDbLine
 10
2735.0
 20
2780.0
 30
0.0
 11
2590.0
 21
2780.0
 31
0.0
  0
LINE
  5
349B
330
3498
100
AcDbEntity
  8
SUNPO
 62
   144
100
AcDbLine
 10
2600.0
 20
2878.0
 30
0.0
 11
2600.0
 21
2802.0
 31
0.0
  0
SOLID
  5
349C
330
3498
100
AcDbEntity
  8
SUNPO
 62
   144
100
AcDbTrace
 10
2596.333333333333
 20
2878.0
 30
0.0
 11
2603.666666666666
 21
2878.0
 31
0.0
 12
2600.0
 22
2900.0
 32
0.0
 13
2600.0
 23
2900.0
 33
0.0
  0
SOLID
  5
349D
330
3498
100
AcDbEntity
  8
SUNPO
 62
   144
100
AcDbTrace
 10
2596.333333333333
 20
2802.0
 30
0.0
 11
2603.666666666666
 21
2802.0
 31
0.0
 12
2600.0
 22
2780.0
 32
0.0
 13
2600.0
 23
2780.0
 33
0.0
  0
MTEXT
  5
349E
330
3498
100
AcDbEntity
  8
SUNPO
 62
     7
100
AcDbMText
 10
2569.499999999999
 20
2840.0
 30
0.0
 40
36.0
 41
0.0
 71
     5
 72
     1
  1
\A2;120
  7
ADD
 11
0.0000000000000001
 21
1.0
 31
0.0
1001
ACAD
1000
MTEXTBEGIN
1070
    73
1070
     1
1070
    44
1040
1.0
1070
    74
1070
     0
1000
MTEXTEND
1000
MTEXTBEGIN
1070
    73
1070
     1
1070
    44
1040
1.0
1070
    74
1070
     0
1000
MTEXTEND
1000
MTEXTBEGIN
1070
    73
1070
     1
1070
    44
1040
1.0
1070
    74
1070
     0
1000
MTEXTEND
  0
POINT
  5
349F
330
3498
100
AcDbEntity
  8
DEFPOINTS
 62
     0
100
AcDbPoint
 10
2755.0
 20
2900.0
 30
0.0
  0
POINT
  5
34A0
330
3498
100
AcDbEntity
  8
DEFPOINTS
 62
     0
100
AcDbPoint
 10
2755.0
 20
2780.0
 30
0.0
  0
POINT
  5
34A1
330
3498
100
AcDbEntity
  8
DEFPOINTS
 62
     0
100
AcDbPoint
 10
2600.0
 20
2780.0
 30
0.0
  0
ENDBLK
  5
34A3
330
3498
100
AcDbEntity
  8
0
100
AcDbBlockEnd
  0
BLOCK
  5
34B9
330
34AD
100
AcDbEntity
  8
0
100
AcDbBlockBegin
  2
*D13
 70
     1
 10
0.0
 20
0.0
 30
0.0
  3
*D13
  1

  0
LINE
  5
34CC
330
34AD
100
AcDbEntity
  8
SUNPO
 62
   144
100
AcDbLine
 10
2735.0
 20
2800.0
 30
0.0
 11
2665.0
 21
2800.0
 31
0.0
  0
LINE
  5
34CD
330
34AD
100
AcDbEntity
  8
SUNPO
 62
   144
100
AcDbLine
 10
2735.0
 20
2780.0
 30
0.0
 11
2665.0
 21
2780.0
 31
0.0
  0
LINE
  5
34CE
330
34AD
100
AcDbEntity
  8
SUNPO
 62
   144
100
AcDbLine
 10
2675.0
 20
2822.0
 30
0.0
 11
2675.0
 21
2844.0
 31
0.0
  0
LINE
  5
34CF
330
34AD
100
AcDbEntity
  8
SUNPO
 62
   144
100
AcDbLine
 10
2675.0
 20
2758.0
 30
0.0
 11
2675.0
 21
2736.0
 31
0.0
  0
MTEXT
  5
34D0
330
34AD
100
AcDbEntity
  8
SUNPO
 62
     7
100
AcDbMText
 10
2645.0
 20
2730.0
 30
0.0
 40
36.0
 41
0.0
 71
     5
 72
     1
  1
\A2;20
  7
ADD
 11
0.0000000000000001
 21
1.0
 31
0.0
1001
ACAD
1000
MTEXTBEGIN
1070
    73
1070
     1
1070
    44
1040
1.0
1070
    74
1070
     0
1000
MTEXTEND
1000
MTEXTBEGIN
1070
    73
1070
     1
1070
    44
1040
1.0
1070
    74
1070
     0
1000
MTEXTEND
1000
MTEXTBEGIN
1070
    73
1070
     1
1070
    44
1040
1.0
1070
    74
1070
     0
1000
MTEXTEND
  0
LINE
  5
34D1
330
34AD
100
AcDbEntity
  8
SUNPO
 62
   144
100
AcDbLine
 10
2675.0
 20
2800.0
 30
0.0
 11
2675.0
 21
2780.0
 31
0.0
  0
SOLID
  5
34D2
330
34AD
100
AcDbEntity
  8
SUNPO
 62
   144
100
AcDbTrace
 10
2671.333333333333
 20
2822.0
 30
0.0
 11
2678.666666666666
 21
2822.0
 31
0.0
 12
2675.0
 22
2800.0
 32
0.0
 13
2675.0
 23
2800.0
 33
0.0
  0
SOLID
  5
34D3
330
34AD
100
AcDbEntity
  8
SUNPO
 62
   144
100
AcDbTrace
 10
2671.333333333333
 20
2758.0
 30
0.0
 11
2678.666666666666
 21
2758.0
 31
0.0
 12
2675.0
 22
2780.0
 32
0.0
 13
2675.0
 23
2780.0
 33
0.0
  0
POINT
  5
34D4
330
34AD
100
AcDbEntity
  8
DEFPOINTS
 62
     0
100
AcDbPoint
 10
2755.0
 20
2800.0
 30
0.0
  0
POINT
  5
34D5
330
34AD
100
AcDbEntity
  8
DEFPOINTS
 62
     0
100
AcDbPoint
 10
2755.0
 20
2780.0
 30
0.0
  0
POINT
  5
34D6
330
34AD
100
AcDbEntity
  8
DEFPOINTS
 62
     0
100
AcDbPoint
 10
2675.0
 20
2780.0
 30
0.0
  0
ENDBLK
  5
34BA
330
34AD
100
AcDbEntity
  8
0
100
AcDbBlockEnd
  0
BLOCK
  5
3554
330
354A
100
AcDbEntity
  8
0
100
AcDbBlockBegin
  2
*D14
 70
     1
 10
0.0
 20
0.0
 30
0.0
  3
*D14
  1

  0
LINE
  5
354B
330
354A
100
AcDbEntity
  8
SUNPO
 62
   144
100
AcDbLine
 10
2825.0
 20
2760.0
 30
0.0
 11
2825.0
 21
2590.0
 31
0.0
  0
LINE
  5
354C
330
354A
100
AcDbEntity
  8
SUNPO
 62
   144
100
AcDbLine
 10
3175.0
 20
2760.0
 30
0.0
 11
3175.0
 21
2590.0
 31
0.0
  0
LINE
  5
354D
330
354A
100
AcDbEntity
  8
SUNPO
 62
   144
100
AcDbLine
 10
2847.0
 20
2600.0
 30
0.0
 11
3153.0
 21
2600.0
 31
0.0
  0
SOLID
  5
354E
330
354A
100
AcDbEntity
  8
SUNPO
 62
   144
100
AcDbTrace
 10
2847.0
 20
2603.666666666666
 30
0.0
 11
2847.0
 21
2596.333333333333
 31
0.0
 12
2825.0
 22
2600.0
 32
0.0
 13
2825.0
 23
2600.0
 33
0.0
  0
SOLID
  5
354F
330
354A
100
AcDbEntity
  8
SUNPO
 62
   144
100
AcDbTrace
 10
3153.0
 20
2603.666666666666
 30
0.0
 11
3153.0
 21
2596.333333333333
 31
0.0
 12
3175.0
 22
2600.0
 32
0.0
 13
3175.0
 23
2600.0
 33
0.0
  0
MTEXT
  5
3550
330
354A
100
AcDbEntity
  8
SUNPO
 62
     7
100
AcDbMText
 10
3000.0
 20
2630.5
 30
0.0
 40
36.0
 41
0.0
 71
     5
 72
     1
  1
\A2;350
  7
ADD
1001
ACAD
1000
MTEXTBEGIN
1070
    73
1070
     1
1070
    44
1040
1.0
1070
    74
1070
     0
1000
MTEXTEND
1000
MTEXTBEGIN
1070
    73
1070
     1
1070
    44
1040
1.0
1070
    74
1070
     0
1000
MTEXTEND
1000
MTEXTBEGIN
1070
    73
1070
     1
1070
    44
1040
1.0
1070
    74
1070
     0
1000
MTEXTEND
  0
POINT
  5
3551
330
354A
100
AcDbEntity
  8
DEFPOINTS
 62
     0
100
AcDbPoint
 10
2825.0
 20
2780.0
 30
0.0
  0
POINT
  5
3552
330
354A
100
AcDbEntity
  8
DEFPOINTS
 62
     0
100
AcDbPoint
 10
3175.0
 20
2780.0
 30
0.0
  0
POINT
  5
3553
330
354A
100
AcDbEntity
  8
DEFPOINTS
 62
     0
100
AcDbPoint
 10
3175.0
 20
2600.0
 30
0.0
  0
ENDBLK
  5
3555
330
354A
100
AcDbEntity
  8
0
100
AcDbBlockEnd
  0
ENDSEC
  0
SECTION
  2
ENTITIES
  0
LINE
  5
60A
330
1F
100
AcDbEntity
  8
3C1
100
AcDbLine
 10
360.0
 20
260.0
 30
0.0
 11
5580.0
 21
260.0
 31
0.0
  0
LINE
  5
60B
330
1F
100
AcDbEntity
  8
3C1
100
AcDbLine
 10
360.0
 20
560.0
 30
0.0
 11
5580.0
 21
560.0
 31
0.0
  0
LINE
  5
60C
330
1F
100
AcDbEntity
  8
3C1
100
AcDbLine
 10
360.0
 20
260.0
 30
0.0
 11
360.0
 21
560.0
 31
0.0
  0
LINE
  5
60F
330
1F
100
AcDbEntity
  8
3C1
100
AcDbLine
 10
3160.0
 20
260.0
 30
0.0
 11
3160.0
 21
560.0
 31
0.0
  0
LINE
  5
610
330
1F
100
AcDbEntity
  8
3C1
100
AcDbLine
 10
3660.0
 20
260.0
 30
0.0
 11
3660.0
 21
560.0
 31
0.0
  0
LINE
  5
320A
330
1F
100
AcDbEntity
  8
3C1
100
AcDbLine
 10
2460.0
 20
260.0
 30
0.0
 11
2460.0
 21
560.0
 31
0.0
  0
LINE
  5
3219
330
1F
100
AcDbEntity
  8
3C1
100
AcDbLine
 10
2755.0
 20
2900.0
 30
0.0
 11
2755.0
 21
2800.0
 31
0.0
  0
LINE
  5
321A
330
1F
100
AcDbEntity
  8
3C1
100
AcDbLine
 10
2825.0
 20
2780.0
 30
0.0
 11
3175.0
 21
2780.0
 31
0.0
  0
LINE
  5
321B
330
1F
100
AcDbEntity
  8
3C1
100
AcDbLine
 10
3245.0
 20
2800.0
 30
0.0
 11
3245.0
 21
2900.0
 31
0.0
  0
LINE
  5
321C
330
1F
100
AcDbEntity
  8
3C1
100
AcDbLine
 10
3245.0
 20
2900.0
 30
0.0
 11
2755.0
 21
2900.0
 31
0.0
  0
LINE
  5
321D
330
1F
100
AcDbEntity
  8
3C1
100
AcDbLine
 10
2900.0
 20
2900.0
 30
0.0
 11
2900.0
 21
2780.0
 31
0.0
  0
LINE
  5
321E
330
1F
100
AcDbEntity
  8
3C1
100
AcDbLine
 10
2930.0
 20
2900.0
 30
0.0
 11
2930.0
 21
2780.0
 31
0.0
  0
LINE
  5
321F
330
1F
100
AcDbEntity
  8
3C1
100
AcDbLine
 10
3070.0
 20
2900.0
 30
0.0
 11
3070.0
 21
2780.0
 31
0.0
  0
LINE
  5
3220
330
1F
100
AcDbEntity
  8
3C1
100
AcDbLine
 10
3100.0
 20
2900.0
 30
0.0
 11
3100.0
 21
2780.0
 31
0.0
  0
LINE
  5
3221
330
1F
100
AcDbEntity
  8
3C1
100
AcDbLine
 10
2900.0
 20
2100.0
 30
0.0
 11
2755.0
 21
2100.0
 31
0.0
  0
LINE
  5
3222
330
1F
100
AcDbEntity
  8
3C1
100
AcDbLine
 10
2755.0
 20
2100.0
 30
0.0
 11
2754.999999999999
 21
1605.0
 31
0.0
  0
LINE
  5
3223
330
1F
100
AcDbEntity
  8
3C1
100
AcDbLine
 10
2754.999999999999
 20
1605.0
 30
0.0
 11
3245.0
 21
1605.0
 31
0.0
  0
LINE
  5
3224
330
1F
100
AcDbEntity
  8
3C1
100
AcDbLine
 10
3245.0
 20
1605.0
 30
0.0
 11
3245.0
 21
2100.0
 31
0.0
  0
LINE
  5
3225
330
1F
100
AcDbEntity
  8
3C1
100
AcDbLine
 10
3245.0
 20
2100.0
 30
0.0
 11
3099.999999999999
 21
2100.0
 31
0.0
  0
LINE
  5
3226
330
1F
100
AcDbEntity
  8
3C1
100
AcDbLine
 10
3099.999999999999
 20
2100.0
 30
0.0
 11
3069.999999999999
 21
2070.0
 31
0.0
  0
LINE
  5
3227
330
1F
100
AcDbEntity
  8
3C1
100
AcDbLine
 10
3069.999999999999
 20
2070.0
 30
0.0
 11
2930.0
 21
2070.0
 31
0.0
  0
LINE
  5
3228
330
1F
100
AcDbEntity
  8
3C1
100
AcDbLine
 10
2930.0
 20
2070.0
 30
0.0
 11
2900.0
 21
2100.0
 31
0.0
  0
LINE
  5
34A8
330
1F
100
AcDbEntity
  8
3C1
100
AcDbLine
 10
2755.0
 20
2800.0
 30
0.0
 11
2805.0
 21
2800.0
 31
0.0
  0
LINE
  5
34A9
330
1F
100
AcDbEntity
  8
3C1
100
AcDbLine
 10
2805.0
 20
2800.0
 30
0.0
 11
2825.0
 21
2780.0
 31
0.0
  0
LINE
  5
34AA
330
1F
100
AcDbEntity
  8
3C1
100
AcDbLine
 10
3175.0
 20
2780.0
 30
0.0
 11
3195.0
 21
2800.0
 31
0.0
  0
LINE
  5
34AB
330
1F
100
AcDbEntity
  8
3C1
100
AcDbLine
 10
3195.0
 20
2800.0
 30
0.0
 11
3245.0
 21
2800.0
 31
0.0
  0
LINE
  5
3547
330
1F
100
AcDbEntity
  8
SUNPO
100
AcDbLine
 10
2805.0
 20
2760.0
 30
0.0
 11
2805.0
 21
2590.0
 31
0.0
  0
LINE
  5
3548
330
1F
100
AcDbEntity
  8
SUNPO
100
AcDbLine
 10
2755.0
 20
2760.0
 30
0.0
 11
2755.0
 21
2590.0
 31
0.0
  0
LINE
  5
3556
330
1F
100
AcDbEntity
  8
SUNPO
100
AcDbLine
 10
2825.0
 20
2600.0
 30
0.0
 11
2755.0
 21
2600.0
 31
0.0
  0
LINE
  5
3559
330
1F
100
AcDbEntity
  8
SUNPO
100
AcDbLine
 10
3245.0
 20
2760.0
 30
0.0
 11
3245.0
 21
2590.0
 31
0.0
  0
LINE
  5
355A
330
1F
100
AcDbEntity
  8
SUNPO
100
AcDbLine
 10
3195.0
 20
2760.0
 30
0.0
 11
3195.0
 21
2590.0
 31
0.0
  0
LINE
  5
355B
330
1F
100
AcDbEntity
  8
SUNPO
100
AcDbLine
 10
3245.0
 20
2600.0
 30
0.0
 11
3175.0
 21
2600.0
 31
0.0
  0
LINE
  5
3583
330
1F
100
AcDbEntity
  8
3C1
  6
HIDDEN2
100
AcDbLine
 10
2805.0
 20
2100.0
 30
0.0
 11
2804.999999999999
 21
1605.0
 31
0.0
  0
LINE
  5
3584
330
1F
100
AcDbEntity
  8
3C1
  6
HIDDEN2
100
AcDbLine
 10
3195.0
 20
1605.0
 30
0.0
 11
3195.0
 21
2100.0
 31
0.0
  0
LINE
  5
3585
330
1F
100
AcDbEntity
  8
3C1
  6
HIDDEN2
100
AcDbLine
 10
2825.0
 20
2100.0
 30
0.0
 11
2824.999999999999
 21
1605.0
 31
0.0
  0
LINE
  5
3586
330
1F
100
AcDbEntity
  8
3C1
  6
HIDDEN2
100
AcDbLine
 10
3175.0
 20
1605.0
 30
0.0
 11
3175.0
 21
2100.0
 31
0.0
  0
TEXT
  5
3789
330
1F
100
AcDbEntity
  8
SUNPO
100
AcDbText
 10
3260.784250138518
 20
2612.713822102838
 30
0.0
 40
36.0
  1
50
  7
ADD
100
AcDbText
1001
ACAD
1000
MTEXTBEGIN
1070
    73
1070
     1
1070
    44
1040
1.0
1070
    74
1070
     0
1000
MTEXTEND
1000
MTEXTBEGIN
1070
    73
1070
     1
1070
    44
1040
1.0
1070
    74
1070
     0
1000
MTEXTEND
  0
TEXT
  5
378A
330
1F
100
AcDbEntity
  8
SUNPO
100
AcDbText
 10
3150.776554387846
 20
2612.713822102838
 30
0.0
 40
36.0
  1
20
  7
ADD
100
AcDbText
1001
ACAD
1000
MTEXTBEGIN
1070
    73
1070
     1
1070
    44
1040
1.0
1070
    74
1070
     0
1000
MTEXTEND
1000
MTEXTBEGIN
1070
    73
1070
     1
1070
    44
1040
1.0
1070
    74
1070
     0
1000
MTEXTEND
  0
SOLID
  5
378B
330
1F
100
AcDbEntity
  8
SUNPO
100
AcDbTrace
 10
3267.0
 20
2596.333333333333
 30
0.0
 11
3245.0
 21
2600.0
 31
0.0
 12
3267.0
 22
2603.666666666666
 32
0.0
 13
3267.0
 23
2603.666666666666
 33
0.0
1001
ACAD
1000
DSTYLE
1002
{
1070
     5
1000

1070
    40
1040
20.0
1070
    77
1070
     0
1070
   140
1040
1.8
1070
   141
1040
1.1
1070
   147
1040
0.625
1070
   342
1005
0
1070
   372
1070
    -1
1002
}
  0
SOLID
  5
378D
330
1F
100
AcDbEntity
  8
SUNPO
100
AcDbTrace
 10
2733.0
 20
2603.666666666666
 30
0.0
 11
2755.0
 21
2600.0
 31
0.0
 12
2733.0
 22
2596.333333333333
 32
0.0
 13
2733.0
 23
2596.333333333333
 33
0.0
1001
ACAD
1000
DSTYLE
1002
{
1070
     5
1000

1070
    40
1040
20.0
1070
    77
1070
     0
1070
   140
1040
1.8
1070
   141
1040
1.1
1070
   147
1040
0.625
1070
   342
1005
0
1070
   372
1070
    -1
1002
}
  0
LINE
  5
378F
330
1F
100
AcDbEntity
  8
SUNPO
 62
   144
100
AcDbLine
 10
2825.0
 20
2760.0
 30
0.0
 11
2825.0
 21
2590.0
 31
0.0
  0
LINE
  5
3790
330
1F
100
AcDbEntity
  8
SUNPO
 62
   144
100
AcDbLine
 10
3175.0
 20
2760.0
 30
0.0
 11
3175.0
 21
2590.0
 31
0.0
  0
LINE
  5
3791
330
1F
100
AcDbEntity
  8
SUNPO
 62
   144
100
AcDbLine
 10
2847.0
 20
2600.0
 30
0.0
 11
3153.0
 21
2600.0
 31
0.0
  0
SOLID
  5
3792
330
1F
100
AcDbEntity
  8
SUNPO
 62
   144
100
AcDbTrace
 10
2847.0
 20
2603.666666666666
 30
0.0
 11
2847.0
 21
2596.333333333333
 31
0.0
 12
2825.0
 22
2600.0
 32
0.0
 13
2825.0
 23
2600.0
 33
0.0
  0
SOLID
  5
3793
330
1F
100
AcDbEntity
  8
SUNPO
 62
   144
100
AcDbTrace
 10
3153.0
 20
2603.666666666666
 30
0.0
 11
3153.0
 21
2596.333333333333
 31
0.0
 12
3175.0
 22
2600.0
 32
0.0
 13
3175.0
 23
2600.0
 33
0.0
  0
TEXT
  5
3795
330
1F
100
AcDbEntity
  8
SUNPO
100
AcDbText
 10
2673.681287392076
 20
2612.713822102838
 30
0.0
 40
36.0
  1
50
  7
ADD
100
AcDbText
1001
ACAD
1000
MTEXTBEGIN
1070
    73
1070
     1
1070
    44
1040
1.0
1070
    74
1070
     0
1000
MTEXTEND
1000
MTEXTBEGIN
1070
    73
1070
     1
1070
    44
1040
1.0
1070
    74
1070
     0
1000
MTEXTEND
  0
TEXT
  5
3796
330
1F
100
AcDbEntity
  8
SUNPO
100
AcDbText
 10
2780.784250138518
 20
2612.713822102838
 30
0.0
 40
36.0
  1
20
  7
ADD
100
AcDbText
1001
ACAD
1000
MTEXTBEGIN
1070
    73
1070
     1
1070
    44
1040
1.0
1070
    74
1070
     0
1000
MTEXTEND
1000
MTEXTBEGIN
1070
    73
1070
     1
1070
    44
1040
1.0
1070
    74
1070
     0
1000
MTEXTEND
  0
TEXT
  5
3797
330
1F
100
AcDbEntity
  8
SUNPO
100
AcDbText
 10
2662.644253708658
 20
2795.714285714286
 30
0.0
 40
36.0
  1
100
 50
90.0
  7
ADD
100
AcDbText
1001
ACAD
1000
MTEXTBEGIN
1070
    73
1070
     1
1070
    44
1040
1.0
1070
    74
1070
     0
1000
MTEXTEND
1000
MTEXTBEGIN
1070
    73
1070
     1
1070
    44
1040
1.0
1070
    74
1070
     0
1000
MTEXTEND
  0
SOLID
  5
3798
330
1F
100
AcDbEntity
  8
SUNPO
100
AcDbTrace
 10
2671.333333333333
 20
2878.0
 30
0.0
 11
2675.0
 21
2900.0
 31
0.0
 12
2678.666666666666
 22
2878.0
 32
0.0
 13
2678.666666666666
 23
2878.0
 33
0.0
1001
ACAD
1000
DSTYLE
1002
{
1070
     5
1000

1070
    40
1040
20.0
1070
    77
1070
     0
1070
   140
1040
1.8
1070
   141
1040
1.1
1070
   147
1040
0.625
1070
   342
1005
0
1070
   372
1070
    -1
1002
}
  0
LINE
  5
379A
330
1F
100
AcDbEntity
  8
SUNPO
 62
   144
100
AcDbLine
 10
2735.0
 20
2800.0
 30
0.0
 11
2665.0
 21
2800.0
 31
0.0
  0
LINE
  5
379B
330
1F
100
AcDbEntity
  8
SUNPO
 62
   144
100
AcDbLine
 10
2735.0
 20
2780.0
 30
0.0
 11
2665.0
 21
2780.0
 31
0.0
  0
LINE
  5
379C
330
1F
100
AcDbEntity
  8
SUNPO
 62
   144
100
AcDbLine
 10
2675.0
 20
2822.0
 30
0.0
 11
2675.0
 21
2844.0
 31
0.0
  0
LINE
  5
379D
330
1F
100
AcDbEntity
  8
SUNPO
 62
   144
100
AcDbLine
 10
2675.0
 20
2758.0
 30
0.0
 11
2675.0
 21
2736.0
 31
0.0
  0
LINE
  5
379F
330
1F
100
AcDbEntity
  8
SUNPO
 62
   144
100
AcDbLine
 10
2675.0
 20
2800.0
 30
0.0
 11
2675.0
 21
2780.0
 31
0.0
  0
SOLID
  5
37A0
330
1F
100
AcDbEntity
  8
SUNPO
 62
   144
100
AcDbTrace
 10
2671.333333333333
 20
2822.0
 30
0.0
 11
2678.666666666666
 21
2822.0
 31
0.0
 12
2675.0
 22
2800.0
 32
0.0
 13
2675.0
 23
2800.0
 33
0.0
  0
SOLID
  5
37A1
330
1F
100
AcDbEntity
  8
SUNPO
 62
   144
100
AcDbTrace
 10
2671.333333333333
 20
2758.0
 30
0.0
 11
2678.666666666666
 21
2758.0
 31
0.0
 12
2675.0
 22
2780.0
 32
0.0
 13
2675.0
 23
2780.0
 33
0.0
  0
LINE
  5
37A2
330
1F
100
AcDbEntity
  8
SUNPO
 62
   144
100
AcDbLine
 10
2735.0
 20
2900.0
 30
0.0
 11
2590.0
 21
2900.0
 31
0.0
  0
LINE
  5
37A3
330
1F
100
AcDbEntity
  8
SUNPO
 62
   144
100
AcDbLine
 10
2735.0
 20
2780.0
 30
0.0
 11
2590.0
 21
2780.0
 31
0.0
  0
LINE
  5
37A4
330
1F
100
AcDbEntity
  8
SUNPO
 62
   144
100
AcDbLine
 10
2600.0
 20
2878.0
 30
0.0
 11
2600.0
 21
2802.0
 31
0.0
  0
SOLID
  5
37A5
330
1F
100
AcDbEntity
  8
SUNPO
 62
   144
100
AcDbTrace
 10
2596.333333333333
 20
2878.0
 30
0.0
 11
2603.666666666666
 21
2878.0
 31
0.0
 12
2600.0
 22
2900.0
 32
0.0
 13
2600.0
 23
2900.0
 33
0.0
  0
SOLID
  5
37A6
330
1F
100
AcDbEntity
  8
SUNPO
 62
   144
100
AcDbTrace
 10
2596.333333333333
 20
2802.0
 30
0.0
 11
2603.666666666666
 21
2802.0
 31
0.0
 12
2600.0
 22
2780.0
 32
0.0
 13
2600.0
 23
2780.0
 33
0.0
  0
LINE
  5
37A8
330
1F
100
AcDbEntity
  8
SUNPO
 62
   144
100
AcDbLine
 10
2735.0
 20
2100.0
 30
0.0
 11
2665.0
 21
2100.0
 31
0.0
  0
LINE
  5
37A9
330
1F
100
AcDbEntity
  8
SUNPO
 62
   144
100
AcDbLine
 10
2735.0
 20
2070.0
 30
0.0
 11
2665.0
 21
2070.0
 31
0.0
  0
LINE
  5
37AA
330
1F
100
AcDbEntity
  8
SUNPO
 62
   144
100
AcDbLine
 10
2675.0
 20
2122.0
 30
0.0
 11
2675.0
 21
2144.0
 31
0.0
  0
LINE
  5
37AB
330
1F
100
AcDbEntity
  8
SUNPO
 62
   144
100
AcDbLine
 10
2675.0
 20
2047.999999999999
 30
0.0
 11
2675.0
 21
2025.999999999999
 31
0.0
  0
LINE
  5
37AD
330
1F
100
AcDbEntity
  8
SUNPO
 62
   144
100
AcDbLine
 10
2675.0
 20
2100.0
 30
0.0
 11
2675.0
 21
2070.0
 31
0.0
  0
SOLID
  5
37AE
330
1F
100
AcDbEntity
  8
SUNPO
 62
   144
100
AcDbTrace
 10
2671.333333333333
 20
2122.0
 30
0.0
 11
2678.666666666666
 21
2122.0
 31
0.0
 12
2675.0
 22
2100.0
 32
0.0
 13
2675.0
 23
2100.0
 33
0.0
  0
SOLID
  5
37AF
330
1F
100
AcDbEntity
  8
SUNPO
 62
   144
100
AcDbTrace
 10
2671.333333333333
 20
2047.999999999999
 30
0.0
 11
2678.666666666666
 21
2047.999999999999
 31
0.0
 12
2675.0
 22
2070.0
 32
0.0
 13
2675.0
 23
2070.0
 33
0.0
  0
LINE
  5
37B0
330
1F
100
AcDbEntity
  8
SUNPO
 62
   144
100
AcDbLine
 10
2734.999999999999
 20
2100.0
 30
0.0
 11
2590.0
 21
2100.0
 31
0.0
  0
LINE
  5
37B1
330
1F
100
AcDbEntity
  8
SUNPO
 62
   144
100
AcDbLine
 10
2734.999999999999
 20
1605.0
 30
0.0
 11
2590.0
 21
1605.0
 31
0.0
  0
LINE
  5
37B2
330
1F
100
AcDbEntity
  8
SUNPO
 62
   144
100
AcDbLine
 10
2600.0
 20
2078.0
 30
0.0
 11
2600.0
 21
1627.0
 31
0.0
  0
SOLID
  5
37B3
330
1F
100
AcDbEntity
  8
SUNPO
 62
   144
100
AcDbTrace
 10
2596.333333333333
 20
2078.0
 30
0.0
 11
2603.666666666666
 21
2078.0
 31
0.0
 12
2600.0
 22
2100.0
 32
0.0
 13
2600.0
 23
2100.0
 33
0.0
  0
SOLID
  5
37B4
330
1F
100
AcDbEntity
  8
SUNPO
 62
   144
100
AcDbTrace
 10
2596.333333333333
 20
1627.0
 30
0.0
 11
2603.666666666666
 21
1627.0
 31
0.0
 12
2600.0
 22
1605.0
 32
0.0
 13
2600.0
 23
1605.0
 33
0.0
  0
LINE
  5
37B6
330
1F
100
AcDbEntity
  8
SUNPO
 62
   144
100
AcDbLine
 10
3069.999999999999
 20
2090.0
 30
0.0
 11
3069.999999999999
 21
2210.0
 31
0.0
  0
LINE
  5
37B7
330
1F
100
AcDbEntity
  8
SUNPO
 62
   144
100
AcDbLine
 10
3099.999999999999
 20
2120.0
 30
0.0
 11
3099.999999999999
 21
2210.0
 31
0.0
  0
LINE
  5
37B8
330
1F
100
AcDbEntity
  8
SUNPO
 62
   144
100
AcDbLine
 10
3048.0
 20
2200.0
 30
0.0
 11
3025.999999999999
 21
2200.0
 31
0.0
  0
LINE
  5
37B9
330
1F
100
AcDbEntity
  8
SUNPO
 62
   144
100
AcDbLine
 10
3121.999999999999
 20
2200.0
 30
0.0
 11
3144.0
 21
2200.0
 31
0.0
  0
LINE
  5
37BA
330
1F
100
AcDbEntity
  8
SUNPO
 62
   144
100
AcDbLine
 10
3069.999999999999
 20
2200.0
 30
0.0
 11
3099.999999999999
 21
2200.0
 31
0.0
  0
SOLID
  5
37BB
330
1F
100
AcDbEntity
  8
SUNPO
 62
   144
100
AcDbTrace
 10
3048.0
 20
2203.666666666666
 30
0.0
 11
3048.0
 21
2196.333333333333
 31
0.0
 12
3069.999999999999
 22
2200.0
 32
0.0
 13
3069.999999999999
 23
2200.0
 33
0.0
  0
SOLID
  5
37BC
330
1F
100
AcDbEntity
  8
SUNPO
 62
   144
100
AcDbTrace
 10
3121.999999999999
 20
2203.666666666666
 30
0.0
 11
3121.999999999999
 21
2196.333333333333
 31
0.0
 12
3099.999999999999
 22
2200.0
 32
0.0
 13
3099.999999999999
 23
2200.0
 33
0.0
  0
LINE
  5
37BE
330
1F
100
AcDbEntity
  8
SUNPO
 62
   144
100
AcDbLine
 10
2900.0
 20
2120.0
 30
0.0
 11
2900.0
 21
2210.0
 31
0.0
  0
LINE
  5
37BF
330
1F
100
AcDbEntity
  8
SUNPO
 62
   144
100
AcDbLine
 10
2930.0
 20
2090.0
 30
0.0
 11
2930.0
 21
2210.0
 31
0.0
  0
LINE
  5
37C0
330
1F
100
AcDbEntity
  8
SUNPO
 62
   144
100
AcDbLine
 10
2878.0
 20
2200.0
 30
0.0
 11
2855.999999999999
 21
2200.0
 31
0.0
  0
LINE
  5
37C1
330
1F
100
AcDbEntity
  8
SUNPO
 62
   144
100
AcDbLine
 10
2952.0
 20
2200.0
 30
0.0
 11
2974.0
 21
2200.0
 31
0.0
  0
LINE
  5
37C2
330
1F
100
AcDbEntity
  8
SUNPO
 62
   144
100
AcDbLine
 10
2900.0
 20
2200.0
 30
0.0
 11
2930.0
 21
2200.0
 31
0.0
  0
SOLID
  5
37C3
330
1F
100
AcDbEntity
  8
SUNPO
 62
   144
100
AcDbTrace
 10
2878.0
 20
2203.666666666666
 30
0.0
 11
2878.0
 21
2196.333333333333
 31
0.0
 12
2900.0
 22
2200.0
 32
0.0
 13
2900.0
 23
2200.0
 33
0.0
  0
SOLID
  5
37C4
330
1F
100
AcDbEntity
  8
SUNPO
 62
   144
100
AcDbTrace
 10
2952.0
 20
2203.666666666666
 30
0.0
 11
2952.0
 21
2196.333333333333
 31
0.0
 12
2930.0
 22
2200.0
 32
0.0
 13
2930.0
 23
2200.0
 33
0.0
  0
LINE
  5
37C6
330
1F
100
AcDbEntity
  8
SUNPO
 62
   144
100
AcDbLine
 10
2930.0
 20
2090.0
 30
0.0
 11
2930.0
 21
2210.0
 31
0.0
  0
LINE
  5
37C7
330
1F
100
AcDbEntity
  8
SUNPO
 62
   144
100
AcDbLine
 10
3069.999999999999
 20
2090.0
 30
0.0
 11
3069.999999999999
 21
2210.0
 31
0.0
  0
LINE
  5
37C8
330
1F
100
AcDbEntity
  8
SUNPO
 62
   144
100
AcDbLine
 10
2952.0
 20
2200.0
 30
0.0
 11
3048.0
 21
2200.0
 31
0.0
  0
SOLID
  5
37C9
330
1F
100
AcDbEntity
  8
SUNPO
 62
   144
100
AcDbTrace
 10
2952.0
 20
2203.666666666666
 30
0.0
 11
2952.0
 21
2196.333333333333
 31
0.0
 12
2930.0
 22
2200.0
 32
0.0
 13
2930.0
 23
2200.0
 33
0.0
  0
SOLID
  5
37CA
330
1F
100
AcDbEntity
  8
SUNPO
 62
   144
100
AcDbTrace
 10
3048.0
 20
2203.666666666666
 30
0.0
 11
3048.0
 21
2196.333333333333
 31
0.0
 12
3069.999999999999
 22
2200.0
 32
0.0
 13
3069.999999999999
 23
2200.0
 33
0.0
  0
LINE
  5
37CC
330
1F
100
AcDbEntity
  8
SUNPO
 62
   144
100
AcDbLine
 10
2755.0
 20
2920.0
 30
0.0
 11
2755.0
 21
3060.0
 31
0.0
  0
LINE
  5
37CD
330
1F
100
AcDbEntity
  8
SUNPO
 62
   144
100
AcDbLine
 10
3245.0
 20
2920.0
 30
0.0
 11
3245.0
 21
3060.0
 31
0.0
  0
LINE
  5
37CE
330
1F
100
AcDbEntity
  8
SUNPO
 62
   144
100
AcDbLine
 10
2777.0
 20
3050.0
 30
0.0
 11
3223.0
 21
3050.0
 31
0.0
  0
SOLID
  5
37CF
330
1F
100
AcDbEntity
  8
SUNPO
 62
   144
100
AcDbTrace
 10
2777.0
 20
3053.666666666666
 30
0.0
 11
2777.0
 21
3046.333333333333
 31
0.0
 12
2755.0
 22
3050.0
 32
0.0
 13
2755.0
 23
3050.0
 33
0.0
  0
SOLID
  5
37D0
330
1F
100
AcDbEntity
  8
SUNPO
 62
   144
100
AcDbTrace
 10
3223.0
 20
3053.666666666666
 30
0.0
 11
3223.0
 21
3046.333333333333
 31
0.0
 12
3245.0
 22
3050.0
 32
0.0
 13
3245.0
 23
3050.0
 33
0.0
  0
TEXT
  5
37D2
330
1F
100
AcDbEntity
  8
SUNPO
100
AcDbText
 10
2488.571428571428
 20
370.0
 30
0.0
 40
80.0
  1
CHL25-40
  7
ADD
100
AcDbText
1001
ACAD
1000
MTEXTBEGIN
1070
    73
1070
     1
1070
    44
1040
1.0
1070
    74
1070
     0
1000
MTEXTEND
1000
MTEXTBEGIN
1070
    73
1070
     1
1070
    44
1040
1.0
1070
    74
1070
     0
1000
MTEXTEND
1000
MTEXTBEGIN
1070
    73
1070
     1
1070
    44
1040
1.0
1070
    74
1070
     0
1000
MTEXTEND
1000
MTEXTBEGIN
1070
    73
1070
     1
1070
    44
1040
1.0
1070
    74
1070
     0
1000
MTEXTEND
1000
MTEXTBEGIN
1070
    73
1070
     1
1070
    44
1040
1.0
1070
    74
1070
     0
1000
MTEXTEND
1000
MTEXTBEGIN
1070
    73
1070
     1
1070
    44
1040
1.0
1070
    74
1070
     0
1000
MTEXTEND
1000
MTEXTBEGIN
1070
    73
1070
     1
1070
    44
1040
1.0
1070
    74
1070
     0
1000
MTEXTEND
1000
MTEXTBEGIN
1070
    73
1070
     1
1070
    44
1040
1.0
1070
    74
1070
     0
1000
MTEXTEND
1000
MTEXTBEGIN
1070
    73
1070
     1
1070
    44
1040
1.0
1070
    74
1070
     0
1000
MTEXTEND
1000
MTEXTBEGIN
1070
    73
1070
     1
1070
    44
1040
1.0
1070
    74
1070
     0
1000
MTEXTEND
1000
MTEXTBEGIN
1070
    73
1070
     1
1070
    44
1040
1.0
1070
    74
1070
     0
1000
MTEXTEND
1000
MTEXTBEGIN
1070
    73
1070
     1
1070
    44
1040
1.0
1070
    74
1070
     0
1000
MTEXTEND
1000
MTEXTBEGIN
1070
    73
1070
     1
1070
    44
1040
1.0
1070
    74
1070
     0
1000
MTEXTEND
1000
MTEXTBEGIN
1070
    73
1070
     1
1070
    44
1040
1.0
1070
    74
1070
     0
1000
MTEXTEND
1000
MTEXTBEGIN
1070
    73
1070
     1
1070
    44
1040
1.0
1070
    74
1070
     0
1000
MTEXTEND
1000
MTEXTBEGIN
1070
    73
1070
     1
1070
    44
1040
1.0
1070
    74
1070
     0
1000
MTEXTEND
1000
MTEXTBEGIN
1070
    73
1070
     1
1070
    44
1040
1.0
1070
    74
1070
     0
1000
MTEXTEND
1000
MTEXTBEGIN
1070
    73
1070
     1
1070
    44
1040
1.0
1070
    74
1070
     0
1000
MTEXTEND
1000
MTEXTBEGIN
1070
    73
1070
     1
1070
    44
1040
1.0
1070
    74
1070
     0
1000
MTEXTEND
1000
MTEXTBEGIN
1070
    73
1070
     1
1070
    44
1040
1.0
1070
    74
1070
     0
1000
MTEXTEND
1000
MTEXTBEGIN
1070
    73
1070
     1
1070
    44
1040
1.0
1070
    74
1070
     0
1000
MTEXTEND
1000
MTEXTBEGIN
1070
    73
1070
     1
1070
    44
1040
1.0
1070
    74
1070
     0
1000
MTEXTEND
1000
MTEXTBEGIN
1070
    73
1070
     1
1070
    44
1040
1.0
1070
    74
1070
     0
1000
MTEXTEND
1000
MTEXTBEGIN
1070
    73
1070
     1
1070
    44
1040
1.0
1070
    74
1070
     0
1000
MTEXTEND
1000
MTEXTBEGIN
1070
    73
1070
     1
1070
    44
1040
1.0
1070
    74
1070
     0
1000
MTEXTEND
  0
TEXT
  5
37D3
330
1F
100
AcDbEntity
  8
SUNPO
100
AcDbText
 10
750.0
 20
369.9999999999999
 30
0.0
 40
80.0
  1
千葉県型側溝用ふた（路側用）
  7
ADD
100
AcDbText
1001
ACAD
1000
MTEXTBEGIN
1070
    73
1070
     1
1070
    44
1040
1.0
1070
    74
1070
     0
1000
MTEXTEND
1000
MTEXTBEGIN
1070
    73
1070
     1
1070
    44
1040
1.0
1070
    74
1070
     0
1000
MTEXTEND
1000
MTEXTBEGIN
1070
    73
1070
     1
1070
    44
1040
1.0
1070
    74
1070
     0
1000
MTEXTEND
1000
MTEXTBEGIN
1070
    73
1070
     1
1070
    44
1040
1.0
1070
    74
1070
     0
1000
MTEXTEND
1000
MTEXTBEGIN
1070
    73
1070
     1
1070
    44
1040
1.0
1070
    74
1070
     0
1000
MTEXTEND
1000
MTEXTBEGIN
1070
    73
1070
     1
1070
    44
1040
1.0
1070
    74
1070
     0
1000
MTEXTEND
1000
MTEXTBEGIN
1070
    73
1070
     1
1070
    44
1040
1.0
1070
    74
1070
     0
1000
MTEXTEND
1000
MTEXTBEGIN
1070
    73
1070
     1
1070
    44
1040
1.0
1070
    74
1070
     0
1000
MTEXTEND
1000
MTEXTBEGIN
1070
    73
1070
     1
1070
    44
1040
1.0
1070
    74
1070
     0
1000
MTEXTEND
1000
MTEXTBEGIN
1070
    73
1070
     1
1070
    44
1040
1.0
1070
    74
1070
     0
1000
MTEXTEND
1000
MTEXTBEGIN
1070
    73
1070
     1
1070
    44
1040
1.0
1070
    74
1070
     0
1000
MTEXTEND
1000
MTEXTBEGIN
1070
    73
1070
     1
1070
    44
1040
1.0
1070
    74
1070
     0
1000
MTEXTEND
1000
MTEXTBEGIN
1070
    73
1070
     1
1070
    44
1040
1.0
1070
    74
1070
     0
1000
MTEXTEND
1000
MTEXTBEGIN
1070
    73
1070
     1
1070
    44
1040
1.0
1070
    74
1070
     0
1000
MTEXTEND
1000
MTEXTBEGIN
1070
    73
1070
     1
1070
    44
1040
1.0
1070
    74
1070
     0
1000
MTEXTEND
1000
MTEXTBEGIN
1070
    73
1070
     1
1070
    44
1040
1.0
1070
    74
1070
     0
1000
MTEXTEND
1000
MTEXTBEGIN
1070
    73
1070
     1
1070
    44
1040
1.0
1070
    74
1070
     0
1000
MTEXTEND
1000
MTEXTBEGIN
1070
    73
1070
     1
1070
    44
1040
1.0
1070
    74
1070
     0
1000
MTEXTEND
1000
MTEXTBEGIN
1070
    73
1070
     1
1070
    44
1040
1.0
1070
    74
1070
     0
1000
MTEXTEND
1000
MTEXTBEGIN
1070
    73
1070
     1
1070
    44
1040
1.0
1070
    74
1070
     0
1000
MTEXTEND
1000
MTEXTBEGIN
1070
    73
1070
     1
1070
    44
1040
1.0
1070
    74
1070
     0
1000
MTEXTEND
1000
MTEXTBEGIN
1070
    73
1070
     1
1070
    44
1040
1.0
1070
    74
1070
     0
1000
MTEXTEND
1000
MTEXTBEGIN
1070
    73
1070
     1
1070
    44
1040
1.0
1070
    74
1070
     0
1000
MTEXTEND
1000
MTEXTBEGIN
1070
    73
1070
     1
1070
    44
1040
1.0
1070
    74
1070
     0
1000
MTEXTEND
1000
MTEXTBEGIN
1070
    73
1070
     1
1070
    44
1040
1.0
1070
    74
1070
     0
1000
MTEXTEND
  0
TEXT
  5
37D4
330
1F
100
AcDbEntity
  8
SUNPO
100
AcDbText
 10
3246.680311730542
 20
359.2274732162223
 30
0.0
 40
70.0
  1
１／２０
  7
ADD
100
AcDbText
1001
ACAD
1000
MTEXTBEGIN
1070
    73
1070
     1
1070
    44
1040
1.0
1070
    74
1070
     0
1000
MTEXTEND
1000
MTEXTBEGIN
1070
    73
1070
     1
1070
    44
1040
1.0
1070
    74
1070
     0
1000
MTEXTEND
1000
MTEXTBEGIN
1070
    73
1070
     1
1070
    44
1040
1.0
1070
    74
1070
     0
1000
MTEXTEND
1000
MTEXTBEGIN
1070
    73
1070
     1
1070
    44
1040
1.0
1070
    74
1070
     0
1000
MTEXTEND
1000
MTEXTBEGIN
1070
    73
1070
     1
1070
    44
1040
1.0
1070
    74
1070
     0
1000
MTEXTEND
1000
MTEXTBEGIN
1070
    73
1070
     1
1070
    44
1040
1.0
1070
    74
1070
     0
1000
MTEXTEND
1000
MTEXTBEGIN
1070
    73
1070
     1
1070
    44
1040
1.0
1070
    74
1070
     0
1000
MTEXTEND
1000
MTEXTBEGIN
1070
    73
1070
     1
1070
    44
1040
1.0
1070
    74
1070
     0
1000
MTEXTEND
1000
MTEXTBEGIN
1070
    73
1070
     1
1070
    44
1040
1.0
1070
    74
1070
     0
1000
MTEXTEND
1000
MTEXTBEGIN
1070
    73
1070
     1
1070
    44
1040
1.0
1070
    74
1070
     0
1000
MTEXTEND
1000
MTEXTBEGIN
1070
    73
1070
     1
1070
    44
1040
1.0
1070
    74
1070
     0
1000
MTEXTEND
1000
MTEXTBEGIN
1070
    73
1070
     1
1070
    44
1040
1.0
1070
    74
1070
     0
1000
MTEXTEND
1000
MTEXTBEGIN
1070
    73
1070
     1
1070
    44
1040
1.0
1070
    74
1070
     0
1000
MTEXTEND
1000
MTEXTBEGIN
1070
    73
1070
     1
1070
    44
1040
1.0
1070
    74
1070
     0
1000
MTEXTEND
1000
MTEXTBEGIN
1070
    73
1070
     1
1070
    44
1040
1.0
1070
    74
1070
     0
1000
MTEXTEND
1000
MTEXTBEGIN
1070
    73
1070
     1
1070
    44
1040
1.0
1070
    74
1070
     0
1000
MTEXTEND
1000
MTEXTBEGIN
1070
    73
1070
     1
1070
    44
1040
1.0
1070
    74
1070
     0
1000
MTEXTEND
1000
MTEXTBEGIN
1070
    73
1070
     1
1070
    44
1040
1.0
1070
    74
1070
     0
1000
MTEXTEND
1000
MTEXTBEGIN
1070
    73
1070
     1
1070
    44
1040
1.0
1070
    74
1070
     0
1000
MTEXTEND
1000
MTEXTBEGIN
1070
    73
1070
     1
1070
    44
1040
1.0
1070
    74
1070
     0
1000
MTEXTEND
1000
MTEXTBEGIN
1070
    73
1070
     1
1070
    44
1040
1.0
1070
    74
1070
     0
1000
MTEXTEND
1000
MTEXTBEGIN
1070
    73
1070
     1
1070
    44
1040
1.0
1070
    74
1070
     0
1000
MTEXTEND
1000
MTEXTBEGIN
1070
    73
1070
     1
1070
    44
1040
1.0
1070
    74
1070
     0
1000
MTEXTEND
1000
MTEXTBEGIN
1070
    73
1070
     1
1070
    44
1040
1.0
1070
    74
1070
     0
1000
MTEXTEND
1000
MTEXTBEGIN
1070
    73
1070
     1
1070
    44
1040
1.0
1070
    74
1070
     0
1000
MTEXTEND
  0
TEXT
  5
37D5
330
1F
100
AcDbEntity
  8
SUNPO
100
AcDbText
 10
381.8862574011546
 20
488.6918916770627
 30
0.0
 40
50.0
  1
製品名
  7
ADD
100
AcDbText
1001
ACAD
1000
MTEXTBEGIN
1070
    73
1070
     1
1070
    44
1040
1.0
1070
    74
1070
     0
1000
MTEXTEND
1000
MTEXTBEGIN
1070
    73
1070
     1
1070
    44
1040
1.0
1070
    74
1070
     0
1000
MTEXTEND
1000
MTEXTBEGIN
1070
    73
1070
     1
1070
    44
1040
1.0
1070
    74
1070
     0
1000
MTEXTEND
1000
MTEXTBEGIN
1070
    73
1070
     1
1070
    44
1040
1.0
1070
    74
1070
     0
1000
MTEXTEND
1000
MTEXTBEGIN
1070
    73
1070
     1
1070
    44
1040
1.0
1070
    74
1070
     0
1000
MTEXTEND
1000
MTEXTBEGIN
1070
    73
1070
     1
1070
    44
1040
1.0
1070
    74
1070
     0
1000
MTEXTEND
1000
MTEXTBEGIN
1070
    73
1070
     1
1070
    44
1040
1.0
1070
    74
1070
     0
1000
MTEXTEND
1000
MTEXTBEGIN
1070
    73
1070
     1
1070
    44
1040
1.0
1070
    74
1070
     0
1000
MTEXTEND
1000
MTEXTBEGIN
1070
    73
1070
     1
1070
    44
1040
1.0
1070
    74
1070
     0
1000
MTEXTEND
1000
MTEXTBEGIN
1070
    73
1070
     1
1070
    44
1040
1.0
1070
    74
1070
     0
1000
MTEXTEND
1000
MTEXTBEGIN
1070
    73
1070
     1
1070
    44
1040
1.0
1070
    74
1070
     0
1000
MTEXTEND
1000
MTEXTBEGIN
1070
    73
1070
     1
1070
    44
1040
1.0
1070
    74
1070
     0
1000
MTEXTEND
1000
MTEXTBEGIN
1070
    73
1070
     1
1070
    44
1040
1.0
1070
    74
1070
     0
1000
MTEXTEND
1000
MTEXTBEGIN
1070
    73
1070
     1
1070
    44
1040
1.0
1070
    74
1070
     0
1000
MTEXTEND
1000
MTEXTBEGIN
1070
    73
1070
     1
1070
    44
1040
1.0
1070
    74
1070
     0
1000
MTEXTEND
1000
MTEXTBEGIN
1070
    73
1070
     1
1070
    44
1040
1.0
1070
    74
1070
     0
1000
MTEXTEND
1000
MTEXTBEGIN
1070
    73
1070
     1
1070
    44
1040
1.0
1070
    74
1070
     0
1000
MTEXTEND
1000
MTEXTBEGIN
1070
    73
1070
     1
1070
    44
1040
1.0
1070
    74
1070
     0
1000
MTEXTEND
1000
MTEXTBEGIN
1070
    73
1070
     1
1070
    44
1040
1.0
1070
    74
1070
     0
1000
MTEXTEND
1000
MTEXTBEGIN
1070
    73
1070
     1
1070
    44
1040
1.0
1070
    74
1070
     0
1000
MTEXTEND
1000
MTEXTBEGIN
1070
    73
1070
     1
1070
    44
1040
1.0
1070
    74
1070
     0
1000
MTEXTEND
1000
MTEXTBEGIN
1070
    73
1070
     1
1070
    44
1040
1.0
1070
    74
1070
     0
1000
MTEXTEND
1000
MTEXTBEGIN
1070
    73
1070
     1
1070
    44
1040
1.0
1070
    74
1070
     0
1000
MTEXTEND
1000
MTEXTBEGIN
1070
    73
1070
     1
1070
    44
1040
1.0
1070
    74
1070
     0
1000
MTEXTEND
1000
MTEXTBEGIN
1070
    73
1070
     1
1070
    44
1040
1.0
1070
    74
1070
     0
1000
MTEXTEND
  0
TEXT
  5
37D6
330
1F
100
AcDbEntity
  8
SUNPO
100
AcDbText
 10
2476.290169028722
 20
494.4531736811823
 30
0.0
 40
50.0
  1
型式
  7
ADD
100
AcDbText
1001
ACAD
1000
MTEXTBEGIN
1070
    73
1070
     1
1070
    44
1040
1.0
1070
    74
1070
     0
1000
MTEXTEND
1000
MTEXTBEGIN
1070
    73
1070
     1
1070
    44
1040
1.0
1070
    74
1070
     0
1000
MTEXTEND
1000
MTEXTBEGIN
1070
    73
1070
     1
1070
    44
1040
1.0
1070
    74
1070
     0
1000
MTEXTEND
1000
MTEXTBEGIN
1070
    73
1070
     1
1070
    44
1040
1.0
1070
    74
1070
     0
1000
MTEXTEND
1000
MTEXTBEGIN
1070
    73
1070
     1
1070
    44
1040
1.0
1070
    74
1070
     0
1000
MTEXTEND
1000
MTEXTBEGIN
1070
    73
1070
     1
1070
    44
1040
1.0
1070
    74
1070
     0
1000
MTEXTEND
1000
MTEXTBEGIN
1070
    73
1070
     1
1070
    44
1040
1.0
1070
    74
1070
     0
1000
MTEXTEND
1000
MTEXTBEGIN
1070
    73
1070
     1
1070
    44
1040
1.0
1070
    74
1070
     0
1000
MTEXTEND
1000
MTEXTBEGIN
1070
    73
1070
     1
1070
    44
1040
1.0
1070
    74
1070
     0
1000
MTEXTEND
1000
MTEXTBEGIN
1070
    73
1070
     1
1070
    44
1040
1.0
1070
    74
1070
     0
1000
MTEXTEND
1000
MTEXTBEGIN
1070
    73
1070
     1
1070
    44
1040
1.0
1070
    74
1070
     0
1000
MTEXTEND
1000
MTEXTBEGIN
1070
    73
1070
     1
1070
    44
1040
1.0
1070
    74
1070
     0
1000
MTEXTEND
1000
MTEXTBEGIN
1070
    73
1070
     1
1070
    44
1040
1.0
1070
    74
1070
     0
1000
MTEXTEND
1000
MTEXTBEGIN
1070
    73
1070
     1
1070
    44
1040
1.0
1070
    74
1070
     0
1000
MTEXTEND
1000
MTEXTBEGIN
1070
    73
1070
     1
1070
    44
1040
1.0
1070
    74
1070
     0
1000
MTEXTEND
1000
MTEXTBEGIN
1070
    73
1070
     1
1070
    44
1040
1.0
1070
    74
1070
     0
1000
MTEXTEND
1000
MTEXTBEGIN
1070
    73
1070
     1
1070
    44
1040
1.0
1070
    74
1070
     0
1000
MTEXTEND
1000
MTEXTBEGIN
1070
    73
1070
     1
1070
    44
1040
1.0
1070
    74
1070
     0
1000
MTEXTEND
1000
MTEXTBEGIN
1070
    73
1070
     1
1070
    44
1040
1.0
1070
    74
1070
     0
1000
MTEXTEND
1000
MTEXTBEGIN
1070
    73
1070
     1
1070
    44
1040
1.0
1070
    74
1070
     0
1000
MTEXTEND
1000
MTEXTBEGIN
1070
    73
1070
     1
1070
    44
1040
1.0
1070
    74
1070
     0
1000
MTEXTEND
1000
MTEXTBEGIN
1070
    73
1070
     1
1070
    44
1040
1.0
1070
    74
1070
     0
1000
MTEXTEND
1000
MTEXTBEGIN
1070
    73
1070
     1
1070
    44
1040
1.0
1070
    74
1070
     0
1000
MTEXTEND
1000
MTEXTBEGIN
1070
    73
1070
     1
1070
    44
1040
1.0
1070
    74
1070
     0
1000
MTEXTEND
1000
MTEXTBEGIN
1070
    73
1070
     1
1070
    44
1040
1.0
1070
    74
1070
     0
1000
MTEXTEND
  0
TEXT
  5
37D7
330
1F
100
AcDbEntity
  8
SUNPO
100
AcDbText
 10
3177.510249231658
 20
488.6918916770627
 30
0.0
 40
50.0
  1
縮尺
  7
ADD
100
AcDbText
1001
ACAD
1000
MTEXTBEGIN
1070
    73
1070
     1
1070
    44
1040
1.0
1070
    74
1070
     0
1000
MTEXTEND
1000
MTEXTBEGIN
1070
    73
1070
     1
1070
    44
1040
1.0
1070
    74
1070
     0
1000
MTEXTEND
1000
MTEXTBEGIN
1070
    73
1070
     1
1070
    44
1040
1.0
1070
    74
1070
     0
1000
MTEXTEND
1000
MTEXTBEGIN
1070
    73
1070
     1
1070
    44
1040
1.0
1070
    74
1070
     0
1000
MTEXTEND
1000
MTEXTBEGIN
1070
    73
1070
     1
1070
    44
1040
1.0
1070
    74
1070
     0
1000
MTEXTEND
1000
MTEXTBEGIN
1070
    73
1070
     1
1070
    44
1040
1.0
1070
    74
1070
     0
1000
MTEXTEND
1000
MTEXTBEGIN
1070
    73
1070
     1
1070
    44
1040
1.0
1070
    74
1070
     0
1000
MTEXTEND
1000
MTEXTBEGIN
1070
    73
1070
     1
1070
    44
1040
1.0
1070
    74
1070
     0
1000
MTEXTEND
1000
MTEXTBEGIN
1070
    73
1070
     1
1070
    44
1040
1.0
1070
    74
1070
     0
1000
MTEXTEND
1000
MTEXTBEGIN
1070
    73
1070
     1
1070
    44
1040
1.0
1070
    74
1070
     0
1000
MTEXTEND
1000
MTEXTBEGIN
1070
    73
1070
     1
1070
    44
1040
1.0
1070
    74
1070
     0
1000
MTEXTEND
1000
MTEXTBEGIN
1070
    73
1070
     1
1070
    44
1040
1.0
1070
    74
1070
     0
1000
MTEXTEND
1000
MTEXTBEGIN
1070
    73
1070
     1
1070
    44
1040
1.0
1070
    74
1070
     0
1000
MTEXTEND
1000
MTEXTBEGIN
1070
    73
1070
     1
1070
    44
1040
1.0
1070
    74
1070
     0
1000
MTEXTEND
1000
MTEXTBEGIN
1070
    73
1070
     1
1070
    44
1040
1.0
1070
    74
1070
     0
1000
MTEXTEND
1000
MTEXTBEGIN
1070
    73
1070
     1
1070
    44
1040
1.0
1070
    74
1070
     0
1000
MTEXTEND
1000
MTEXTBEGIN
1070
    73
1070
     1
1070
    44
1040
1.0
1070
    74
1070
     0
1000
MTEXTEND
1000
MTEXTBEGIN
1070
    73
1070
     1
1070
    44
1040
1.0
1070
    74
1070
     0
1000
MTEXTEND
1000
MTEXTBEGIN
1070
    73
1070
     1
1070
    44
1040
1.0
1070
    74
1070
     0
1000
MTEXTEND
1000
MTEXTBEGIN
1070
    73
1070
     1
1070
    44
1040
1.0
1070
    74
1070
     0
1000
MTEXTEND
1000
MTEXTBEGIN
1070
    73
1070
     1
1070
    44
1040
1.0
1070
    74
1070
     0
1000
MTEXTEND
1000
MTEXTBEGIN
1070
    73
1070
     1
1070
    44
1040
1.0
1070
    74
1070
     0
1000
MTEXTEND
1000
MTEXTBEGIN
1070
    73
1070
     1
1070
    44
1040
1.0
1070
    74
1070
     0
1000
MTEXTEND
1000
MTEXTBEGIN
1070
    73
1070
     1
1070
    44
1040
1.0
1070
    74
1070
     0
1000
MTEXTEND
1000
MTEXTBEGIN
1070
    73
1070
     1
1070
    44
1040
1.0
1070
    74
1070
     0
1000
MTEXTEND
  0
TEXT
  5
37D8
330
1F
100
AcDbEntity
  8
SUNPO
100
AcDbText
 10
3730.870883051572
 20
352.2726133092145
 30
0.0
 40
100.0
  1
千葉県コンクリート製品協同組合
  7
ADD
100
AcDbText
1001
ACAD
1000
MTEXTBEGIN
1070
    73
1070
     1
1070
    44
1040
1.0
1070
    74
1070
     0
1000
MTEXTEND
1000
MTEXTBEGIN
1070
    73
1070
     1
1070
    44
1040
1.0
1070
    74
1070
     0
1000
MTEXTEND
1000
MTEXTBEGIN
1070
    73
1070
     1
1070
    44
1040
1.0
1070
    74
1070
     0
1000
MTEXTEND
1000
MTEXTBEGIN
1070
    73
1070
     1
1070
    44
1040
1.0
1070
    74
1070
     0
1000
MTEXTEND
1000
MTEXTBEGIN
1070
    73
1070
     1
1070
    44
1040
1.0
1070
    74
1070
     0
1000
MTEXTEND
1000
MTEXTBEGIN
1070
    73
1070
     1
1070
    44
1040
1.0
1070
    74
1070
     0
1000
MTEXTEND
1000
MTEXTBEGIN
1070
    73
1070
     1
1070
    44
1040
1.0
1070
    74
1070
     0
1000
MTEXTEND
1000
MTEXTBEGIN
1070
    73
1070
     1
1070
    44
1040
1.0
1070
    74
1070
     0
1000
MTEXTEND
1000
MTEXTBEGIN
1070
    73
1070
     1
1070
    44
1040
1.0
1070
    74
1070
     0
1000
MTEXTEND
1000
MTEXTBEGIN
1070
    73
1070
     1
1070
    44
1040
1.0
1070
    74
1070
     0
1000
MTEXTEND
1000
MTEXTBEGIN
1070
    73
1070
     1
1070
    44
1040
1.0
1070
    74
1070
     0
1000
MTEXTEND
1000
MTEXTBEGIN
1070
    73
1070
     1
1070
    44
1040
1.0
1070
    74
1070
     0
1000
MTEXTEND
1000
MTEXTBEGIN
1070
    73
1070
     1
1070
    44
1040
1.0
1070
    74
1070
     0
1000
MTEXTEND
1000
MTEXTBEGIN
1070
    73
1070
     1
1070
    44
1040
1.0
1070
    74
1070
     0
1000
MTEXTEND
1000
MTEXTBEGIN
1070
    73
1070
     1
1070
    44
1040
1.0
1070
    74
1070
     0
1000
MTEXTEND
1000
MTEXTBEGIN
1070
    73
1070
     1
1070
    44
1040
1.0
1070
    74
1070
     0
1000
MTEXTEND
1000
MTEXTBEGIN
1070
    73
1070
     1
1070
    44
1040
1.0
1070
    74
1070
     0
1000
MTEXTEND
1000
MTEXTBEGIN
1070
    73
1070
     1
1070
    44
1040
1.0
1070
    74
1070
     0
1000
MTEXTEND
1000
MTEXTBEGIN
1070
    73
1070
     1
1070
    44
1040
1.0
1070
    74
1070
     0
1000
MTEXTEND
1000
MTEXTBEGIN
1070
    73
1070
     1
1070
    44
1040
1.0
1070
    74
1070
     0
1000
MTEXTEND
1000
MTEXTBEGIN
1070
    73
1070
     1
1070
    44
1040
1.0
1070
    74
1070
     0
1000
MTEXTEND
1000
MTEXTBEGIN
1070
    73
1070
     1
1070
    44
1040
1.0
1070
    74
1070
     0
1000
MTEXTEND
1000
MTEXTBEGIN
1070
    73
1070
     1
1070
    44
1040
1.0
1070
    74
1070
     0
1000
MTEXTEND
1000
MTEXTBEGIN
1070
    73
1070
     1
1070
    44
1040
1.0
1070
    74
1070
     0
1000
MTEXTEND
1000
MTEXTBEGIN
1070
    73
1070
     1
1070
    44
1040
1.0
1070
    74
1070
     0
1000
MTEXTEND
  0
LINE
  5
37D9
330
1F
100
AcDbEntity
  8
3C1
100
AcDbLine
 10
360.0
 20
260.0
 30
0.0
 11
5580.0
 21
260.0
 31
0.0
  0
LINE
  5
37DA
330
1F
100
AcDbEntity
  8
3C1
100
AcDbLine
 10
5580.0
 20
260.0
 30
0.0
 11
5580.0
 21
3940.0
 31
0.0
  0
LINE
  5
37DB
330
1F
100
AcDbEntity
  8
3C1
100
AcDbLine
 10
5580.0
 20
3940.0
 30
0.0
 11
360.0
 21
3940.0
 31
0.0
  0
LINE
  5
37DC
330
1F
100
AcDbEntity
  8
3C1
100
AcDbLine
 10
360.0
 20
3940.0
 30
0.0
 11
360.0
 21
260.0
 31
0.0
  0
LINE
  5
37DD
330
1F
100
AcDbEntity
  8
HOJO
100
AcDbLine
 10
0.0
 20
0.0
 30
0.0
 11
5940.0
 21
0.0
 31
0.0
  0
LINE
  5
37DE
330
1F
100
AcDbEntity
  8
HOJO
100
AcDbLine
 10
5940.0
 20
0.0
 30
0.0
 11
5940.0
 21
4200.0
 31
0.0
  0
LINE
  5
37DF
330
1F
100
AcDbEntity
  8
HOJO
100
AcDbLine
 10
5940.0
 20
4200.0
 30
0.0
 11
0.0
 21
4200.0
 31
0.0
  0
LINE
  5
37E0
330
1F
100
AcDbEntity
  8
HOJO
100
AcDbLine
 10
0.0
 20
4200.0
 30
0.0
 11
0.0
 21
0.0
 31
0.0
  0
TEXT
  5
37E1
330
1F
100
AcDbEntity
  8
SUNPO
 62
     7
100
AcDbText
 10
2948.571428571428
 20
3062.5
 30
0.0
 40
36.0
  1
490
  7
ADD
100
AcDbText
1001
ACAD
1000
MTEXTBEGIN
1070
    73
1070
     1
1070
    44
1040
1.0
1070
    74
1070
     0
1000
MTEXTEND
1000
MTEXTBEGIN
1070
    73
1070
     1
1070
    44
1040
1.0
1070
    74
1070
     0
1000
MTEXTEND
  0
TEXT
  5
37E2
330
1F
100
AcDbEntity
  8
SUNPO
 62
     7
100
AcDbText
 10
2946.0
 20
2212.499999999999
 30
0.0
 40
36.0
  1
140
  7
ADD
100
AcDbText
1001
ACAD
1000
MTEXTBEGIN
1070
    73
1070
     1
1070
    44
1040
1.0
1070
    74
1070
     0
1000
MTEXTEND
1000
MTEXTBEGIN
1070
    73
1070
     1
1070
    44
1040
1.0
1070
    74
1070
     0
1000
MTEXTEND
  0
TEXT
  5
37E3
330
1F
100
AcDbEntity
  8
SUNPO
 62
     7
100
AcDbText
 10
2880.714285714285
 20
2212.499999999999
 30
0.0
 40
36.0
  1
30
  7
ADD
100
AcDbText
1001
ACAD
1000
MTEXTBEGIN
1070
    73
1070
     1
1070
    44
1040
1.0
1070
    74
1070
     0
1000
MTEXTEND
1000
MTEXTBEGIN
1070
    73
1070
     1
1070
    44
1040
1.0
1070
    74
1070
     0
1000
MTEXTEND
  0
TEXT
  5
37E4
330
1F
100
AcDbEntity
  8
SUNPO
 62
     7
100
AcDbText
 10
3050.714285714285
 20
2212.499999999999
 30
0.0
 40
36.0
  1
30
  7
ADD
100
AcDbText
1001
ACAD
1000
MTEXTBEGIN
1070
    73
1070
     1
1070
    44
1040
1.0
1070
    74
1070
     0
1000
MTEXTEND
1000
MTEXTBEGIN
1070
    73
1070
     1
1070
    44
1040
1.0
1070
    74
1070
     0
1000
MTEXTEND
  0
TEXT
  5
37E5
330
1F
100
AcDbEntity
  8
SUNPO
 62
     7
100
AcDbText
 10
2587.499999999999
 20
1801.071428571429
 30
0.0
 40
36.0
  1
495
 50
90.0
  7
ADD
100
AcDbText
1001
ACAD
1000
MTEXTBEGIN
1070
    73
1070
     1
1070
    44
1040
1.0
1070
    74
1070
     0
1000
MTEXTEND
1000
MTEXTBEGIN
1070
    73
1070
     1
1070
    44
1040
1.0
1070
    74
1070
     0
1000
MTEXTEND
  0
TEXT
  5
37E6
330
1F
100
AcDbEntity
  8
SUNPO
 62
     7
100
AcDbText
 10
2668.0
 20
2115.714285714285
 30
0.0
 40
36.0
  1
30
 50
90.0
  7
ADD
100
AcDbText
1001
ACAD
1000
MTEXTBEGIN
1070
    73
1070
     1
1070
    44
1040
1.0
1070
    74
1070
     0
1000
MTEXTEND
1000
MTEXTBEGIN
1070
    73
1070
     1
1070
    44
1040
1.0
1070
    74
1070
     0
1000
MTEXTEND
  0
TEXT
  5
37E7
330
1F
100
AcDbEntity
  8
SUNPO
 62
     7
100
AcDbText
 10
2587.499999999999
 20
2786.0
 30
0.0
 40
36.0
  1
120
 50
90.0
  7
ADD
100
AcDbText
1001
ACAD
1000
MTEXTBEGIN
1070
    73
1070
     1
1070
    44
1040
1.0
1070
    74
1070
     0
1000
MTEXTEND
1000
MTEXTBEGIN
1070
    73
1070
     1
1070
    44
1040
1.0
1070
    74
1070
     0
1000
MTEXTEND
  0
TEXT
  5
37E8
330
1F
100
AcDbEntity
  8
SUNPO
 62
     7
100
AcDbText
 10
2663.0
 20
2695.714285714285
 30
0.0
 40
36.0
  1
20
 50
90.0
  7
ADD
100
AcDbText
1001
ACAD
1000
MTEXTBEGIN
1070
    73
1070
     1
1070
    44
1040
1.0
1070
    74
1070
     0
1000
MTEXTEND
1000
MTEXTBEGIN
1070
    73
1070
     1
1070
    44
1040
1.0
1070
    74
1070
     0
1000
MTEXTEND
  0
LINE
  5
37E9
330
1F
100
AcDbEntity
  8
SUNPO
100
AcDbLine
 10
2675.0
 20
2878.0
 30
0.0
 11
2675.0
 21
2825.0
 31
0.0
1001
ACAD
1000
DSTYLE
1002
{
1070
     5
1000

1070
    40
1040
20.0
1070
    77
1070
     0
1070
   140
1040
1.8
1070
   141
1040
1.1
1070
   147
1040
0.625
1070
   342
1005
0
1070
   372
1070
    -1
1002
}
  0
TEXT
  5
37EA
330
1F
100
AcDbEntity
  8
SUNPO
 62
     7
100
AcDbText
 10
2948.571428571428
 20
2612.5
 30
0.0
 40
36.0
  1
350
  7
ADD
100
AcDbText
1001
ACAD
1000
MTEXTBEGIN
1070
    73
1070
     1
1070
    44
1040
1.0
1070
    74
1070
     0
1000
MTEXTEND
1000
MTEXTBEGIN
1070
    73
1070
     1
1070
    44
1040
1.0
1070
    74
1070
     0
1000
MTEXTEND
  0
LINE
  5
37EB
330
1F
100
AcDbEntity
  8
SUNPO
100
AcDbLine
 10
2733.0
 20
2600.0
 30
0.0
 11
2705.0
 21
2600.0
 31
0.0
1001
ACAD
1000
DSTYLE
1002
{
1070
     5
1000

1070
    40
1040
20.0
1070
    77
1070
     0
1070
   140
1040
1.8
1070
   141
1040
1.1
1070
   147
1040
0.625
1070
   342
1005
0
1070
   372
1070
    -1
1002
}
  0
LINE
  5
37EC
330
1F
100
AcDbEntity
  8
SUNPO
100
AcDbLine
 10
3267.0
 20
2600.0
 30
0.0
 11
3295.0
 21
2600.0
 31
0.0
1001
ACAD
1000
DSTYLE
1002
{
1070
     5
1000

1070
    40
1040
20.0
1070
    77
1070
     0
1070
   140
1040
1.8
1070
   141
1040
1.1
1070
   147
1040
0.625
1070
   342
1005
0
1070
   372
1070
    -1
1002
}
  0
VIEWPORT
  5
72
330
1B
100
AcDbEntity
 67
     1
  8
0
100
AcDbViewport
 10
645.8325449029127
 20
277.0
 30
0.0
 40
1380.967339805825
 41
628.4520000000001
 68
     2
 69
     1
1001
ACAD
1000
MVIEW
1002
{
1070
    16
1010
0.0
1020
0.0
1030
0.0
1010
0.0
1020
0.0
1030
1.0
1040
0.0
1040
628.4520000000001
1040
645.8325449029127
1040
277.0
1040
50.0
1040
0.0
1040
0.0
1070
     0
1070
   100
1070
     1
1070
     1
1070
     0
1070
     0
1070
     0
1070
     0
1040
0.0
1040
0.0
1040
0.0
1040
10.0
1040
10.0
1040
10.0
1040
10.0
1070
     0
1002
{
1002
}
1002
}
  0
VIEWPORT
  5
74
330
1B
100
AcDbEntity
 67
     1
  8
VIEWPORT
100
AcDbViewport
 10
414.3779638919211
 20
277.3177265058034
 30
0.0
 40
840.0353682728887
 41
567.2285469943826
 68
     1
 69
     2
1001
ACAD
1000
MVIEW
1002
{
1070
    16
1010
0.0
1020
0.0
1030
0.0
1010
0.0
1020
0.0
1030
1.0
1040
0.0
1040
579.5583043546323
1040
424.4938908624541
1040
286.1973242720074
1040
50.0
1040
0.0
1040
0.0
1070
     0
1070
   100
1070
     1
1070
     1
1070
     0
1070
     0
1070
     0
1070
     0
1040
0.0
1040
0.0
1040
0.0
1040
10.0
1040
10.0
1040
10.0
1040
10.0
1070
     0
1002
{
1002
}
1002
}
  0
ENDSEC
  0
SECTION
  2
OBJECTS
  0
DICTIONARY
  5
C
330
0
100
AcDbDictionary
  3
ACAD_GROUP
350
D
  3
ACAD_LAYOUT
350
1A
  3
ACAD_MLINESTYLE
350
17
  3
ACAD_PLOTSETTINGS
350
19
  3
DWGPROPS
350
4C7
1001
ACAD
1000
TREAT_AS_HARD
1070
     0
  0
DICTIONARY
  5
19FC
330
1F
100
AcDbDictionary
  3
ACAD_LAYOUTSELFREF
350
37EF
1001
ACAD
1000
TREAT_AS_HARD
1070
     1
  0
DICTIONARY
  5
19FE
330
1B
100
AcDbDictionary
  3
ACAD_LAYOUTSELFREF
350
37EE
1001
ACAD
1000
TREAT_AS_HARD
1070
     1
  0
DICTIONARY
  5
D
102
{ACAD_REACTORS
330
C
102
}
330
C
100
AcDbDictionary
1001
ACAD
1000
TREAT_AS_HARD
1070
     0
  0
DICTIONARY
  5
1A
102
{ACAD_REACTORS
330
C
102
}
330
C
100
AcDbDictionary
1001
ACAD
1000
TREAT_AS_HARD
1070
     0
  0
DICTIONARY
  5
17
102
{ACAD_REACTORS
330
C
102
}
330
C
100
AcDbDictionary
  3
STANDARD
350
18
1001
ACAD
1000
TREAT_AS_HARD
1070
     0
  0
DICTIONARY
  5
19
102
{ACAD_REACTORS
330
C
102
}
330
C
100
AcDbDictionary
1001
ACAD
1000
TREAT_AS_HARD
1070
     0
  0
XRECORD
  5
4C7
102
{ACAD_REACTORS
330
C
102
}
330
C
100
AcDbXrecord
  1
DWGPROPS COOKIE
  2
印刷用テスト
  3
AutoCAD2000による建築設計
  4
鈴木 裕二
  6

  7

  8
U2
  9

300
=
301
=
302
=
303
=
304
=
305
=
306
=
307
=
308
=
309
=
 40
0.7653446875
 41
2451285.4846114
 42
2451333.689743032
  1

 90
        0
  0
XRECORD
  5
37EF
102
{ACAD_REACTORS
330
19FC
102
}
330
19FC
100
AcDbXrecord
340
1F
  0
XRECORD
  5
37EE
102
{ACAD_REACTORS
330
19FE
102
}
330
19FE
100
AcDbXrecord
340
1B
  0
MLINESTYLE
  5
18
102
{ACAD_REACTORS
330
17
102
}
330
17
100
AcDbMlineStyle
  2
STANDARD
 70
     0
  3

 62
   256
 51
90.0
 52
90.0
 71
     2
 49
0.5
 62
   256
  6
BYLAYER
 49
-0.5
 62
   256
  6
BYLAYER
  0
ENDSEC
  0
EOF
