  0
SECTION
  2
HEADER
  9
$ACADVER
  1
AC1012
  9
$DWGCODEPAGE
  3
dos932
  9
$INSBASE
 10
0.0
 20
0.0
 30
0.0
  9
$EXTMIN
 10
0.0
 20
0.0
 30
0.0
  9
$EXTMAX
 10
5940.0
 20
4200.0
 30
0.0
  9
$LIMMIN
 10
0.0
 20
0.0
  9
$LIMMAX
 10
5940.0
 20
4200.0
  9
$ORTHOMODE
 70
     0
  9
$REGENMODE
 70
     1
  9
$FILLMODE
 70
     1
  9
$QTEXTMODE
 70
     0
  9
$MIRRTEXT
 70
     0
  9
$DRAGMODE
 70
     2
  9
$LTSCALE
 40
10.0
  9
$OSMODE
 70
    39
  9
$ATTMODE
 70
     1
  9
$TEXTSIZE
 40
50.0
  9
$TRACEWID
 40
1.0
  9
$TEXTSTYLE
  7
ADD
  9
$CLAYER
  8
SUNPO
  9
$CELTYPE
  6
BYLAYER
  9
$CECOLOR
 62
   256
  9
$CELTSCALE
 40
1.0
  9
$DELOBJ
 70
     1
  9
$DISPSILH
 70
     0
  9
$DIMSCALE
 40
20.0
  9
$DIMASZ
 40
1.399999999999999
  9
$DIMEXO
 40
1.0
  9
$DIMDLI
 40
7.0
  9
$DIMRND
 40
0.0
  9
$DIMDLE
 40
0.0
  9
$DIMEXE
 40
0.5
  9
$DIMTP
 40
0.0
  9
$DIMTM
 40
0.0
  9
$DIMTXT
 40
1.8
  9
$DIMCEN
 40
1.399999999999999
  9
$DIMTSZ
 40
0.0
  9
$DIMTOL
 70
     0
  9
$DIMLIM
 70
     0
  9
$DIMTIH
 70
     0
  9
$DIMTOH
 70
     0
  9
$DIMSE1
 70
     0
  9
$DIMSE2
 70
     0
  9
$DIMTAD
 70
     1
  9
$DIMZIN
 70
     8
  9
$DIMBLK
  1

  9
$DIMASO
 70
     1
  9
$DIMSHO
 70
     1
  9
$DIMPOST
  1

  9
$DIMAPOST
  1

  9
$DIMALT
 70
     0
  9
$DIMALTD
 70
     3
  9
$DIMALTF
 40
0.03937007874016
  9
$DIMLFAC
 40
1.0
  9
$DIMTOFL
 70
     1
  9
$DIMTVP
 40
0.7
  9
$DIMTIX
 70
     1
  9
$DIMSOXD
 70
     0
  9
$DIMSAH
 70
     0
  9
$DIMBLK1
  1

  9
$DIMBLK2
  1

  9
$DIMSTYLE
  2
ADD
  9
$DIMCLRD
 70
   144
  9
$DIMCLRE
 70
   144
  9
$DIMCLRT
 70
     7
  9
$DIMTFAC
 40
1.0
  9
$DIMGAP
 40
0.625
  9
$DIMJUST
 70
     0
  9
$DIMSD1
 70
     0
  9
$DIMSD2
 70
     0
  9
$DIMTOLJ
 70
     2
  9
$DIMTZIN
 70
     8
  9
$DIMALTZ
 70
     0
  9
$DIMALTTZ
 70
     0
  9
$DIMFIT
 70
     5
  9
$DIMUPT
 70
     0
  9
$DIMUNIT
 70
     2
  9
$DIMDEC
 70
     1
  9
$DIMTDEC
 70
     1
  9
$DIMALTU
 70
     2
  9
$DIMALTTD
 70
     3
  9
$DIMTXSTY
  7
ADD
  9
$DIMAUNIT
 70
     0
  9
$LUNITS
 70
     2
  9
$LUPREC
 70
     4
  9
$SKETCHINC
 40
1.0
  9
$FILLETRAD
 40
20.0
  9
$AUNITS
 70
     0
  9
$AUPREC
 70
     1
  9
$MENU
  1
.
  9
$ELEVATION
 40
0.0
  9
$PELEVATION
 40
0.0
  9
$THICKNESS
 40
0.0
  9
$LIMCHECK
 70
     0
  9
$BLIPMODE
 70
     0
  9
$CHAMFERA
 40
30.0
  9
$CHAMFERB
 40
30.0
  9
$CHAMFERC
 40
20.0
  9
$CHAMFERD
 40
0.0
  9
$SKPOLY
 70
     0
  9
$TDCREATE
 40
2451801.142532870
  9
$TDUPDATE
 40
2451862.356946990
  9
$TDINDWG
 40
0.3985426968
  9
$TDUSRTIMER
 40
0.3985426968
  9
$USRTIMER
 70
     1
  9
$ANGBASE
 50
0.0
  9
$ANGDIR
 70
     0
  9
$PDMODE
 70
     0
  9
$PDSIZE
 40
0.0
  9
$PLINEWID
 40
0.0
  9
$COORDS
 70
     2
  9
$SPLFRAME
 70
     0
  9
$SPLINETYPE
 70
     6
  9
$SPLINESEGS
 70
     8
  9
$ATTDIA
 70
     0
  9
$ATTREQ
 70
     1
  9
$HANDLING
 70
 10241
  9
$HANDSEED
  5
1F38
  9
$SURFTAB1
 70
     6
  9
$SURFTAB2
 70
     6
  9
$SURFTYPE
 70
     6
  9
$SURFU
 70
     6
  9
$SURFV
 70
     6
  9
$UCSNAME
  2

  9
$UCSORG
 10
0.0
 20
0.0
 30
0.0
  9
$UCSXDIR
 10
1.0
 20
0.0
 30
0.0
  9
$UCSYDIR
 10
0.0
 20
1.0
 30
0.0
  9
$PUCSNAME
  2

  9
$PUCSORG
 10
0.0
 20
0.0
 30
0.0
  9
$PUCSXDIR
 10
1.0
 20
0.0
 30
0.0
  9
$PUCSYDIR
 10
0.0
 20
1.0
 30
0.0
  9
$USERI1
 70
     0
  9
$USERI2
 70
     0
  9
$USERI3
 70
     0
  9
$USERI4
 70
     0
  9
$USERI5
 70
     0
  9
$USERR1
 40
841.0
  9
$USERR2
 40
594.0
  9
$USERR3
 40
1.0
  9
$USERR4
 40
0.0
  9
$USERR5
 40
0.0
  9
$WORLDVIEW
 70
     1
  9
$SHADEDGE
 70
     3
  9
$SHADEDIF
 70
    70
  9
$TILEMODE
 70
     1
  9
$MAXACTVP
 70
    48
  9
$PINSBASE
 10
0.0
 20
0.0
 30
0.0
  9
$PLIMCHECK
 70
     0
  9
$PEXTMIN
 10
-5.639720244523232
 20
-6.296546991387913
 30
0.0
  9
$PEXTMAX
 10
834.3956480283654
 20
560.9320000029947
 30
0.0
  9
$PLIMMIN
 10
-7.500000000000001
 20
-20.0
  9
$PLIMMAX
 10
833.5000000000002
 20
574.0000000000001
  9
$UNITMODE
 70
     0
  9
$VISRETAIN
 70
     1
  9
$PLINEGEN
 70
     0
  9
$PSLTSCALE
 70
     1
  9
$TREEDEPTH
 70
  3020
  9
$PICKSTYLE
 70
     1
  9
$CMLSTYLE
  2
STANDARD
  9
$CMLJUST
 70
     0
  9
$CMLSCALE
 40
20.0
  9
$SAVEIMAGES
 70
     1
  0
ENDSEC
  0
SECTION
  2
CLASSES
  0
CLASS
  1
ACDBDICTIONARYWDFLT
  2
AcDbDictionaryWithDefault
  3
AutoCAD 2000
 90
    32768
280
     0
281
     0
  0
CLASS
  1
ACDBPLACEHOLDER
  2
AcDbPlaceHolder
  3
AutoCAD 2000
 90
    32768
280
     0
281
     0
  0
CLASS
  1
LAYOUT
  2
AcDbLayout
  3
AutoCAD 2000
 90
    32768
280
     0
281
     0
  0
CLASS
  1
RTEXT
  2
RText
  3
RText|AutoCAD Express Tool|expresstools@autodesk.com
 90
    32768
280
     0
281
     1
  0
CLASS
  1
DICTIONARYVAR
  2
AcDbDictionaryVar
  3
AutoCAD 2000
 90
    32768
280
     0
281
     0
  0
CLASS
  1
LONG_TRANSACTION
  2
AcDbLongTransaction
  3
AutoCAD 2000
 90
    32768
280
     0
281
     0
  0
CLASS
  1
LWPOLYLINE
  2
AcDbPolyline
  3
AutoCAD 2000
 90
    32768
280
     0
281
     1
  0
CLASS
  1
HATCH
  2
AcDbHatch
  3
AutoCAD 2000
 90
    32768
280
     0
281
     1
  0
CLASS
  1
XRECORD
  2
AcDbXrecord
  3
AutoCAD 2000
 90
    32768
280
     0
281
     0
  0
CLASS
  1
LONG_TRANSACTION
  2
AcDbLongTransaction
  3
AutoCAD 2000
 90
    32768
280
     0
281
     0
  0
CLASS
  1
LWPOLYLINE
  2
AcDbPolyline
  3
AutoCAD 2000
 90
    32768
280
     0
281
     1
  0
CLASS
  1
HATCH
  2
AcDbHatch
  3
AutoCAD 2000
 90
    32768
280
     0
281
     1
  0
CLASS
  1
XRECORD
  2
AcDbXrecord
  3
AutoCAD 2000
 90
    32768
280
     0
281
     0
  0
CLASS
  1
LONG_TRANSACTION
  2
AcDbLongTransaction
  3
AutoCAD 2000
 90
    32768
280
     0
281
     0
  0
CLASS
  1
LWPOLYLINE
  2
AcDbPolyline
  3
AutoCAD 2000
 90
    32768
280
     0
281
     1
  0
CLASS
  1
HATCH
  2
AcDbHatch
  3
AutoCAD 2000
 90
    32768
280
     0
281
     1
  0
CLASS
  1
XRECORD
  2
AcDbXrecord
  3
AutoCAD 2000
 90
    32768
280
     0
281
     0
  0
CLASS
  1
LONG_TRANSACTION
  2
AcDbLongTransaction
  3
AutoCAD 2000
 90
    32768
280
     0
281
     0
  0
CLASS
  1
LWPOLYLINE
  2
AcDbPolyline
  3
AutoCAD 2000
 90
    32768
280
     0
281
     1
  0
CLASS
  1
HATCH
  2
AcDbHatch
  3
AutoCAD 2000
 90
    32768
280
     0
281
     1
  0
CLASS
  1
XRECORD
  2
AcDbXrecord
  3
AutoCAD 2000
 90
    32768
280
     0
281
     0
  0
CLASS
  1
LONG_TRANSACTION
  2
AcDbLongTransaction
  3
AutoCAD 2000
 90
    32768
280
     0
281
     0
  0
CLASS
  1
LWPOLYLINE
  2
AcDbPolyline
  3
AutoCAD 2000
 90
    32768
280
     0
281
     1
  0
CLASS
  1
HATCH
  2
AcDbHatch
  3
AutoCAD 2000
 90
    32768
280
     0
281
     1
  0
CLASS
  1
XRECORD
  2
AcDbXrecord
  3
AutoCAD 2000
 90
    32768
280
     0
281
     0
  0
CLASS
  1
LONG_TRANSACTION
  2
AcDbLongTransaction
  3
AutoCAD 2000
 90
    32768
280
     0
281
     0
  0
CLASS
  1
LWPOLYLINE
  2
AcDbPolyline
  3
AutoCAD 2000
 90
    32768
280
     0
281
     1
  0
CLASS
  1
HATCH
  2
AcDbHatch
  3
AutoCAD 2000
 90
    32768
280
     0
281
     1
  0
CLASS
  1
XRECORD
  2
AcDbXrecord
  3
AutoCAD 2000
 90
    32768
280
     0
281
     0
  0
ENDSEC
  0
SECTION
  2
TABLES
  0
TABLE
  2
VPORT
  5
8
330
0
100
AcDbSymbolTable
 70
     2
  0
VPORT
  5
1F28
330
8
100
AcDbSymbolTableRecord
100
AcDbViewportTableRecord
  2
*ACTIVE
 70
     0
 10
0.0
 20
0.0
 11
1.0
 21
1.0
 12
2970.00004149295
 22
2300.24781491214
 13
0.0
 23
0.0
 14
50.0
 24
50.0
 15
10.0
 25
10.0
 16
0.0
 26
0.0
 36
1.0
 17
0.0
 27
0.0
 37
0.0
 40
4681.655124791769
 41
2.091445427728613
 42
50.0
 43
0.0
 44
0.0
 50
0.0
 51
0.0
 71
     0
 72
   200
 73
     1
 74
     1
 75
     0
 76
     0
 77
     0
 78
     0
  0
ENDTAB
  0
TABLE
  2
LTYPE
  5
5
330
0
100
AcDbSymbolTable
 70
     5
  0
LTYPE
  5
14
330
5
100
AcDbSymbolTableRecord
100
AcDbLinetypeTableRecord
  2
BYBLOCK
 70
     0
  3

 72
    65
 73
     0
 40
0.0
  0
LTYPE
  5
15
330
5
100
AcDbSymbolTableRecord
100
AcDbLinetypeTableRecord
  2
BYLAYER
 70
     0
  3

 72
    65
 73
     0
 40
0.0
  0
LTYPE
  5
16
330
5
100
AcDbSymbolTableRecord
100
AcDbLinetypeTableRecord
  2
CONTINUOUS
 70
     0
  3
Solid line
 72
    65
 73
     0
 40
0.0
  0
LTYPE
  5
555
330
5
100
AcDbSymbolTableRecord
100
AcDbLinetypeTableRecord
  2
CENTER
 70
     0
  3
Center ____ _ ____ _ ____ _ ____ _ ____ _ ____
 72
    65
 73
     4
 40
50.8
 49
31.75
 74
     0
 49
-6.349999999999999
 74
     0
 49
6.349999999999999
 74
     0
 49
-6.349999999999999
 74
     0
  0
LTYPE
  5
556
330
5
100
AcDbSymbolTableRecord
100
AcDbLinetypeTableRecord
  2
HIDDEN
 70
     0
  3
Hidden __ __ __ __ __ __ __ __ __ __ __ __ __ _
 72
    65
 73
     2
 40
9.524999999999998
 49
6.349999999999999
 74
     0
 49
-3.174999999999999
 74
     0
  0
LTYPE
  5
557
330
5
100
AcDbSymbolTableRecord
100
AcDbLinetypeTableRecord
  2
HIDDEN2
 70
     0
  3
Hidden (.5x) _ _ _ _ _ _ _ _ _ _ _ _ _ _ _ _ _
 72
    65
 73
     2
 40
4.762499999999999
 49
3.174999999999999
 74
     0
 49
-1.587499999999999
 74
     0
  0
LTYPE
  5
558
330
5
100
AcDbSymbolTableRecord
100
AcDbLinetypeTableRecord
  2
PHANTOM
 70
     0
  3
Phantom ______  __  __  ______  __  __  ______
 72
    65
 73
     6
 40
63.5
 49
31.75
 74
     0
 49
-6.349999999999999
 74
     0
 49
6.349999999999999
 74
     0
 49
-6.349999999999999
 74
     0
 49
6.349999999999999
 74
     0
 49
-6.349999999999999
 74
     0
  0
ENDTAB
  0
TABLE
  2
LAYER
  5
2
330
0
100
AcDbSymbolTable
 70
    22
  0
LAYER
  5
10
330
2
100
AcDbSymbolTableRecord
100
AcDbLayerTableRecord
  2
0
 70
     0
 62
     7
  6
CONTINUOUS
  0
LAYER
  5
75
330
2
100
AcDbSymbolTableRecord
100
AcDbLayerTableRecord
  2
VIEWPORT
 70
     0
 62
     1
  6
CONTINUOUS
  0
LAYER
  5
504
330
2
100
AcDbSymbolTableRecord
100
AcDbLayerTableRecord
  2
DEFPOINTS
 70
     0
 62
     7
  6
CONTINUOUS
  0
LAYER
  5
505
330
2
100
AcDbSymbolTableRecord
100
AcDbLayerTableRecord
  2
1C1
 70
     0
 62
   254
  6
CONTINUOUS
  0
LAYER
  5
506
330
2
100
AcDbSymbolTableRecord
100
AcDbLayerTableRecord
  2
1C2
 70
     0
 62
   254
  6
CONTINUOUS
  0
LAYER
  5
507
330
2
100
AcDbSymbolTableRecord
100
AcDbLayerTableRecord
  2
2C1
 70
     0
 62
   144
  6
CONTINUOUS
  0
LAYER
  5
508
330
2
100
AcDbSymbolTableRecord
100
AcDbLayerTableRecord
  2
2C2
 70
     0
 62
   144
  6
CONTINUOUS
  0
LAYER
  5
509
330
2
100
AcDbSymbolTableRecord
100
AcDbLayerTableRecord
  2
2H1
 70
     0
 62
   144
  6
HIDDEN
  0
LAYER
  5
50A
330
2
100
AcDbSymbolTableRecord
100
AcDbLayerTableRecord
  2
2H2
 70
     0
 62
   144
  6
HIDDEN2
  0
LAYER
  5
50B
330
2
100
AcDbSymbolTableRecord
100
AcDbLayerTableRecord
  2
2P1
 70
     0
 62
   144
  6
PHANTOM
  0
LAYER
  5
50C
330
2
100
AcDbSymbolTableRecord
100
AcDbLayerTableRecord
  2
3C1
 70
     0
 62
     7
  6
CONTINUOUS
  0
LAYER
  5
50D
330
2
100
AcDbSymbolTableRecord
100
AcDbLayerTableRecord
  2
3C2
 70
     0
 62
     7
  6
CONTINUOUS
  0
LAYER
  5
50E
330
2
100
AcDbSymbolTableRecord
100
AcDbLayerTableRecord
  2
3C3
 70
     0
 62
     7
  6
CONTINUOUS
  0
LAYER
  5
50F
330
2
100
AcDbSymbolTableRecord
100
AcDbLayerTableRecord
  2
4H1
 70
     0
 62
     6
  6
HIDDEN
  0
LAYER
  5
510
330
2
100
AcDbSymbolTableRecord
100
AcDbLayerTableRecord
  2
4H2
 70
     0
 62
     6
  6
HIDDEN2
  0
LAYER
  5
511
330
2
100
AcDbSymbolTableRecord
100
AcDbLayerTableRecord
  2
5C1
 70
     0
 62
    55
  6
CONTINUOUS
  0
LAYER
  5
512
330
2
100
AcDbSymbolTableRecord
100
AcDbLayerTableRecord
  2
5C2
 70
     0
 62
    55
  6
CONTINUOUS
  0
LAYER
  5
513
330
2
100
AcDbSymbolTableRecord
100
AcDbLayerTableRecord
  2
8C1
 70
     0
 62
    92
  6
CONTINUOUS
  0
LAYER
  5
514
330
2
100
AcDbSymbolTableRecord
100
AcDbLayerTableRecord
  2
HOJO
 70
     0
 62
     5
  6
CONTINUOUS
  0
LAYER
  5
515
330
2
100
AcDbSymbolTableRecord
100
AcDbLayerTableRecord
  2
KIJUN
 70
     0
 62
     1
  6
CENTER
  0
LAYER
  5
516
330
2
100
AcDbSymbolTableRecord
100
AcDbLayerTableRecord
  2
MOJI
 70
     0
 62
     7
  6
CONTINUOUS
  0
LAYER
  5
517
330
2
100
AcDbSymbolTableRecord
100
AcDbLayerTableRecord
  2
SUNPO
 70
     0
 62
   144
  6
CONTINUOUS
  0
ENDTAB
  0
TABLE
  2
STYLE
  5
3
330
0
100
AcDbSymbolTable
 70
     6
  0
STYLE
  5
11
330
3
100
AcDbSymbolTableRecord
100
AcDbTextStyleTableRecord
  2
STANDARD
 70
     0
 40
0.0
 41
1.0
 50
0.0
 71
     0
 42
2.5
  3
txt
  4

  0
STYLE
  5
2C
330
3
100
AcDbSymbolTableRecord
100
AcDbTextStyleTableRecord
  2

 70
     1
 40
0.0
 41
1.0
 50
0.0
 71
     0
 42
2.5
  3
ltypeshp.shx
  4

  0
STYLE
  5
18E
330
3
100
AcDbSymbolTableRecord
100
AcDbTextStyleTableRecord
  2
ADD
 70
     0
 40
0.0
 41
1.0
 50
0.0
 71
     0
 42
50.0
  3
romans.shx
  4
bigfont.shx
  0
STYLE
  5
191
330
3
100
AcDbSymbolTableRecord
100
AcDbTextStyleTableRecord
  2
MSG
 70
     0
 40
0.0
 41
1.0
 50
0.0
 71
     0
 42
2.5
  3
MS Gothic.ttf
  4

1001
ACAD
1000
MS Gothic
1071
    32817
  0
STYLE
  5
5C8
330
3
100
AcDbSymbolTableRecord
100
AcDbTextStyleTableRecord
  2
STANDARD15
 70
     0
 40
0.0
 41
1.0
 50
15.0
 71
     0
 42
2.5
  3
ROMANS
  4
bigfont
  0
STYLE
  5
5C9
330
3
100
AcDbSymbolTableRecord
100
AcDbTextStyleTableRecord
  2
ROMANS15
 70
     0
 40
0.0
 41
1.0
 50
15.0
 71
     0
 42
2.5
  3
romans
  4

  0
ENDTAB
  0
TABLE
  2
VIEW
  5
6
330
0
100
AcDbSymbolTable
 70
     1
  0
VIEW
  5
54D
330
6
100
AcDbSymbolTableRecord
100
AcDbViewTableRecord
  2
ALL
 70
     0
 40
594.0
 10
420.5
 20
297.0
 41
865.125
 11
0.0
 21
0.0
 31
1.0
 12
0.0
 22
0.0
 32
0.0
 42
50.0
 43
0.0
 44
0.0
 50
0.0
 71
     0
  0
ENDTAB
  0
TABLE
  2
UCS
  5
7
330
0
100
AcDbSymbolTable
 70
     0
  0
ENDTAB
  0
TABLE
  2
APPID
  5
9
330
0
100
AcDbSymbolTable
 70
     4
  0
APPID
  5
12
330
9
100
AcDbSymbolTableRecord
100
AcDbRegAppTableRecord
  2
ACAD
 70
     0
  0
APPID
  5
5CB
330
9
100
AcDbSymbolTableRecord
100
AcDbRegAppTableRecord
  2
ARAIGUMI_YOHEKI
 70
     0
  0
APPID
  5
5CC
330
9
100
AcDbSymbolTableRecord
100
AcDbRegAppTableRecord
  2
CONTENTTABDATA
 70
     0
  0
APPID
  5
5CD
330
9
100
AcDbSymbolTableRecord
100
AcDbRegAppTableRecord
  2
CONTENTCURRENTTAB
 70
     0
  0
ENDTAB
  0
TABLE
  2
DIMSTYLE
  5
A
330
0
100
AcDbSymbolTable
 70
    10
  0
DIMSTYLE
105
27
330
A
100
AcDbSymbolTableRecord
100
AcDbDimStyleTableRecord
  2
ISO-25
 70
     0
  3

  4

  5

  6

  7

 40
1.0
 41
2.5
 42
0.625
 43
3.75
 44
1.25
 45
0.0
 46
0.0
 47
0.0
 48
0.0
140
2.5
141
2.5
142
0.0
143
0.03937007874016
144
1.0
145
0.0
146
1.0
147
0.625
 71
     0
 72
     0
 73
     0
 74
     0
 75
     0
 76
     0
 77
     1
 78
     8
170
     0
171
     3
172
     1
173
     0
174
     0
175
     0
176
     0
177
     0
178
     0
270
     2
271
     2
272
     2
273
     2
274
     3
340
11
275
     0
280
     0
281
     0
282
     0
283
     0
284
     8
285
     0
286
     0
287
     3
288
     0
  0
DIMSTYLE
105
197
330
A
100
AcDbSymbolTableRecord
100
AcDbDimStyleTableRecord
  2
ADD
 70
     0
  3

  4

  5

  6

  7

 40
1.0
 41
2.5
 42
1.0
 43
7.0
 44
0.5
 45
0.0
 46
0.0
 47
0.0
 48
0.0
140
2.5
141
2.5
142
0.0
143
0.03937007874016
144
1.0
145
0.7
146
1.0
147
0.625
 71
     0
 72
     0
 73
     0
 74
     0
 75
     0
 76
     0
 77
     1
 78
     8
170
     0
171
     3
172
     1
173
     0
174
     1
175
     0
176
   144
177
   144
178
     7
270
     2
271
     1
272
     1
273
     2
274
     3
340
18E
275
     0
280
     0
281
     0
282
     0
283
     2
284
     8
285
     0
286
     0
287
     5
288
     0
  0
DIMSTYLE
105
3E6
330
A
100
AcDbSymbolTableRecord
100
AcDbDimStyleTableRecord
  2
ADD$2
 70
     0
  3

  4

  5

  6

  7

 40
1.0
 41
2.5
 42
1.0
 43
7.0
 44
0.5
 45
0.0
 46
0.0
 47
0.0
 48
0.0
140
2.5
141
2.5
142
0.0
143
0.03937007874016
144
1.0
145
0.7
146
1.0
147
0.625
 71
     0
 72
     0
 73
     0
 74
     0
 75
     0
 76
     0
 77
     1
 78
     8
170
     0
171
     3
172
     1
173
     0
174
     1
175
     0
176
   144
177
   144
178
     7
270
     2
271
     1
272
     1
273
     2
274
     3
340
18E
275
     0
280
     0
281
     0
282
     0
283
     2
284
     8
285
     0
286
     0
287
     5
288
     0
  0
DIMSTYLE
105
3E7
102
{ACAD_REACTORS
330
1D52
330
1D48
330
1C03
330
1BEF
102
}
330
A
100
AcDbSymbolTableRecord
100
AcDbDimStyleTableRecord
  2
ADD$4
 70
     0
  3

  4

  5

  6

  7

 40
1.0
 41
2.5
 42
1.0
 43
7.0
 44
0.5
 45
0.0
 46
0.0
 47
0.0
 48
0.0
140
2.5
141
2.5
142
0.0
143
0.03937007874016
144
1.0
145
0.0
146
1.0
147
0.625
 71
     0
 72
     0
 73
     0
 74
     0
 75
     0
 76
     0
 77
     1
 78
     8
170
     0
171
     3
172
     1
173
     0
174
     1
175
     0
176
   144
177
   144
178
     7
270
     2
271
     1
272
     1
273
     2
274
     3
340
18E
275
     0
280
     0
281
     0
282
     0
283
     2
284
     8
285
     0
286
     0
287
     5
288
     0
  0
DIMSTYLE
105
3E8
330
A
100
AcDbSymbolTableRecord
100
AcDbDimStyleTableRecord
  2
ADD$3
 70
     0
  3

  4

  5

  6

  7

 40
1.0
 41
2.5
 42
1.0
 43
7.0
 44
0.5
 45
0.0
 46
0.0
 47
0.0
 48
0.0
140
2.5
141
2.5
142
0.0
143
0.03937007874016
144
1.0
145
0.0
146
1.0
147
0.625
 71
     0
 72
     0
 73
     0
 74
     0
 75
     0
 76
     0
 77
     1
 78
     8
170
     0
171
     3
172
     1
173
     0
174
     1
175
     0
176
   144
177
   144
178
     7
270
     2
271
     1
272
     1
273
     2
274
     3
340
18E
275
     0
280
     0
281
     0
282
     0
283
     2
284
     8
285
     0
286
     0
287
     5
288
     0
  0
DIMSTYLE
105
3E9
330
A
100
AcDbSymbolTableRecord
100
AcDbDimStyleTableRecord
  2
ADD$6
 70
     0
  3

  4

  5

  6

  7

 40
1.0
 41
2.5
 42
1.0
 43
7.0
 44
0.5
 45
0.0
 46
0.0
 47
0.0
 48
0.0
140
2.5
141
2.5
142
0.0
143
0.03937007874016
144
1.0
145
0.0
146
1.0
147
0.625
 71
     0
 72
     0
 73
     0
 74
     0
 75
     0
 76
     0
 77
     1
 78
     8
170
     0
171
     3
172
     1
173
     0
174
     1
175
     0
176
   144
177
   144
178
     7
270
     2
271
     1
272
     1
273
     2
274
     3
340
18E
275
     0
280
     0
281
     0
282
     0
283
     2
284
     8
285
     0
286
     0
287
     5
288
     0
  0
DIMSTYLE
105
3EA
330
A
100
AcDbSymbolTableRecord
100
AcDbDimStyleTableRecord
  2
ADD$7
 70
     0
  3

  4

  5

  6

  7

 40
1.0
 41
2.5
 42
1.0
 43
7.0
 44
0.5
 45
0.0
 46
0.0
 47
0.0
 48
0.0
140
2.5
141
2.5
142
0.0
143
0.03937007874016
144
1.0
145
0.0
146
1.0
147
0.625
 71
     0
 72
     0
 73
     0
 74
     0
 75
     0
 76
     0
 77
     0
 78
     8
170
     0
171
     3
172
     1
173
     0
174
     1
175
     0
176
   144
177
   144
178
     7
270
     2
271
     1
272
     1
273
     2
274
     3
340
18E
275
     0
280
     0
281
     0
282
     0
283
     2
284
     8
285
     0
286
     0
287
     5
288
     0
  0
DIMSTYLE
105
518
330
A
100
AcDbSymbolTableRecord
100
AcDbDimStyleTableRecord
  2
STANDARD
 70
     0
  3

  4

  5

  6

  7

 40
1.0
 41
0.18
 42
0.0625
 43
0.38
 44
0.18
 45
0.0
 46
0.0
 47
0.0
 48
0.0
140
0.18
141
0.09
142
0.0
143
25.4
144
1.0
145
0.0
146
1.0
147
0.09
 71
     0
 72
     0
 73
     1
 74
     1
 75
     0
 76
     0
 77
     0
 78
     0
170
     0
171
     2
172
     0
173
     0
174
     0
175
     0
176
     0
177
     0
178
     0
270
     2
271
     4
272
     4
273
     2
274
     2
340
11
275
     0
280
     0
281
     0
282
     0
283
     1
284
     0
285
     0
286
     0
287
     3
288
     0
  0
DIMSTYLE
105
550
102
{ACAD_REACTORS
330
1D31
330
1D24
330
1D17
330
1D0A
330
1BD5
330
1BC8
330
1BBB
102
}
330
A
100
AcDbSymbolTableRecord
100
AcDbDimStyleTableRecord
  2
ADD$0
 70
     0
  3

  4

  5

  6

  7

 40
1.0
 41
2.2
 42
1.0
 43
7.0
 44
0.5
 45
0.0
 46
0.0
 47
0.0
 48
0.0
140
2.5
141
2.5
142
0.0
143
0.03937007874016
144
1.0
145
0.7
146
1.0
147
0.625
 71
     0
 72
     0
 73
     0
 74
     0
 75
     0
 76
     0
 77
     1
 78
     8
170
     0
171
     3
172
     1
173
     0
174
     1
175
     0
176
   144
177
   144
178
     7
270
     2
271
     1
272
     1
273
     2
274
     3
340
18E
275
     0
280
     0
281
     0
282
     0
283
     2
284
     8
285
     0
286
     0
287
     5
288
     0
  0
DIMSTYLE
105
59B
330
A
100
AcDbSymbolTableRecord
100
AcDbDimStyleTableRecord
  2
ADD_M
 70
     0
  3

  4

  5

  6

  7

 40
1.0
 41
2.5
 42
1.0
 43
7.0
 44
0.5
 45
0.0
 46
0.0
 47
0.0
 48
0.0
140
2.5
141
2.5
142
0.0
143
0.03937007874016
144
1.0
145
0.7
146
1.0
147
0.625
 71
     0
 72
     0
 73
     0
 74
     0
 75
     0
 76
     0
 77
     1
 78
     8
170
     0
171
     3
172
     1
173
     0
174
     1
175
     0
176
   144
177
   144
178
     7
270
     2
271
     1
272
     1
273
     2
274
     3
340
18E
275
     0
280
     0
281
     0
282
     0
283
     2
284
     8
285
     0
286
     0
287
     5
288
     0
  0
ENDTAB
  0
TABLE
  2
BLOCK_RECORD
  5
1
330
0
100
AcDbSymbolTable
 70
    16
  0
BLOCK_RECORD
  5
1F
102
{ACAD_XDICTIONARY
360
17F6
102
}
330
1
100
AcDbSymbolTableRecord
100
AcDbBlockTableRecord
  2
*MODEL_SPACE
  0
BLOCK_RECORD
  5
1B
102
{ACAD_XDICTIONARY
360
17F8
102
}
330
1
100
AcDbSymbolTableRecord
100
AcDbBlockTableRecord
  2
*PAPER_SPACE
  0
BLOCK_RECORD
  5
192
330
1
100
AcDbSymbolTableRecord
100
AcDbBlockTableRecord
  2
_DOT
  0
BLOCK_RECORD
  5
5CE
330
1
100
AcDbSymbolTableRecord
100
AcDbBlockTableRecord
  2
A4
  0
BLOCK_RECORD
  5
636
330
1
100
AcDbSymbolTableRecord
100
AcDbBlockTableRecord
  2
_OPEN90
  0
BLOCK_RECORD
  5
63C
330
1
100
AcDbSymbolTableRecord
100
AcDbBlockTableRecord
  2
_OPEN30
  0
BLOCK_RECORD
  5
FDC
330
1
100
AcDbSymbolTableRecord
100
AcDbBlockTableRecord
  2
_DATUMFILLED
  0
BLOCK_RECORD
  5
1BBC
330
1
100
AcDbSymbolTableRecord
100
AcDbBlockTableRecord
  2
*D5
  0
BLOCK_RECORD
  5
1BC9
330
1
100
AcDbSymbolTableRecord
100
AcDbBlockTableRecord
  2
*D6
  0
BLOCK_RECORD
  5
1BD6
330
1
100
AcDbSymbolTableRecord
100
AcDbBlockTableRecord
  2
*D7
  0
BLOCK_RECORD
  5
1BF0
330
1
100
AcDbSymbolTableRecord
100
AcDbBlockTableRecord
  2
*D8
  0
BLOCK_RECORD
  5
1C04
330
1
100
AcDbSymbolTableRecord
100
AcDbBlockTableRecord
  2
*D9
  0
BLOCK_RECORD
  5
1D0B
330
1
100
AcDbSymbolTableRecord
100
AcDbBlockTableRecord
  2
*D10
  0
BLOCK_RECORD
  5
1D18
330
1
100
AcDbSymbolTableRecord
100
AcDbBlockTableRecord
  2
*D11
  0
BLOCK_RECORD
  5
1D25
330
1
100
AcDbSymbolTableRecord
100
AcDbBlockTableRecord
  2
*D12
  0
BLOCK_RECORD
  5
1D32
330
1
100
AcDbSymbolTableRecord
100
AcDbBlockTableRecord
  2
*D13
  0
BLOCK_RECORD
  5
1D49
330
1
100
AcDbSymbolTableRecord
100
AcDbBlockTableRecord
  2
*D14
  0
BLOCK_RECORD
  5
1D53
330
1
100
AcDbSymbolTableRecord
100
AcDbBlockTableRecord
  2
*D15
  0
ENDTAB
  0
ENDSEC
  0
SECTION
  2
BLOCKS
  0
BLOCK
  5
20
330
1F
100
AcDbEntity
  8
0
100
AcDbBlockBegin
  2
*MODEL_SPACE
 70
     0
 10
0.0
 20
0.0
 30
0.0
  3
*MODEL_SPACE
  1

  0
ENDBLK
  5
21
330
1F
100
AcDbEntity
  8
0
100
AcDbBlockEnd
  0
BLOCK
  5
1C
330
1B
100
AcDbEntity
 67
     1
  8
0
100
AcDbBlockBegin
  2
*PAPER_SPACE
 70
     0
 10
0.0
 20
0.0
 30
0.0
  3
*PAPER_SPACE
  1

  0
ENDBLK
  5
1D
330
1B
100
AcDbEntity
 67
     1
  8
0
100
AcDbBlockEnd
  0
BLOCK
  5
195
330
192
100
AcDbEntity
  8
0
100
AcDbBlockBegin
  2
_DOT
 70
     0
 10
0.0
 20
0.0
 30
0.0
  3
_DOT
  1

  0
POLYLINE
  5
193
330
192
100
AcDbEntity
  8
0
 62
     0
100
AcDb2dPolyline
 66
     1
 10
0.0
 20
0.0
 30
0.0
 70
     1
 40
0.5
 41
0.5
  0
VERTEX
  5
1F2B
330
193
100
AcDbEntity
  8
0
 62
     0
100
AcDbVertex
100
AcDb2dVertex
 10
-0.25
 20
0.0
 30
0.0
 42
1.0
  0
VERTEX
  5
1F2C
330
193
100
AcDbEntity
  8
0
 62
     0
100
AcDbVertex
100
AcDb2dVertex
 10
0.25
 20
0.0
 30
0.0
 42
1.0
  0
SEQEND
  5
1F2D
330
193
100
AcDbEntity
  8
0
 62
     0
  0
LINE
  5
194
330
192
100
AcDbEntity
  8
0
 62
     0
100
AcDbLine
 10
-0.5
 20
0.0
 30
0.0
 11
-1.0
 21
0.0
 31
0.0
  0
ENDBLK
  5
196
330
192
100
AcDbEntity
  8
0
100
AcDbBlockEnd
  0
BLOCK
  5
5D1
330
5CE
100
AcDbEntity
  8
0
100
AcDbBlockBegin
  2
A4
 70
     0
 10
0.0
 20
0.0
 30
0.0
  3
A4
  1

  0
POLYLINE
  5
5CF
330
5CE
100
AcDbEntity
  8
HOJO
100
AcDb2dPolyline
 66
     1
 10
0.0
 20
0.0
 30
0.0
 70
     1
  0
VERTEX
  5
1F2E
330
5CF
100
AcDbEntity
  8
HOJO
100
AcDbVertex
100
AcDb2dVertex
 10
0.0
 20
0.0
 30
0.0
  0
VERTEX
  5
1F2F
330
5CF
100
AcDbEntity
  8
HOJO
100
AcDbVertex
100
AcDb2dVertex
 10
297.0
 20
0.0
 30
0.0
  0
VERTEX
  5
1F30
330
5CF
100
AcDbEntity
  8
HOJO
100
AcDbVertex
100
AcDb2dVertex
 10
297.0
 20
210.0
 30
0.0
  0
VERTEX
  5
1F31
330
5CF
100
AcDbEntity
  8
HOJO
100
AcDbVertex
100
AcDb2dVertex
 10
0.0
 20
210.0
 30
0.0
  0
SEQEND
  5
1F32
330
5CF
100
AcDbEntity
  8
HOJO
  0
POLYLINE
  5
5D0
330
5CE
100
AcDbEntity
  8
HOJO
100
AcDb2dPolyline
 66
     1
 10
0.0
 20
0.0
 30
0.0
 70
     1
  0
VERTEX
  5
1F33
330
5D0
100
AcDbEntity
  8
HOJO
100
AcDbVertex
100
AcDb2dVertex
 10
18.0
 20
13.0
 30
0.0
  0
VERTEX
  5
1F34
330
5D0
100
AcDbEntity
  8
HOJO
100
AcDbVertex
100
AcDb2dVertex
 10
279.0
 20
13.0
 30
0.0
  0
VERTEX
  5
1F35
330
5D0
100
AcDbEntity
  8
HOJO
100
AcDbVertex
100
AcDb2dVertex
 10
279.0
 20
197.0
 30
0.0
  0
VERTEX
  5
1F36
330
5D0
100
AcDbEntity
  8
HOJO
100
AcDbVertex
100
AcDb2dVertex
 10
18.0
 20
197.0
 30
0.0
  0
SEQEND
  5
1F37
330
5D0
100
AcDbEntity
  8
HOJO
  0
ENDBLK
  5
5D2
330
5CE
100
AcDbEntity
  8
0
100
AcDbBlockEnd
  0
BLOCK
  5
63A
330
636
100
AcDbEntity
  8
0
100
AcDbBlockBegin
  2
_OPEN90
 70
     0
 10
0.0
 20
0.0
 30
0.0
  3
_OPEN90
  1

  0
LINE
  5
637
330
636
100
AcDbEntity
  8
SUNPO
 62
     0
100
AcDbLine
 10
-0.5
 20
0.5
 30
0.0
 11
0.0
 21
0.0
 31
0.0
  0
LINE
  5
638
330
636
100
AcDbEntity
  8
SUNPO
 62
     0
100
AcDbLine
 10
0.0
 20
0.0
 30
0.0
 11
-0.5
 21
-0.5
 31
0.0
  0
LINE
  5
639
330
636
100
AcDbEntity
  8
SUNPO
 62
     0
100
AcDbLine
 10
0.0
 20
0.0
 30
0.0
 11
-1.0
 21
0.0
 31
0.0
  0
ENDBLK
  5
63B
330
636
100
AcDbEntity
  8
0
100
AcDbBlockEnd
  0
BLOCK
  5
640
330
63C
100
AcDbEntity
  8
0
100
AcDbBlockBegin
  2
_OPEN30
 70
     0
 10
0.0
 20
0.0
 30
0.0
  3
_OPEN30
  1

  0
LINE
  5
63D
330
63C
100
AcDbEntity
  8
SUNPO
 62
     0
100
AcDbLine
 10
-1.0
 20
0.26794919
 30
0.0
 11
0.0
 21
0.0
 31
0.0
  0
LINE
  5
63E
330
63C
100
AcDbEntity
  8
SUNPO
 62
     0
100
AcDbLine
 10
0.0
 20
0.0
 30
0.0
 11
-1.0
 21
-0.26794919
 31
0.0
  0
LINE
  5
63F
330
63C
100
AcDbEntity
  8
SUNPO
 62
     0
100
AcDbLine
 10
0.0
 20
0.0
 30
0.0
 11
-1.0
 21
0.0
 31
0.0
  0
ENDBLK
  5
641
330
63C
100
AcDbEntity
  8
0
100
AcDbBlockEnd
  0
BLOCK
  5
FDE
330
FDC
100
AcDbEntity
  8
0
100
AcDbBlockBegin
  2
_DATUMFILLED
 70
     0
 10
0.0
 20
0.0
 30
0.0
  3
_DATUMFILLED
  1

  0
SOLID
  5
FDD
330
FDC
100
AcDbEntity
  8
MOJI
 62
     0
100
AcDbTrace
 10
0.0
 20
0.5773502700000001
 30
0.0
 11
-1.0
 21
0.0
 31
0.0
 12
0.0
 22
-0.5773502700000001
 32
0.0
 13
0.0
 23
-0.5773502700000001
 33
0.0
  0
ENDBLK
  5
FDF
330
FDC
100
AcDbEntity
  8
0
100
AcDbBlockEnd
  0
BLOCK
  5
1BC6
330
1BBC
100
AcDbEntity
  8
0
100
AcDbBlockBegin
  2
*D5
 70
     1
 10
0.0
 20
0.0
 30
0.0
  3
*D5
  1

  0
LINE
  5
1BBD
330
1BBC
100
AcDbEntity
  8
SUNPO
 62
   144
100
AcDbLine
 10
2470.0
 20
2400.0
 30
0.0
 11
2610.0
 21
2400.0
 31
0.0
  0
LINE
  5
1BBE
330
1BBC
100
AcDbEntity
  8
SUNPO
 62
   144
100
AcDbLine
 10
2469.999999999999
 20
2100.000000000002
 30
0.0
 11
2610.0
 21
2100.000000000002
 31
0.0
  0
LINE
  5
1BBF
330
1BBC
100
AcDbEntity
  8
SUNPO
 62
   144
100
AcDbLine
 10
2600.0
 20
2372.0
 30
0.0
 11
2600.0
 21
2128.000000000002
 31
0.0
  0
SOLID
  5
1BC0
330
1BBC
100
AcDbEntity
  8
SUNPO
 62
   144
100
AcDbTrace
 10
2595.333333333333
 20
2372.0
 30
0.0
 11
2604.666666666666
 21
2372.0
 31
0.0
 12
2600.0
 22
2400.0
 32
0.0
 13
2600.0
 23
2400.0
 33
0.0
  0
SOLID
  5
1BC1
330
1BBC
100
AcDbEntity
  8
SUNPO
 62
   144
100
AcDbTrace
 10
2595.333333333333
 20
2128.000000000002
 30
0.0
 11
2604.666666666666
 21
2128.000000000002
 31
0.0
 12
2600.0
 22
2100.000000000002
 32
0.0
 13
2600.0
 23
2100.000000000002
 33
0.0
  0
MTEXT
  5
1BC2
330
1BBC
100
AcDbEntity
  8
SUNPO
 62
     7
100
AcDbMText
 10
2569.499999999999
 20
2250.000000000001
 30
0.0
 40
36.0
 41
0.0
 71
     5
 72
     1
  1
\A2;300
  7
ADD
 11
0.0000000000000001
 21
1.0
 31
0.0
1001
ACAD
1000
MTEXTBEGIN
1070
    73
1070
     1
1070
    44
1040
1.0
1070
    74
1070
     0
1000
MTEXTEND
1000
MTEXTBEGIN
1070
    73
1070
     1
1070
    44
1040
1.0
1070
    74
1070
     0
1000
MTEXTEND
1000
MTEXTBEGIN
1070
    73
1070
     1
1070
    44
1040
1.0
1070
    74
1070
     0
1000
MTEXTEND
  0
POINT
  5
1BC3
330
1BBC
100
AcDbEntity
  8
DEFPOINTS
 62
     0
100
AcDbPoint
 10
2450.0
 20
2400.0
 30
0.0
  0
POINT
  5
1BC4
330
1BBC
100
AcDbEntity
  8
DEFPOINTS
 62
     0
100
AcDbPoint
 10
2449.999999999999
 20
2100.000000000002
 30
0.0
  0
POINT
  5
1BC5
330
1BBC
100
AcDbEntity
  8
DEFPOINTS
 62
     0
100
AcDbPoint
 10
2600.0
 20
2100.000000000002
 30
0.0
  0
ENDBLK
  5
1BC7
330
1BBC
100
AcDbEntity
  8
0
100
AcDbBlockEnd
  0
BLOCK
  5
1BD3
330
1BC9
100
AcDbEntity
  8
0
100
AcDbBlockBegin
  2
*D6
 70
     1
 10
0.0
 20
0.0
 30
0.0
  3
*D6
  1

  0
LINE
  5
1BCA
330
1BC9
100
AcDbEntity
  8
SUNPO
 62
   144
100
AcDbLine
 10
2239.999999999999
 20
2080.000000000002
 30
0.0
 11
2239.999999999999
 21
1940.0
 31
0.0
  0
LINE
  5
1BCB
330
1BC9
100
AcDbEntity
  8
SUNPO
 62
   144
100
AcDbLine
 10
2449.999999999999
 20
2080.000000000003
 30
0.0
 11
2449.999999999999
 21
1940.0
 31
0.0
  0
LINE
  5
1BCC
330
1BC9
100
AcDbEntity
  8
SUNPO
 62
   144
100
AcDbLine
 10
2267.999999999999
 20
1950.0
 30
0.0
 11
2421.999999999999
 21
1950.0
 31
0.0
  0
SOLID
  5
1BCD
330
1BC9
100
AcDbEntity
  8
SUNPO
 62
   144
100
AcDbTrace
 10
2267.999999999999
 20
1954.666666666666
 30
0.0
 11
2267.999999999999
 21
1945.333333333333
 31
0.0
 12
2239.999999999999
 22
1950.0
 32
0.0
 13
2239.999999999999
 23
1950.0
 33
0.0
  0
SOLID
  5
1BCE
330
1BC9
100
AcDbEntity
  8
SUNPO
 62
   144
100
AcDbTrace
 10
2421.999999999999
 20
1954.666666666666
 30
0.0
 11
2421.999999999999
 21
1945.333333333333
 31
0.0
 12
2449.999999999999
 22
1950.0
 32
0.0
 13
2449.999999999999
 23
1950.0
 33
0.0
  0
MTEXT
  5
1BCF
330
1BC9
100
AcDbEntity
  8
SUNPO
 62
     7
100
AcDbMText
 10
2344.999999999999
 20
1980.5
 30
0.0
 40
36.0
 41
0.0
 71
     5
 72
     1
  1
\A2;210
  7
ADD
1001
ACAD
1000
MTEXTBEGIN
1070
    73
1070
     1
1070
    44
1040
1.0
1070
    74
1070
     0
1000
MTEXTEND
1000
MTEXTBEGIN
1070
    73
1070
     1
1070
    44
1040
1.0
1070
    74
1070
     0
1000
MTEXTEND
1000
MTEXTBEGIN
1070
    73
1070
     1
1070
    44
1040
1.0
1070
    74
1070
     0
1000
MTEXTEND
  0
POINT
  5
1BD0
330
1BC9
100
AcDbEntity
  8
DEFPOINTS
 62
     0
100
AcDbPoint
 10
2239.999999999999
 20
2100.000000000002
 30
0.0
  0
POINT
  5
1BD1
330
1BC9
100
AcDbEntity
  8
DEFPOINTS
 62
     0
100
AcDbPoint
 10
2449.999999999999
 20
2100.000000000002
 30
0.0
  0
POINT
  5
1BD2
330
1BC9
100
AcDbEntity
  8
DEFPOINTS
 62
     0
100
AcDbPoint
 10
2449.999999999999
 20
1950.0
 30
0.0
  0
ENDBLK
  5
1BD4
330
1BC9
100
AcDbEntity
  8
0
100
AcDbBlockEnd
  0
BLOCK
  5
1BE0
330
1BD6
100
AcDbEntity
  8
0
100
AcDbBlockBegin
  2
*D7
 70
     1
 10
0.0
 20
0.0
 30
0.0
  3
*D7
  1

  0
LINE
  5
1BD7
330
1BD6
100
AcDbEntity
  8
SUNPO
 62
   144
100
AcDbLine
 10
2267.5
 20
2420.0
 30
0.0
 11
2267.5
 21
2560.0
 31
0.0
  0
LINE
  5
1BD8
330
1BD6
100
AcDbEntity
  8
SUNPO
 62
   144
100
AcDbLine
 10
2422.5
 20
2420.0
 30
0.0
 11
2422.5
 21
2560.0
 31
0.0
  0
LINE
  5
1BD9
330
1BD6
100
AcDbEntity
  8
SUNPO
 62
   144
100
AcDbLine
 10
2295.5
 20
2550.0
 30
0.0
 11
2394.5
 21
2550.0
 31
0.0
  0
SOLID
  5
1BDA
330
1BD6
100
AcDbEntity
  8
SUNPO
 62
   144
100
AcDbTrace
 10
2295.5
 20
2554.666666666666
 30
0.0
 11
2295.5
 21
2545.333333333333
 31
0.0
 12
2267.5
 22
2550.0
 32
0.0
 13
2267.5
 23
2550.0
 33
0.0
  0
SOLID
  5
1BDB
330
1BD6
100
AcDbEntity
  8
SUNPO
 62
   144
100
AcDbTrace
 10
2394.5
 20
2554.666666666666
 30
0.0
 11
2394.5
 21
2545.333333333333
 31
0.0
 12
2422.5
 22
2550.0
 32
0.0
 13
2422.5
 23
2550.0
 33
0.0
  0
MTEXT
  5
1BDC
330
1BD6
100
AcDbEntity
  8
SUNPO
 62
     7
100
AcDbMText
 10
2345.0
 20
2580.5
 30
0.0
 40
36.0
 41
0.0
 71
     5
 72
     1
  1
\A2;155
  7
ADD
1001
ACAD
1000
MTEXTBEGIN
1070
    73
1070
     1
1070
    44
1040
1.0
1070
    74
1070
     0
1000
MTEXTEND
1000
MTEXTBEGIN
1070
    73
1070
     1
1070
    44
1040
1.0
1070
    74
1070
     0
1000
MTEXTEND
1000
MTEXTBEGIN
1070
    73
1070
     1
1070
    44
1040
1.0
1070
    74
1070
     0
1000
MTEXTEND
  0
POINT
  5
1BDD
330
1BD6
100
AcDbEntity
  8
DEFPOINTS
 62
     0
100
AcDbPoint
 10
2267.5
 20
2400.0
 30
0.0
  0
POINT
  5
1BDE
330
1BD6
100
AcDbEntity
  8
DEFPOINTS
 62
     0
100
AcDbPoint
 10
2422.5
 20
2400.0
 30
0.0
  0
POINT
  5
1BDF
330
1BD6
100
AcDbEntity
  8
DEFPOINTS
 62
     0
100
AcDbPoint
 10
2422.5
 20
2550.0
 30
0.0
  0
ENDBLK
  5
1BE1
330
1BD6
100
AcDbEntity
  8
0
100
AcDbBlockEnd
  0
BLOCK
  5
1BF7
330
1BF0
100
AcDbEntity
  8
0
100
AcDbBlockBegin
  2
*D8
 70
     1
 10
0.0
 20
0.0
 30
0.0
  3
*D8
  1

  0
LINE
  5
1BF1
330
1BF0
100
AcDbEntity
  8
SUNPO
 62
   144
100
AcDbLine
 10
2158.15556320137
 20
2520.827415931277
 30
0.0
 11
2255.92250978244
 21
2412.972583065333
 31
0.0
  0
MTEXT
  5
1BF2
330
1BF0
100
AcDbEntity
  8
SUNPO
 62
     7
100
AcDbMText
 10
2220.234174913823
 20
2497.756738179287
 30
0.0
 40
36.0
 41
0.0
 71
     5
 72
     1
  1
\A2;R30
  7
ADD
 11
0.6716080726864461
 21
-0.7409066045746911
 31
0.0
1001
ACAD
1000
MTEXTBEGIN
1070
    73
1070
     1
1070
    44
1040
1.0
1070
    74
1070
     0
1000
MTEXTEND
1000
MTEXTBEGIN
1070
    73
1070
     1
1070
    44
1040
1.0
1070
    74
1070
     0
1000
MTEXTEND
1000
MTEXTBEGIN
1070
    73
1070
     1
1070
    44
1040
1.0
1070
    74
1070
     0
1000
MTEXTEND
  0
LINE
  5
1BF3
330
1BF0
100
AcDbEntity
  8
SUNPO
 62
   144
100
AcDbLine
 10
2294.875777998254
 20
2370.0
 30
0.0
 11
2274.72753581766
 21
2392.227198137241
 31
0.0
  0
SOLID
  5
1BF4
330
1BF0
100
AcDbEntity
  8
SUNPO
 62
   144
100
AcDbTrace
 10
2259.380073937121
 20
2416.106754071203
 30
0.0
 11
2252.464945627757
 21
2409.838412059463
 31
0.0
 12
2274.72753581766
 22
2392.227198137241
 32
0.0
 13
2274.72753581766
 23
2392.227198137241
 33
0.0
  0
POINT
  5
1BF5
330
1BF0
100
AcDbEntity
  8
DEFPOINTS
 62
     0
100
AcDbPoint
 10
2274.72753581766
 20
2392.227198137241
 30
0.0
  0
POINT
  5
1BF6
330
1BF0
100
AcDbEntity
  8
DEFPOINTS
 62
     0
100
AcDbPoint
 10
2294.875777998254
 20
2370.0
 30
0.0
  0
ENDBLK
  5
1BF8
330
1BF0
100
AcDbEntity
  8
0
100
AcDbBlockEnd
  0
BLOCK
  5
1C0B
330
1C04
100
AcDbEntity
  8
0
100
AcDbBlockBegin
  2
*D9
 70
     1
 10
0.0
 20
0.0
 30
0.0
  3
*D9
  1

  0
LINE
  5
1C05
330
1C04
100
AcDbEntity
  8
SUNPO
 62
   144
100
AcDbLine
 10
2532.627603240254
 20
2520.113779109681
 30
0.0
 11
2434.300623954613
 21
2412.769259170899
 31
0.0
  0
MTEXT
  5
1C06
330
1C04
100
AcDbEntity
  8
SUNPO
 62
     7
100
AcDbMText
 10
2470.429755366877
 20
2497.36651720848
 30
0.0
 40
36.0
 41
0.0
 71
     5
 72
     1
  1
\A2;R30
  7
ADD
 11
0.6754552060838913
 21
0.7374010201879084
 31
0.0
1001
ACAD
1000
MTEXTBEGIN
1070
    73
1070
     1
1070
    44
1040
1.0
1070
    74
1070
     0
1000
MTEXTEND
1000
MTEXTBEGIN
1070
    73
1070
     1
1070
    44
1040
1.0
1070
    74
1070
     0
1000
MTEXTEND
1000
MTEXTBEGIN
1070
    73
1070
     1
1070
    44
1040
1.0
1070
    74
1070
     0
1000
MTEXTEND
  0
LINE
  5
1C07
330
1C04
100
AcDbEntity
  8
SUNPO
 62
   144
100
AcDbLine
 10
2395.124222001748
 20
2370.0
 30
0.0
 11
2415.387878184264
 21
2392.122030605637
 31
0.0
  0
SOLID
  5
1C08
330
1C04
100
AcDbEntity
  8
SUNPO
 62
   144
100
AcDbTrace
 10
2430.859419193737
 20
2415.921383465957
 30
0.0
 11
2437.74182871549
 21
2409.617134875841
 31
0.0
 12
2415.387878184264
 22
2392.122030605637
 32
0.0
 13
2415.387878184264
 23
2392.122030605637
 33
0.0
  0
POINT
  5
1C09
330
1C04
100
AcDbEntity
  8
DEFPOINTS
 62
     0
100
AcDbPoint
 10
2415.387878184264
 20
2392.122030605637
 30
0.0
  0
POINT
  5
1C0A
330
1C04
100
AcDbEntity
  8
DEFPOINTS
 62
     0
100
AcDbPoint
 10
2395.124222001748
 20
2370.0
 30
0.0
  0
ENDBLK
  5
1C0C
330
1C04
100
AcDbEntity
  8
0
100
AcDbBlockEnd
  0
BLOCK
  5
1D15
330
1D0B
100
AcDbEntity
  8
0
100
AcDbBlockBegin
  2
*D10
 70
     1
 10
0.0
 20
0.0
 30
0.0
  3
*D10
  1

  0
LINE
  5
1D0C
330
1D0B
100
AcDbEntity
  8
SUNPO
 62
   144
100
AcDbLine
 10
3150.0
 20
2420.0
 30
0.0
 11
3150.0
 21
2610.0
 31
0.0
  0
LINE
  5
1D0D
330
1D0B
100
AcDbEntity
  8
SUNPO
 62
   144
100
AcDbLine
 10
3750.0
 20
2420.0
 30
0.0
 11
3750.0
 21
2610.0
 31
0.0
  0
LINE
  5
1D0E
330
1D0B
100
AcDbEntity
  8
SUNPO
 62
   144
100
AcDbLine
 10
3178.0
 20
2600.0
 30
0.0
 11
3722.0
 21
2600.0
 31
0.0
  0
SOLID
  5
1D0F
330
1D0B
100
AcDbEntity
  8
SUNPO
 62
   144
100
AcDbTrace
 10
3178.0
 20
2604.666666666666
 30
0.0
 11
3178.0
 21
2595.333333333333
 31
0.0
 12
3150.0
 22
2600.0
 32
0.0
 13
3150.0
 23
2600.0
 33
0.0
  0
SOLID
  5
1D10
330
1D0B
100
AcDbEntity
  8
SUNPO
 62
   144
100
AcDbTrace
 10
3722.0
 20
2604.666666666666
 30
0.0
 11
3722.0
 21
2595.333333333333
 31
0.0
 12
3750.0
 22
2600.0
 32
0.0
 13
3750.0
 23
2600.0
 33
0.0
  0
MTEXT
  5
1D11
330
1D0B
100
AcDbEntity
  8
SUNPO
 62
     7
100
AcDbMText
 10
3450.0
 20
2630.5
 30
0.0
 40
36.0
 41
0.0
 71
     5
 72
     1
  1
\A2;600
  7
ADD
1001
ACAD
1000
MTEXTBEGIN
1070
    73
1070
     1
1070
    44
1040
1.0
1070
    74
1070
     0
1000
MTEXTEND
1000
MTEXTBEGIN
1070
    73
1070
     1
1070
    44
1040
1.0
1070
    74
1070
     0
1000
MTEXTEND
1000
MTEXTBEGIN
1070
    73
1070
     1
1070
    44
1040
1.0
1070
    74
1070
     0
1000
MTEXTEND
  0
POINT
  5
1D12
330
1D0B
100
AcDbEntity
  8
DEFPOINTS
 62
     0
100
AcDbPoint
 10
3150.0
 20
2400.0
 30
0.0
  0
POINT
  5
1D13
330
1D0B
100
AcDbEntity
  8
DEFPOINTS
 62
     0
100
AcDbPoint
 10
3750.0
 20
2400.0
 30
0.0
  0
POINT
  5
1D14
330
1D0B
100
AcDbEntity
  8
DEFPOINTS
 62
     0
100
AcDbPoint
 10
3750.0
 20
2600.0
 30
0.0
  0
ENDBLK
  5
1D16
330
1D0B
100
AcDbEntity
  8
0
100
AcDbBlockEnd
  0
BLOCK
  5
1D22
330
1D18
100
AcDbEntity
  8
0
100
AcDbBlockBegin
  2
*D11
 70
     1
 10
0.0
 20
0.0
 30
0.0
  3
*D11
  1

  0
LINE
  5
1D19
330
1D18
100
AcDbEntity
  8
SUNPO
 62
   144
100
AcDbLine
 10
3325.0
 20
2420.0
 30
0.0
 11
3325.0
 21
2510.0
 31
0.0
  0
LINE
  5
1D1A
330
1D18
100
AcDbEntity
  8
SUNPO
 62
   144
100
AcDbLine
 10
3575.0
 20
2420.0
 30
0.0
 11
3575.0
 21
2510.0
 31
0.0
  0
LINE
  5
1D1B
330
1D18
100
AcDbEntity
  8
SUNPO
 62
   144
100
AcDbLine
 10
3353.0
 20
2500.0
 30
0.0
 11
3547.0
 21
2500.0
 31
0.0
  0
SOLID
  5
1D1C
330
1D18
100
AcDbEntity
  8
SUNPO
 62
   144
100
AcDbTrace
 10
3353.0
 20
2504.666666666667
 30
0.0
 11
3353.0
 21
2495.333333333333
 31
0.0
 12
3325.0
 22
2500.0
 32
0.0
 13
3325.0
 23
2500.0
 33
0.0
  0
SOLID
  5
1D1D
330
1D18
100
AcDbEntity
  8
SUNPO
 62
   144
100
AcDbTrace
 10
3547.0
 20
2504.666666666667
 30
0.0
 11
3547.0
 21
2495.333333333333
 31
0.0
 12
3575.0
 22
2500.0
 32
0.0
 13
3575.0
 23
2500.0
 33
0.0
  0
MTEXT
  5
1D1E
330
1D18
100
AcDbEntity
  8
SUNPO
 62
     7
100
AcDbMText
 10
3450.0
 20
2530.499999999999
 30
0.0
 40
36.0
 41
0.0
 71
     5
 72
     1
  1
\A2;250
  7
ADD
1001
ACAD
1000
MTEXTBEGIN
1070
    73
1070
     1
1070
    44
1040
1.0
1070
    74
1070
     0
1000
MTEXTEND
1000
MTEXTBEGIN
1070
    73
1070
     1
1070
    44
1040
1.0
1070
    74
1070
     0
1000
MTEXTEND
1000
MTEXTBEGIN
1070
    73
1070
     1
1070
    44
1040
1.0
1070
    74
1070
     0
1000
MTEXTEND
  0
POINT
  5
1D1F
330
1D18
100
AcDbEntity
  8
DEFPOINTS
 62
     0
100
AcDbPoint
 10
3325.0
 20
2400.0
 30
0.0
  0
POINT
  5
1D20
330
1D18
100
AcDbEntity
  8
DEFPOINTS
 62
     0
100
AcDbPoint
 10
3575.0
 20
2400.0
 30
0.0
  0
POINT
  5
1D21
330
1D18
100
AcDbEntity
  8
DEFPOINTS
 62
     0
100
AcDbPoint
 10
3575.0
 20
2500.0
 30
0.0
  0
ENDBLK
  5
1D23
330
1D18
100
AcDbEntity
  8
0
100
AcDbBlockEnd
  0
BLOCK
  5
1D2F
330
1D25
100
AcDbEntity
  8
0
100
AcDbBlockBegin
  2
*D12
 70
     1
 10
0.0
 20
0.0
 30
0.0
  3
*D12
  1

  0
LINE
  5
1D26
330
1D25
100
AcDbEntity
  8
SUNPO
 62
   144
100
AcDbLine
 10
3300.0
 20
2080.0
 30
0.0
 11
3300.0
 21
1940.0
 31
0.0
  0
LINE
  5
1D27
330
1D25
100
AcDbEntity
  8
SUNPO
 62
   144
100
AcDbLine
 10
3600.0
 20
2080.0
 30
0.0
 11
3600.0
 21
1940.0
 31
0.0
  0
LINE
  5
1D28
330
1D25
100
AcDbEntity
  8
SUNPO
 62
   144
100
AcDbLine
 10
3328.0
 20
1950.0
 30
0.0
 11
3572.0
 21
1950.0
 31
0.0
  0
SOLID
  5
1D29
330
1D25
100
AcDbEntity
  8
SUNPO
 62
   144
100
AcDbTrace
 10
3328.0
 20
1954.666666666666
 30
0.0
 11
3328.0
 21
1945.333333333333
 31
0.0
 12
3300.0
 22
1950.0
 32
0.0
 13
3300.0
 23
1950.0
 33
0.0
  0
SOLID
  5
1D2A
330
1D25
100
AcDbEntity
  8
SUNPO
 62
   144
100
AcDbTrace
 10
3572.0
 20
1954.666666666666
 30
0.0
 11
3572.0
 21
1945.333333333333
 31
0.0
 12
3600.0
 22
1950.0
 32
0.0
 13
3600.0
 23
1950.0
 33
0.0
  0
MTEXT
  5
1D2B
330
1D25
100
AcDbEntity
  8
SUNPO
 62
     7
100
AcDbMText
 10
3450.0
 20
1980.5
 30
0.0
 40
36.0
 41
0.0
 71
     5
 72
     1
  1
\A2;300
  7
ADD
1001
ACAD
1000
MTEXTBEGIN
1070
    73
1070
     1
1070
    44
1040
1.0
1070
    74
1070
     0
1000
MTEXTEND
1000
MTEXTBEGIN
1070
    73
1070
     1
1070
    44
1040
1.0
1070
    74
1070
     0
1000
MTEXTEND
1000
MTEXTBEGIN
1070
    73
1070
     1
1070
    44
1040
1.0
1070
    74
1070
     0
1000
MTEXTEND
  0
POINT
  5
1D2C
330
1D25
100
AcDbEntity
  8
DEFPOINTS
 62
     0
100
AcDbPoint
 10
3300.0
 20
2100.0
 30
0.0
  0
POINT
  5
1D2D
330
1D25
100
AcDbEntity
  8
DEFPOINTS
 62
     0
100
AcDbPoint
 10
3600.0
 20
2100.0
 30
0.0
  0
POINT
  5
1D2E
330
1D25
100
AcDbEntity
  8
DEFPOINTS
 62
     0
100
AcDbPoint
 10
3600.0
 20
1950.0
 30
0.0
  0
ENDBLK
  5
1D30
330
1D25
100
AcDbEntity
  8
0
100
AcDbBlockEnd
  0
BLOCK
  5
1D3C
330
1D32
100
AcDbEntity
  8
0
100
AcDbBlockBegin
  2
*D13
 70
     1
 10
0.0
 20
0.0
 30
0.0
  3
*D13
  1

  0
LINE
  5
1D33
330
1D32
100
AcDbEntity
  8
SUNPO
 62
   144
100
AcDbLine
 10
3770.0
 20
2300.0
 30
0.0
 11
3910.0
 21
2300.0
 31
0.0
  0
LINE
  5
1D34
330
1D32
100
AcDbEntity
  8
SUNPO
 62
   144
100
AcDbLine
 10
3770.0
 20
2100.0
 30
0.0
 11
3910.0
 21
2100.0
 31
0.0
  0
LINE
  5
1D35
330
1D32
100
AcDbEntity
  8
SUNPO
 62
   144
100
AcDbLine
 10
3900.0
 20
2272.0
 30
0.0
 11
3900.0
 21
2128.0
 31
0.0
  0
SOLID
  5
1D36
330
1D32
100
AcDbEntity
  8
SUNPO
 62
   144
100
AcDbTrace
 10
3895.333333333333
 20
2272.0
 30
0.0
 11
3904.666666666667
 21
2272.0
 31
0.0
 12
3900.0
 22
2300.0
 32
0.0
 13
3900.0
 23
2300.0
 33
0.0
  0
SOLID
  5
1D37
330
1D32
100
AcDbEntity
  8
SUNPO
 62
   144
100
AcDbTrace
 10
3895.333333333333
 20
2128.0
 30
0.0
 11
3904.666666666667
 21
2128.0
 31
0.0
 12
3900.0
 22
2100.0
 32
0.0
 13
3900.0
 23
2100.0
 33
0.0
  0
MTEXT
  5
1D38
330
1D32
100
AcDbEntity
  8
SUNPO
 62
     7
100
AcDbMText
 10
3869.499999999999
 20
2200.0
 30
0.0
 40
36.0
 41
0.0
 71
     5
 72
     1
  1
\A2;200
  7
ADD
 11
0.0000000000000001
 21
1.0
 31
0.0
1001
ACAD
1000
MTEXTBEGIN
1070
    73
1070
     1
1070
    44
1040
1.0
1070
    74
1070
     0
1000
MTEXTEND
1000
MTEXTBEGIN
1070
    73
1070
     1
1070
    44
1040
1.0
1070
    74
1070
     0
1000
MTEXTEND
1000
MTEXTBEGIN
1070
    73
1070
     1
1070
    44
1040
1.0
1070
    74
1070
     0
1000
MTEXTEND
  0
POINT
  5
1D39
330
1D32
100
AcDbEntity
  8
DEFPOINTS
 62
     0
100
AcDbPoint
 10
3750.0
 20
2300.0
 30
0.0
  0
POINT
  5
1D3A
330
1D32
100
AcDbEntity
  8
DEFPOINTS
 62
     0
100
AcDbPoint
 10
3750.0
 20
2100.0
 30
0.0
  0
POINT
  5
1D3B
330
1D32
100
AcDbEntity
  8
DEFPOINTS
 62
     0
100
AcDbPoint
 10
3900.0
 20
2100.0
 30
0.0
  0
ENDBLK
  5
1D3D
330
1D32
100
AcDbEntity
  8
0
100
AcDbBlockEnd
  0
BLOCK
  5
1D50
330
1D49
100
AcDbEntity
  8
0
100
AcDbBlockBegin
  2
*D14
 70
     1
 10
0.0
 20
0.0
 30
0.0
  3
*D14
  1

  0
LINE
  5
1D4A
330
1D49
100
AcDbEntity
  8
SUNPO
 62
   144
100
AcDbLine
 10
3215.01187279294
 20
2425.523075615438
 30
0.0
 11
3311.003757101269
 21
2316.085426868478
 31
0.0
  0
MTEXT
  5
1D4B
330
1D49
100
AcDbEntity
  8
SUNPO
 62
     7
100
AcDbMText
 10
3276.705296149518
 20
2401.441304114412
 30
0.0
 40
36.0
 41
0.0
 71
     5
 72
     1
  1
\A2;R20
  7
ADD
 11
0.6594143181141332
 21
-0.7517797264266129
 31
0.0
1001
ACAD
1000
MTEXTBEGIN
1070
    73
1070
     1
1070
    44
1040
1.0
1070
    74
1070
     0
1000
MTEXTEND
1000
MTEXTBEGIN
1070
    73
1070
     1
1070
    44
1040
1.0
1070
    74
1070
     0
1000
MTEXTEND
1000
MTEXTBEGIN
1070
    73
1070
     1
1070
    44
1040
1.0
1070
    74
1070
     0
1000
MTEXTEND
  0
LINE
  5
1D4C
330
1D49
100
AcDbEntity
  8
SUNPO
 62
   144
100
AcDbLine
 10
3342.655644370747
 20
2280.0
 30
0.0
 11
3329.467358008464
 21
2295.035594528533
 31
0.0
  0
SOLID
  5
1D4D
330
1D49
100
AcDbEntity
  8
SUNPO
 62
   144
100
AcDbTrace
 10
3314.51206249126
 20
2319.162693686343
 30
0.0
 11
3307.495451711278
 21
2313.008160050612
 31
0.0
 12
3329.467358008464
 22
2295.035594528533
 32
0.0
 13
3329.467358008464
 23
2295.035594528533
 33
0.0
  0
POINT
  5
1D4E
330
1D49
100
AcDbEntity
  8
DEFPOINTS
 62
     0
100
AcDbPoint
 10
3329.467358008464
 20
2295.035594528533
 30
0.0
  0
POINT
  5
1D4F
330
1D49
100
AcDbEntity
  8
DEFPOINTS
 62
     0
100
AcDbPoint
 10
3342.655644370747
 20
2280.0
 30
0.0
  0
ENDBLK
  5
1D51
330
1D49
100
AcDbEntity
  8
0
100
AcDbBlockEnd
  0
BLOCK
  5
1D5A
330
1D53
100
AcDbEntity
  8
0
100
AcDbBlockBegin
  2
*D15
 70
     1
 10
0.0
 20
0.0
 30
0.0
  3
*D15
  1

  0
LINE
  5
1D54
330
1D53
100
AcDbEntity
  8
SUNPO
 62
   144
100
AcDbLine
 10
3685.693845271338
 20
2424.901023004671
 30
0.0
 11
3589.171240145667
 21
2315.931176184184
 31
0.0
  0
MTEXT
  5
1D55
330
1D53
100
AcDbEntity
  8
SUNPO
 62
     7
100
AcDbMText
 10
3623.884115825422
 20
2401.119358851286
 30
0.0
 40
36.0
 41
0.0
 71
     5
 72
     1
  1
\A2;R20
  7
ADD
 11
0.6630600940919461
 21
0.7485661705038371
 31
0.0
1001
ACAD
1000
MTEXTBEGIN
1070
    73
1070
     1
1070
    44
1040
1.0
1070
    74
1070
     0
1000
MTEXTEND
1000
MTEXTBEGIN
1070
    73
1070
     1
1070
    44
1040
1.0
1070
    74
1070
     0
1000
MTEXTEND
1000
MTEXTBEGIN
1070
    73
1070
     1
1070
    44
1040
1.0
1070
    74
1070
     0
1000
MTEXTEND
  0
LINE
  5
1D56
330
1D53
100
AcDbEntity
  8
SUNPO
 62
   144
100
AcDbLine
 10
3557.344355629254
 20
2280.0
 30
0.0
 11
3570.605557511092
 21
2294.971323410076
 31
0.0
  0
SOLID
  5
1D57
330
1D53
100
AcDbEntity
  8
SUNPO
 62
   144
100
AcDbTrace
 10
3585.677931349982
 20
2319.025456623279
 30
0.0
 11
3592.664548941352
 21
2312.836895745088
 31
0.0
 12
3570.605557511092
 22
2294.971323410076
 32
0.0
 13
3570.605557511092
 23
2294.971323410076
 33
0.0
  0
POINT
  5
1D58
330
1D53
100
AcDbEntity
  8
DEFPOINTS
 62
     0
100
AcDbPoint
 10
3570.605557511092
 20
2294.971323410076
 30
0.0
  0
POINT
  5
1D59
330
1D53
100
AcDbEntity
  8
DEFPOINTS
 62
     0
100
AcDbPoint
 10
3557.344355629254
 20
2280.0
 30
0.0
  0
ENDBLK
  5
1D5B
330
1D53
100
AcDbEntity
  8
0
100
AcDbBlockEnd
  0
ENDSEC
  0
SECTION
  2
ENTITIES
  0
LINE
  5
60B
330
1F
100
AcDbEntity
  8
3C1
100
AcDbLine
 10
360.0
 20
560.0
 30
0.0
 11
5580.0
 21
560.0
 31
0.0
  0
LINE
  5
60D
330
1F
100
AcDbEntity
  8
3C1
100
AcDbLine
 10
2360.0
 20
260.0
 30
0.0
 11
2360.0
 21
560.0
 31
0.0
  0
LINE
  5
60F
330
1F
100
AcDbEntity
  8
3C1
100
AcDbLine
 10
3160.0
 20
260.0
 30
0.0
 11
3160.0
 21
560.0
 31
0.0
  0
LINE
  5
610
330
1F
100
AcDbEntity
  8
3C1
100
AcDbLine
 10
3660.0
 20
260.0
 30
0.0
 11
3660.0
 21
560.0
 31
0.0
  0
LINE
  5
1912
330
1F
100
AcDbEntity
  8
3C1
100
AcDbLine
 10
3150.0
 20
2400.0
 30
0.0
 11
3150.0
 21
2100.0
 31
0.0
  0
LINE
  5
1914
330
1F
100
AcDbEntity
  8
3C1
100
AcDbLine
 10
3749.999999999999
 20
2100.0
 30
0.0
 11
3750.0
 21
2400.0
 31
0.0
  0
LINE
  5
1915
330
1F
100
AcDbEntity
  8
3C1
100
AcDbLine
 10
3750.0
 20
2400.0
 30
0.0
 11
3150.0
 21
2400.0
 31
0.0
  0
LINE
  5
1BB7
330
1F
100
AcDbEntity
  8
3C1
100
AcDbLine
 10
2265.001030861359
 20
2372.738518487548
 30
0.0
 11
2239.999999999999
 21
2100.0
 31
0.0
  0
LINE
  5
1BB8
330
1F
100
AcDbEntity
  8
3C1
100
AcDbLine
 10
2239.999999999999
 20
2100.000000000002
 30
0.0
 11
2450.0
 21
2100.0
 31
0.0
  0
LINE
  5
1BB9
330
1F
100
AcDbEntity
  8
3C1
100
AcDbLine
 10
2450.0
 20
2100.0
 30
0.0
 11
2424.998969138641
 21
2372.738518487548
 31
0.0
  0
LINE
  5
1BBA
330
1F
100
AcDbEntity
  8
3C1
100
AcDbLine
 10
2395.124222001747
 20
2400.0
 30
0.0
 11
2294.875777998252
 21
2400.0
 31
0.0
  0
ARC
  5
1BE2
330
1F
100
AcDbEntity
  8
3C1
100
AcDbCircle
 10
2294.875777998252
 20
2370.0
 30
0.0
 40
30.0
100
AcDbArc
 50
90.0
 51
174.7625239331874
  0
ARC
  5
1BE3
330
1F
100
AcDbEntity
  8
3C1
100
AcDbCircle
 10
2395.124222001747
 20
2370.0
 30
0.0
 40
30.0
100
AcDbArc
 50
5.237476066812486
 51
90.0
  0
LINE
  5
1C0D
330
1F
100
AcDbEntity
  8
3C1
100
AcDbLine
 10
3150.0
 20
2100.0
 30
0.0
 11
3299.999999999999
 21
2100.0
 31
0.0
  0
LINE
  5
1D03
330
1F
100
AcDbEntity
  8
3C1
  6
HIDDEN2
100
AcDbLine
 10
2258.333333333333
 20
2300.0
 30
0.0
 11
2431.666666666666
 21
2300.0
 31
0.0
  0
LINE
  5
1D04
330
1F
100
AcDbEntity
  8
3C1
100
AcDbLine
 10
3299.999999999999
 20
2100.0
 30
0.0
 11
3322.810086836473
 21
2282.480694691784
 31
0.0
  0
LINE
  5
1D05
330
1F
100
AcDbEntity
  8
3C1
100
AcDbLine
 10
3342.655644370746
 20
2300.0
 30
0.0
 11
3557.344355629254
 21
2300.0
 31
0.0
  0
LINE
  5
1D06
330
1F
100
AcDbEntity
  8
3C1
100
AcDbLine
 10
3577.189913163527
 20
2282.480694691784
 30
0.0
 11
3599.999999999999
 21
2100.0
 31
0.0
  0
LINE
  5
1D07
330
1F
100
AcDbEntity
  8
3C1
100
AcDbLine
 10
3599.999999999999
 20
2100.0
 30
0.0
 11
3750.0
 21
2100.0
 31
0.0
  0
ARC
  5
1D08
330
1F
100
AcDbEntity
  8
3C1
100
AcDbCircle
 10
3342.655644370746
 20
2280.0
 30
0.0
 40
20.0
100
AcDbArc
 50
90.0
 51
172.8749836510981
  0
ARC
  5
1D09
330
1F
100
AcDbEntity
  8
3C1
100
AcDbCircle
 10
3557.344355629254
 20
2280.0
 30
0.0
 40
20.0
100
AcDbArc
 50
7.12501634890166
 51
90.0
  0
LINE
  5
1ED3
330
1F
100
AcDbEntity
  8
SUNPO
 62
   144
100
AcDbLine
 10
3685.693845271338
 20
2424.901023004671
 30
0.0
 11
3589.171240145667
 21
2315.931176184184
 31
0.0
  0
LINE
  5
1ED5
330
1F
100
AcDbEntity
  8
SUNPO
 62
   144
100
AcDbLine
 10
3557.344355629254
 20
2280.0
 30
0.0
 11
3570.605557511092
 21
2294.971323410076
 31
0.0
  0
SOLID
  5
1ED6
330
1F
100
AcDbEntity
  8
SUNPO
 62
   144
100
AcDbTrace
 10
3585.677931349982
 20
2319.025456623279
 30
0.0
 11
3592.664548941352
 21
2312.836895745088
 31
0.0
 12
3570.605557511092
 22
2294.971323410076
 32
0.0
 13
3570.605557511092
 23
2294.971323410076
 33
0.0
  0
LINE
  5
1ED7
330
1F
100
AcDbEntity
  8
SUNPO
 62
   144
100
AcDbLine
 10
3215.01187279294
 20
2425.523075615438
 30
0.0
 11
3311.003757101269
 21
2316.085426868478
 31
0.0
  0
LINE
  5
1ED9
330
1F
100
AcDbEntity
  8
SUNPO
 62
   144
100
AcDbLine
 10
3342.655644370747
 20
2280.0
 30
0.0
 11
3329.467358008464
 21
2295.035594528533
 31
0.0
  0
SOLID
  5
1EDA
330
1F
100
AcDbEntity
  8
SUNPO
 62
   144
100
AcDbTrace
 10
3314.51206249126
 20
2319.162693686343
 30
0.0
 11
3307.495451711278
 21
2313.008160050612
 31
0.0
 12
3329.467358008464
 22
2295.035594528533
 32
0.0
 13
3329.467358008464
 23
2295.035594528533
 33
0.0
  0
LINE
  5
1EDB
330
1F
100
AcDbEntity
  8
SUNPO
 62
   144
100
AcDbLine
 10
3770.0
 20
2300.0
 30
0.0
 11
3910.0
 21
2300.0
 31
0.0
  0
LINE
  5
1EDC
330
1F
100
AcDbEntity
  8
SUNPO
 62
   144
100
AcDbLine
 10
3770.0
 20
2100.0
 30
0.0
 11
3910.0
 21
2100.0
 31
0.0
  0
LINE
  5
1EDD
330
1F
100
AcDbEntity
  8
SUNPO
 62
   144
100
AcDbLine
 10
3900.0
 20
2272.0
 30
0.0
 11
3900.0
 21
2128.0
 31
0.0
  0
SOLID
  5
1EDE
330
1F
100
AcDbEntity
  8
SUNPO
 62
   144
100
AcDbTrace
 10
3895.333333333333
 20
2272.0
 30
0.0
 11
3904.666666666667
 21
2272.0
 31
0.0
 12
3900.0
 22
2300.0
 32
0.0
 13
3900.0
 23
2300.0
 33
0.0
  0
SOLID
  5
1EDF
330
1F
100
AcDbEntity
  8
SUNPO
 62
   144
100
AcDbTrace
 10
3895.333333333333
 20
2128.0
 30
0.0
 11
3904.666666666667
 21
2128.0
 31
0.0
 12
3900.0
 22
2100.0
 32
0.0
 13
3900.0
 23
2100.0
 33
0.0
  0
LINE
  5
1EE1
330
1F
100
AcDbEntity
  8
SUNPO
 62
   144
100
AcDbLine
 10
3300.0
 20
2080.0
 30
0.0
 11
3300.0
 21
1940.0
 31
0.0
  0
LINE
  5
1EE2
330
1F
100
AcDbEntity
  8
SUNPO
 62
   144
100
AcDbLine
 10
3600.0
 20
2080.0
 30
0.0
 11
3600.0
 21
1940.0
 31
0.0
  0
LINE
  5
1EE3
330
1F
100
AcDbEntity
  8
SUNPO
 62
   144
100
AcDbLine
 10
3328.0
 20
1950.0
 30
0.0
 11
3572.0
 21
1950.0
 31
0.0
  0
SOLID
  5
1EE4
330
1F
100
AcDbEntity
  8
SUNPO
 62
   144
100
AcDbTrace
 10
3328.0
 20
1954.666666666666
 30
0.0
 11
3328.0
 21
1945.333333333333
 31
0.0
 12
3300.0
 22
1950.0
 32
0.0
 13
3300.0
 23
1950.0
 33
0.0
  0
SOLID
  5
1EE5
330
1F
100
AcDbEntity
  8
SUNPO
 62
   144
100
AcDbTrace
 10
3572.0
 20
1954.666666666666
 30
0.0
 11
3572.0
 21
1945.333333333333
 31
0.0
 12
3600.0
 22
1950.0
 32
0.0
 13
3600.0
 23
1950.0
 33
0.0
  0
LINE
  5
1EE7
330
1F
100
AcDbEntity
  8
SUNPO
 62
   144
100
AcDbLine
 10
3325.0
 20
2420.0
 30
0.0
 11
3325.0
 21
2510.0
 31
0.0
  0
LINE
  5
1EE8
330
1F
100
AcDbEntity
  8
SUNPO
 62
   144
100
AcDbLine
 10
3575.0
 20
2420.0
 30
0.0
 11
3575.0
 21
2510.0
 31
0.0
  0
LINE
  5
1EE9
330
1F
100
AcDbEntity
  8
SUNPO
 62
   144
100
AcDbLine
 10
3353.0
 20
2500.0
 30
0.0
 11
3547.0
 21
2500.0
 31
0.0
  0
SOLID
  5
1EEA
330
1F
100
AcDbEntity
  8
SUNPO
 62
   144
100
AcDbTrace
 10
3353.0
 20
2504.666666666667
 30
0.0
 11
3353.0
 21
2495.333333333333
 31
0.0
 12
3325.0
 22
2500.0
 32
0.0
 13
3325.0
 23
2500.0
 33
0.0
  0
SOLID
  5
1EEB
330
1F
100
AcDbEntity
  8
SUNPO
 62
   144
100
AcDbTrace
 10
3547.0
 20
2504.666666666667
 30
0.0
 11
3547.0
 21
2495.333333333333
 31
0.0
 12
3575.0
 22
2500.0
 32
0.0
 13
3575.0
 23
2500.0
 33
0.0
  0
LINE
  5
1EED
330
1F
100
AcDbEntity
  8
SUNPO
 62
   144
100
AcDbLine
 10
3150.0
 20
2420.0
 30
0.0
 11
3150.0
 21
2610.0
 31
0.0
  0
LINE
  5
1EEE
330
1F
100
AcDbEntity
  8
SUNPO
 62
   144
100
AcDbLine
 10
3750.0
 20
2420.0
 30
0.0
 11
3750.0
 21
2610.0
 31
0.0
  0
LINE
  5
1EEF
330
1F
100
AcDbEntity
  8
SUNPO
 62
   144
100
AcDbLine
 10
3178.0
 20
2600.0
 30
0.0
 11
3722.0
 21
2600.0
 31
0.0
  0
SOLID
  5
1EF0
330
1F
100
AcDbEntity
  8
SUNPO
 62
   144
100
AcDbTrace
 10
3178.0
 20
2604.666666666666
 30
0.0
 11
3178.0
 21
2595.333333333333
 31
0.0
 12
3150.0
 22
2600.0
 32
0.0
 13
3150.0
 23
2600.0
 33
0.0
  0
SOLID
  5
1EF1
330
1F
100
AcDbEntity
  8
SUNPO
 62
   144
100
AcDbTrace
 10
3722.0
 20
2604.666666666666
 30
0.0
 11
3722.0
 21
2595.333333333333
 31
0.0
 12
3750.0
 22
2600.0
 32
0.0
 13
3750.0
 23
2600.0
 33
0.0
  0
LINE
  5
1EF3
330
1F
100
AcDbEntity
  8
SUNPO
 62
   144
100
AcDbLine
 10
2532.627603240254
 20
2520.113779109681
 30
0.0
 11
2434.300623954613
 21
2412.769259170899
 31
0.0
  0
LINE
  5
1EF5
330
1F
100
AcDbEntity
  8
SUNPO
 62
   144
100
AcDbLine
 10
2395.124222001748
 20
2370.0
 30
0.0
 11
2415.387878184264
 21
2392.122030605637
 31
0.0
  0
SOLID
  5
1EF6
330
1F
100
AcDbEntity
  8
SUNPO
 62
   144
100
AcDbTrace
 10
2430.859419193737
 20
2415.921383465957
 30
0.0
 11
2437.74182871549
 21
2409.617134875841
 31
0.0
 12
2415.387878184264
 22
2392.122030605637
 32
0.0
 13
2415.387878184264
 23
2392.122030605637
 33
0.0
  0
LINE
  5
1EF7
330
1F
100
AcDbEntity
  8
SUNPO
 62
   144
100
AcDbLine
 10
2158.15556320137
 20
2520.827415931277
 30
0.0
 11
2255.92250978244
 21
2412.972583065333
 31
0.0
  0
LINE
  5
1EF9
330
1F
100
AcDbEntity
  8
SUNPO
 62
   144
100
AcDbLine
 10
2294.875777998254
 20
2370.0
 30
0.0
 11
2274.72753581766
 21
2392.227198137241
 31
0.0
  0
SOLID
  5
1EFA
330
1F
100
AcDbEntity
  8
SUNPO
 62
   144
100
AcDbTrace
 10
2259.380073937121
 20
2416.106754071203
 30
0.0
 11
2252.464945627757
 21
2409.838412059463
 31
0.0
 12
2274.72753581766
 22
2392.227198137241
 32
0.0
 13
2274.72753581766
 23
2392.227198137241
 33
0.0
  0
LINE
  5
1EFB
330
1F
100
AcDbEntity
  8
SUNPO
 62
   144
100
AcDbLine
 10
2267.5
 20
2420.0
 30
0.0
 11
2267.5
 21
2560.0
 31
0.0
  0
LINE
  5
1EFC
330
1F
100
AcDbEntity
  8
SUNPO
 62
   144
100
AcDbLine
 10
2422.5
 20
2420.0
 30
0.0
 11
2422.5
 21
2560.0
 31
0.0
  0
LINE
  5
1EFD
330
1F
100
AcDbEntity
  8
SUNPO
 62
   144
100
AcDbLine
 10
2295.5
 20
2550.0
 30
0.0
 11
2394.5
 21
2550.0
 31
0.0
  0
SOLID
  5
1EFE
330
1F
100
AcDbEntity
  8
SUNPO
 62
   144
100
AcDbTrace
 10
2295.5
 20
2554.666666666666
 30
0.0
 11
2295.5
 21
2545.333333333333
 31
0.0
 12
2267.5
 22
2550.0
 32
0.0
 13
2267.5
 23
2550.0
 33
0.0
  0
SOLID
  5
1EFF
330
1F
100
AcDbEntity
  8
SUNPO
 62
   144
100
AcDbTrace
 10
2394.5
 20
2554.666666666666
 30
0.0
 11
2394.5
 21
2545.333333333333
 31
0.0
 12
2422.5
 22
2550.0
 32
0.0
 13
2422.5
 23
2550.0
 33
0.0
  0
LINE
  5
1F01
330
1F
100
AcDbEntity
  8
SUNPO
 62
   144
100
AcDbLine
 10
2239.999999999999
 20
2080.000000000002
 30
0.0
 11
2239.999999999999
 21
1940.0
 31
0.0
  0
LINE
  5
1F02
330
1F
100
AcDbEntity
  8
SUNPO
 62
   144
100
AcDbLine
 10
2449.999999999999
 20
2080.000000000003
 30
0.0
 11
2449.999999999999
 21
1940.0
 31
0.0
  0
LINE
  5
1F03
330
1F
100
AcDbEntity
  8
SUNPO
 62
   144
100
AcDbLine
 10
2267.999999999999
 20
1950.0
 30
0.0
 11
2421.999999999999
 21
1950.0
 31
0.0
  0
SOLID
  5
1F04
330
1F
100
AcDbEntity
  8
SUNPO
 62
   144
100
AcDbTrace
 10
2267.999999999999
 20
1954.666666666666
 30
0.0
 11
2267.999999999999
 21
1945.333333333333
 31
0.0
 12
2239.999999999999
 22
1950.0
 32
0.0
 13
2239.999999999999
 23
1950.0
 33
0.0
  0
SOLID
  5
1F05
330
1F
100
AcDbEntity
  8
SUNPO
 62
   144
100
AcDbTrace
 10
2421.999999999999
 20
1954.666666666666
 30
0.0
 11
2421.999999999999
 21
1945.333333333333
 31
0.0
 12
2449.999999999999
 22
1950.0
 32
0.0
 13
2449.999999999999
 23
1950.0
 33
0.0
  0
LINE
  5
1F07
330
1F
100
AcDbEntity
  8
SUNPO
 62
   144
100
AcDbLine
 10
2470.0
 20
2400.0
 30
0.0
 11
2610.0
 21
2400.0
 31
0.0
  0
LINE
  5
1F08
330
1F
100
AcDbEntity
  8
SUNPO
 62
   144
100
AcDbLine
 10
2469.999999999999
 20
2100.000000000002
 30
0.0
 11
2610.0
 21
2100.000000000002
 31
0.0
  0
LINE
  5
1F09
330
1F
100
AcDbEntity
  8
SUNPO
 62
   144
100
AcDbLine
 10
2600.0
 20
2372.0
 30
0.0
 11
2600.0
 21
2128.000000000002
 31
0.0
  0
SOLID
  5
1F0A
330
1F
100
AcDbEntity
  8
SUNPO
 62
   144
100
AcDbTrace
 10
2595.333333333333
 20
2372.0
 30
0.0
 11
2604.666666666666
 21
2372.0
 31
0.0
 12
2600.0
 22
2400.0
 32
0.0
 13
2600.0
 23
2400.0
 33
0.0
  0
SOLID
  5
1F0B
330
1F
100
AcDbEntity
  8
SUNPO
 62
   144
100
AcDbTrace
 10
2595.333333333333
 20
2128.000000000002
 30
0.0
 11
2604.666666666666
 21
2128.000000000002
 31
0.0
 12
2600.0
 22
2100.000000000002
 32
0.0
 13
2600.0
 23
2100.000000000002
 33
0.0
  0
TEXT
  5
1F0D
330
1F
100
AcDbEntity
  8
SUNPO
100
AcDbText
 10
750.0
 20
310.0
 30
0.0
 40
80.0
  1
　　　（フラット用）
  7
ADD
100
AcDbText
1001
ACAD
1000
MTEXTBEGIN
1070
    73
1070
     1
1070
    44
1040
1.0
1070
    74
1070
     0
1000
MTEXTEND
1000
MTEXTBEGIN
1070
    73
1070
     1
1070
    44
1040
1.0
1070
    74
1070
     0
1000
MTEXTEND
1000
MTEXTBEGIN
1070
    73
1070
     1
1070
    44
1040
1.0
1070
    74
1070
     0
1000
MTEXTEND
1000
MTEXTBEGIN
1070
    73
1070
     1
1070
    44
1040
1.0
1070
    74
1070
     0
1000
MTEXTEND
1000
MTEXTBEGIN
1070
    73
1070
     1
1070
    44
1040
1.0
1070
    74
1070
     0
1000
MTEXTEND
  0
TEXT
  5
1F0E
330
1F
100
AcDbEntity
  8
SUNPO
100
AcDbText
 10
2384.761904761904
 20
370.0
 30
0.0
 40
80.0
  1
FS-C（水抜き）
  7
ADD
100
AcDbText
1001
ACAD
1000
MTEXTBEGIN
1070
    73
1070
     1
1070
    44
1040
1.0
1070
    74
1070
     0
1000
MTEXTEND
1000
MTEXTBEGIN
1070
    73
1070
     1
1070
    44
1040
1.0
1070
    74
1070
     0
1000
MTEXTEND
1000
MTEXTBEGIN
1070
    73
1070
     1
1070
    44
1040
1.0
1070
    74
1070
     0
1000
MTEXTEND
1000
MTEXTBEGIN
1070
    73
1070
     1
1070
    44
1040
1.0
1070
    74
1070
     0
1000
MTEXTEND
1000
MTEXTBEGIN
1070
    73
1070
     1
1070
    44
1040
1.0
1070
    74
1070
     0
1000
MTEXTEND
  0
TEXT
  5
1F0F
330
1F
100
AcDbEntity
  8
SUNPO
100
AcDbText
 10
750.0
 20
430.0
 30
0.0
 40
80.0
  1
千葉県型歩車道境界ブロック
  7
ADD
100
AcDbText
1001
ACAD
1000
MTEXTBEGIN
1070
    73
1070
     1
1070
    44
1040
1.0
1070
    74
1070
     0
1000
MTEXTEND
1000
MTEXTBEGIN
1070
    73
1070
     1
1070
    44
1040
1.0
1070
    74
1070
     0
1000
MTEXTEND
1000
MTEXTBEGIN
1070
    73
1070
     1
1070
    44
1040
1.0
1070
    74
1070
     0
1000
MTEXTEND
1000
MTEXTBEGIN
1070
    73
1070
     1
1070
    44
1040
1.0
1070
    74
1070
     0
1000
MTEXTEND
1000
MTEXTBEGIN
1070
    73
1070
     1
1070
    44
1040
1.0
1070
    74
1070
     0
1000
MTEXTEND
  0
TEXT
  5
1F10
330
1F
100
AcDbEntity
  8
SUNPO
100
AcDbText
 10
3246.680311730542
 20
359.2274732162223
 30
0.0
 40
70.0
  1
１／２０
  7
ADD
100
AcDbText
1001
ACAD
1000
MTEXTBEGIN
1070
    73
1070
     1
1070
    44
1040
1.0
1070
    74
1070
     0
1000
MTEXTEND
1000
MTEXTBEGIN
1070
    73
1070
     1
1070
    44
1040
1.0
1070
    74
1070
     0
1000
MTEXTEND
1000
MTEXTBEGIN
1070
    73
1070
     1
1070
    44
1040
1.0
1070
    74
1070
     0
1000
MTEXTEND
1000
MTEXTBEGIN
1070
    73
1070
     1
1070
    44
1040
1.0
1070
    74
1070
     0
1000
MTEXTEND
1000
MTEXTBEGIN
1070
    73
1070
     1
1070
    44
1040
1.0
1070
    74
1070
     0
1000
MTEXTEND
  0
TEXT
  5
1F11
330
1F
100
AcDbEntity
  8
SUNPO
100
AcDbText
 10
381.8862574011546
 20
488.6918916770627
 30
0.0
 40
50.0
  1
製品名
  7
ADD
100
AcDbText
1001
ACAD
1000
MTEXTBEGIN
1070
    73
1070
     1
1070
    44
1040
1.0
1070
    74
1070
     0
1000
MTEXTEND
1000
MTEXTBEGIN
1070
    73
1070
     1
1070
    44
1040
1.0
1070
    74
1070
     0
1000
MTEXTEND
1000
MTEXTBEGIN
1070
    73
1070
     1
1070
    44
1040
1.0
1070
    74
1070
     0
1000
MTEXTEND
1000
MTEXTBEGIN
1070
    73
1070
     1
1070
    44
1040
1.0
1070
    74
1070
     0
1000
MTEXTEND
1000
MTEXTBEGIN
1070
    73
1070
     1
1070
    44
1040
1.0
1070
    74
1070
     0
1000
MTEXTEND
  0
TEXT
  5
1F12
330
1F
100
AcDbEntity
  8
SUNPO
100
AcDbText
 10
2376.290169028722
 20
494.4531736811823
 30
0.0
 40
50.0
  1
型式
  7
ADD
100
AcDbText
1001
ACAD
1000
MTEXTBEGIN
1070
    73
1070
     1
1070
    44
1040
1.0
1070
    74
1070
     0
1000
MTEXTEND
1000
MTEXTBEGIN
1070
    73
1070
     1
1070
    44
1040
1.0
1070
    74
1070
     0
1000
MTEXTEND
1000
MTEXTBEGIN
1070
    73
1070
     1
1070
    44
1040
1.0
1070
    74
1070
     0
1000
MTEXTEND
1000
MTEXTBEGIN
1070
    73
1070
     1
1070
    44
1040
1.0
1070
    74
1070
     0
1000
MTEXTEND
1000
MTEXTBEGIN
1070
    73
1070
     1
1070
    44
1040
1.0
1070
    74
1070
     0
1000
MTEXTEND
  0
TEXT
  5
1F13
330
1F
100
AcDbEntity
  8
SUNPO
100
AcDbText
 10
3177.510249231658
 20
488.6918916770627
 30
0.0
 40
50.0
  1
縮尺
  7
ADD
100
AcDbText
1001
ACAD
1000
MTEXTBEGIN
1070
    73
1070
     1
1070
    44
1040
1.0
1070
    74
1070
     0
1000
MTEXTEND
1000
MTEXTBEGIN
1070
    73
1070
     1
1070
    44
1040
1.0
1070
    74
1070
     0
1000
MTEXTEND
1000
MTEXTBEGIN
1070
    73
1070
     1
1070
    44
1040
1.0
1070
    74
1070
     0
1000
MTEXTEND
1000
MTEXTBEGIN
1070
    73
1070
     1
1070
    44
1040
1.0
1070
    74
1070
     0
1000
MTEXTEND
1000
MTEXTBEGIN
1070
    73
1070
     1
1070
    44
1040
1.0
1070
    74
1070
     0
1000
MTEXTEND
  0
TEXT
  5
1F14
330
1F
100
AcDbEntity
  8
SUNPO
100
AcDbText
 10
3730.870883051572
 20
352.2726133092145
 30
0.0
 40
100.0
  1
千葉県コンクリート製品協同組合
  7
ADD
100
AcDbText
1001
ACAD
1000
MTEXTBEGIN
1070
    73
1070
     1
1070
    44
1040
1.0
1070
    74
1070
     0
1000
MTEXTEND
1000
MTEXTBEGIN
1070
    73
1070
     1
1070
    44
1040
1.0
1070
    74
1070
     0
1000
MTEXTEND
1000
MTEXTBEGIN
1070
    73
1070
     1
1070
    44
1040
1.0
1070
    74
1070
     0
1000
MTEXTEND
1000
MTEXTBEGIN
1070
    73
1070
     1
1070
    44
1040
1.0
1070
    74
1070
     0
1000
MTEXTEND
1000
MTEXTBEGIN
1070
    73
1070
     1
1070
    44
1040
1.0
1070
    74
1070
     0
1000
MTEXTEND
  0
LINE
  5
1F15
330
1F
100
AcDbEntity
  8
3C1
100
AcDbLine
 10
360.0
 20
260.0
 30
0.0
 11
5580.0
 21
260.0
 31
0.0
  0
LINE
  5
1F16
330
1F
100
AcDbEntity
  8
3C1
100
AcDbLine
 10
5580.0
 20
260.0
 30
0.0
 11
5580.0
 21
3940.0
 31
0.0
  0
LINE
  5
1F17
330
1F
100
AcDbEntity
  8
3C1
100
AcDbLine
 10
5580.0
 20
3940.0
 30
0.0
 11
360.0
 21
3940.0
 31
0.0
  0
LINE
  5
1F18
330
1F
100
AcDbEntity
  8
3C1
100
AcDbLine
 10
360.0
 20
3940.0
 30
0.0
 11
360.0
 21
260.0
 31
0.0
  0
LINE
  5
1F19
330
1F
100
AcDbEntity
  8
HOJO
100
AcDbLine
 10
0.0
 20
0.0
 30
0.0
 11
5940.0
 21
0.0
 31
0.0
  0
LINE
  5
1F1A
330
1F
100
AcDbEntity
  8
HOJO
100
AcDbLine
 10
5940.0
 20
0.0
 30
0.0
 11
5940.0
 21
4200.0
 31
0.0
  0
LINE
  5
1F1B
330
1F
100
AcDbEntity
  8
HOJO
100
AcDbLine
 10
5940.0
 20
4200.0
 30
0.0
 11
0.0
 21
4200.0
 31
0.0
  0
LINE
  5
1F1C
330
1F
100
AcDbEntity
  8
HOJO
100
AcDbLine
 10
0.0
 20
4200.0
 30
0.0
 11
0.0
 21
0.0
 31
0.0
  0
TEXT
  5
1F1D
330
1F
100
AcDbEntity
  8
SUNPO
 62
     7
100
AcDbText
 10
2587.499999999999
 20
2198.57142857143
 30
0.0
 40
36.0
  1
300
 50
90.0
  7
ADD
100
AcDbText
1001
ACAD
1000
MTEXTBEGIN
1070
    73
1070
     1
1070
    44
1040
1.0
1070
    74
1070
     0
1000
MTEXTEND
1000
MTEXTBEGIN
1070
    73
1070
     1
1070
    44
1040
1.0
1070
    74
1070
     0
1000
MTEXTEND
  0
TEXT
  5
1F1E
330
1F
100
AcDbEntity
  8
SUNPO
 62
     7
100
AcDbText
 10
2293.571428571428
 20
1962.5
 30
0.0
 40
36.0
  1
210
  7
ADD
100
AcDbText
1001
ACAD
1000
MTEXTBEGIN
1070
    73
1070
     1
1070
    44
1040
1.0
1070
    74
1070
     0
1000
MTEXTEND
1000
MTEXTBEGIN
1070
    73
1070
     1
1070
    44
1040
1.0
1070
    74
1070
     0
1000
MTEXTEND
  0
TEXT
  5
1F1F
330
1F
100
AcDbEntity
  8
SUNPO
 62
     7
100
AcDbText
 10
2291.0
 20
2562.5
 30
0.0
 40
36.0
  1
155
  7
ADD
100
AcDbText
1001
ACAD
1000
MTEXTBEGIN
1070
    73
1070
     1
1070
    44
1040
1.0
1070
    74
1070
     0
1000
MTEXTEND
1000
MTEXTBEGIN
1070
    73
1070
     1
1070
    44
1040
1.0
1070
    74
1070
     0
1000
MTEXTEND
  0
TEXT
  5
1F20
330
1F
100
AcDbEntity
  8
SUNPO
 62
     7
100
AcDbText
 10
2171.206684168712
 20
2525.041686714044
 30
0.0
 40
36.0
  1
R30
 50
312.191298265974
  7
ADD
100
AcDbText
1001
ACAD
1000
MTEXTBEGIN
1070
    73
1070
     1
1070
    44
1040
1.0
1070
    74
1070
     0
1000
MTEXTEND
1000
MTEXTBEGIN
1070
    73
1070
     1
1070
    44
1040
1.0
1070
    74
1070
     0
1000
MTEXTEND
  0
TEXT
  5
1F21
330
1F
100
AcDbEntity
  8
SUNPO
 62
     7
100
AcDbText
 10
2447.807354206944
 20
2446.020726426127
 30
0.0
 40
36.0
  1
R30
 50
47.51049044754721
  7
ADD
100
AcDbText
1001
ACAD
1000
MTEXTBEGIN
1070
    73
1070
     1
1070
    44
1040
1.0
1070
    74
1070
     0
1000
MTEXTEND
1000
MTEXTBEGIN
1070
    73
1070
     1
1070
    44
1040
1.0
1070
    74
1070
     0
1000
MTEXTEND
  0
TEXT
  5
1F22
330
1F
100
AcDbEntity
  8
SUNPO
 62
     7
100
AcDbText
 10
3397.714285714286
 20
2612.5
 30
0.0
 40
36.0
  1
600
  7
ADD
100
AcDbText
1001
ACAD
1000
MTEXTBEGIN
1070
    73
1070
     1
1070
    44
1040
1.0
1070
    74
1070
     0
1000
MTEXTEND
1000
MTEXTBEGIN
1070
    73
1070
     1
1070
    44
1040
1.0
1070
    74
1070
     0
1000
MTEXTEND
  0
TEXT
  5
1F23
330
1F
100
AcDbEntity
  8
SUNPO
 62
     7
100
AcDbText
 10
3398.571428571429
 20
2512.5
 30
0.0
 40
36.0
  1
250
  7
ADD
100
AcDbText
1001
ACAD
1000
MTEXTBEGIN
1070
    73
1070
     1
1070
    44
1040
1.0
1070
    74
1070
     0
1000
MTEXTEND
1000
MTEXTBEGIN
1070
    73
1070
     1
1070
    44
1040
1.0
1070
    74
1070
     0
1000
MTEXTEND
  0
TEXT
  5
1F24
330
1F
100
AcDbEntity
  8
SUNPO
 62
     7
100
AcDbText
 10
3398.571428571429
 20
1962.5
 30
0.0
 40
36.0
  1
300
  7
ADD
100
AcDbText
1001
ACAD
1000
MTEXTBEGIN
1070
    73
1070
     1
1070
    44
1040
1.0
1070
    74
1070
     0
1000
MTEXTEND
1000
MTEXTBEGIN
1070
    73
1070
     1
1070
    44
1040
1.0
1070
    74
1070
     0
1000
MTEXTEND
  0
TEXT
  5
1F25
330
1F
100
AcDbEntity
  8
SUNPO
 62
     7
100
AcDbText
 10
3887.499999999999
 20
2148.571428571429
 30
0.0
 40
36.0
  1
200
 50
90.0
  7
ADD
100
AcDbText
1001
ACAD
1000
MTEXTBEGIN
1070
    73
1070
     1
1070
    44
1040
1.0
1070
    74
1070
     0
1000
MTEXTEND
1000
MTEXTBEGIN
1070
    73
1070
     1
1070
    44
1040
1.0
1070
    74
1070
     0
1000
MTEXTEND
  0
TEXT
  5
1F26
330
1F
100
AcDbEntity
  8
SUNPO
 62
     7
100
AcDbText
 10
3228.130100168345
 20
2429.523568992743
 30
0.0
 40
36.0
  1
R20
 50
311.2552206472429
  7
ADD
100
AcDbText
1001
ACAD
1000
MTEXTBEGIN
1070
    73
1070
     1
1070
    44
1040
1.0
1070
    74
1070
     0
1000
MTEXTEND
1000
MTEXTBEGIN
1070
    73
1070
     1
1070
    44
1040
1.0
1070
    74
1070
     0
1000
MTEXTEND
  0
TEXT
  5
1F27
330
1F
100
AcDbEntity
  8
SUNPO
 62
     7
100
AcDbText
 10
3602.121399037034
 20
2349.40333209657
 30
0.0
 40
36.0
  1
R20
 50
48.46632734263212
  7
ADD
100
AcDbText
1001
ACAD
1000
MTEXTBEGIN
1070
    73
1070
     1
1070
    44
1040
1.0
1070
    74
1070
     0
1000
MTEXTEND
1000
MTEXTBEGIN
1070
    73
1070
     1
1070
    44
1040
1.0
1070
    74
1070
     0
1000
MTEXTEND
  0
VIEWPORT
  5
72
330
1B
100
AcDbEntity
 67
     1
  8
0
100
AcDbViewport
 10
645.8325449029127
 20
277.0
 30
0.0
 40
1380.967339805825
 41
628.4520000000001
 68
     2
 69
     1
1001
ACAD
1000
MVIEW
1002
{
1070
    16
1010
0.0
1020
0.0
1030
0.0
1010
0.0
1020
0.0
1030
1.0
1040
0.0
1040
628.4520000000001
1040
645.8325449029127
1040
277.0
1040
50.0
1040
0.0
1040
0.0
1070
     0
1070
   100
1070
     1
1070
     1
1070
     0
1070
     0
1070
     0
1070
     0
1040
0.0
1040
0.0
1040
0.0
1040
10.0
1040
10.0
1040
10.0
1040
10.0
1070
     0
1002
{
1002
}
1002
}
  0
VIEWPORT
  5
74
330
1B
100
AcDbEntity
 67
     1
  8
VIEWPORT
100
AcDbViewport
 10
414.3779638919211
 20
277.3177265058034
 30
0.0
 40
840.0353682728887
 41
567.2285469943826
 68
     1
 69
     2
1001
ACAD
1000
MVIEW
1002
{
1070
    16
1010
0.0
1020
0.0
1030
0.0
1010
0.0
1020
0.0
1030
1.0
1040
0.0
1040
579.5583043546323
1040
424.4938908624541
1040
286.1973242720074
1040
50.0
1040
0.0
1040
0.0
1070
     0
1070
   100
1070
     1
1070
     1
1070
     0
1070
     0
1070
     0
1070
     0
1040
0.0
1040
0.0
1040
0.0
1040
10.0
1040
10.0
1040
10.0
1040
10.0
1070
     0
1002
{
1002
}
1002
}
  0
ENDSEC
  0
SECTION
  2
OBJECTS
  0
DICTIONARY
  5
C
330
0
100
AcDbDictionary
  3
ACAD_GROUP
350
D
  3
ACAD_LAYOUT
350
1A
  3
ACAD_MLINESTYLE
350
17
  3
ACAD_PLOTSETTINGS
350
19
  3
ACADDIM
350
1BE4
  3
DWGPROPS
350
4C7
1001
ACAD
1000
TREAT_AS_HARD
1070
     0
  0
DICTIONARY
  5
17F6
330
1F
100
AcDbDictionary
  3
ACAD_LAYOUTSELFREF
350
1F2A
1001
ACAD
1000
TREAT_AS_HARD
1070
     1
  0
DICTIONARY
  5
17F8
330
1B
100
AcDbDictionary
  3
ACAD_LAYOUTSELFREF
350
1F29
1001
ACAD
1000
TREAT_AS_HARD
1070
     1
  0
DICTIONARY
  5
D
102
{ACAD_REACTORS
330
C
102
}
330
C
100
AcDbDictionary
1001
ACAD
1000
TREAT_AS_HARD
1070
     0
  0
DICTIONARY
  5
1A
102
{ACAD_REACTORS
330
C
102
}
330
C
100
AcDbDictionary
1001
ACAD
1000
TREAT_AS_HARD
1070
     0
  0
DICTIONARY
  5
17
102
{ACAD_REACTORS
330
C
102
}
330
C
100
AcDbDictionary
  3
STANDARD
350
18
1001
ACAD
1000
TREAT_AS_HARD
1070
     0
  0
DICTIONARY
  5
19
102
{ACAD_REACTORS
330
C
102
}
330
C
100
AcDbDictionary
1001
ACAD
1000
TREAT_AS_HARD
1070
     0
  0
XRECORD
  5
1BE4
102
{ACAD_REACTORS
330
C
102
}
330
C
100
AcDbXrecord
 90
   990106
  3

 60
     0
 61
     0
 62
     1
 63
     3
 64
     0
 65
     0
 66
     0
 67
     3
 68
     1
 69
     0
 70
     0
 71
     0
 72
     0
 40
0.0
170
     0
  0
XRECORD
  5
4C7
102
{ACAD_REACTORS
330
C
102
}
330
C
100
AcDbXrecord
  1
DWGPROPS COOKIE
  2
印刷用テスト
  3
AutoCAD2000による建築設計
  4
鈴木 裕二
  6

  7

  8
U2
  9

300
=
301
=
302
=
303
=
304
=
305
=
306
=
307
=
308
=
309
=
 40
0.7653446875
 41
2451285.4846114
 42
2451333.689743032
  1

 90
        0
  0
XRECORD
  5
1F2A
102
{ACAD_REACTORS
330
17F6
102
}
330
17F6
100
AcDbXrecord
340
1F
  0
XRECORD
  5
1F29
102
{ACAD_REACTORS
330
17F8
102
}
330
17F8
100
AcDbXrecord
340
1B
  0
MLINESTYLE
  5
18
102
{ACAD_REACTORS
330
17
102
}
330
17
100
AcDbMlineStyle
  2
STANDARD
 70
     0
  3

 62
   256
 51
90.0
 52
90.0
 71
     2
 49
0.5
 62
   256
  6
BYLAYER
 49
-0.5
 62
   256
  6
BYLAYER
  0
ENDSEC
  0
EOF
