  0
SECTION
  2
HEADER
  9
$ACADVER
  1
AC1012
  9
$DWGCODEPAGE
  3
dos932
  9
$INSBASE
 10
0.0
 20
0.0
 30
0.0
  9
$EXTMIN
 10
0.0
 20
0.0
 30
0.0
  9
$EXTMAX
 10
5940.0
 20
4200.0
 30
0.0
  9
$LIMMIN
 10
0.0
 20
0.0
  9
$LIMMAX
 10
5940.0
 20
4200.0
  9
$ORTHOMODE
 70
     1
  9
$REGENMODE
 70
     1
  9
$FILLMODE
 70
     1
  9
$QTEXTMODE
 70
     0
  9
$MIRRTEXT
 70
     0
  9
$DRAGMODE
 70
     2
  9
$LTSCALE
 40
10.0
  9
$OSMODE
 70
    39
  9
$ATTMODE
 70
     1
  9
$TEXTSIZE
 40
50.0
  9
$TRACEWID
 40
1.0
  9
$TEXTSTYLE
  7
ADD
  9
$CLAYER
  8
SUNPO
  9
$CELTYPE
  6
BYLAYER
  9
$CECOLOR
 62
   256
  9
$CELTSCALE
 40
1.0
  9
$DELOBJ
 70
     1
  9
$DISPSILH
 70
     0
  9
$DIMSCALE
 40
20.0
  9
$DIMASZ
 40
1.399999999999999
  9
$DIMEXO
 40
1.0
  9
$DIMDLI
 40
7.0
  9
$DIMRND
 40
0.0
  9
$DIMDLE
 40
0.0
  9
$DIMEXE
 40
0.5
  9
$DIMTP
 40
0.0
  9
$DIMTM
 40
0.0
  9
$DIMTXT
 40
1.8
  9
$DIMCEN
 40
1.399999999999999
  9
$DIMTSZ
 40
0.0
  9
$DIMTOL
 70
     0
  9
$DIMLIM
 70
     0
  9
$DIMTIH
 70
     0
  9
$DIMTOH
 70
     0
  9
$DIMSE1
 70
     0
  9
$DIMSE2
 70
     0
  9
$DIMTAD
 70
     1
  9
$DIMZIN
 70
     8
  9
$DIMBLK
  1

  9
$DIMASO
 70
     1
  9
$DIMSHO
 70
     1
  9
$DIMPOST
  1

  9
$DIMAPOST
  1

  9
$DIMALT
 70
     0
  9
$DIMALTD
 70
     3
  9
$DIMALTF
 40
0.03937007874016
  9
$DIMLFAC
 40
1.0
  9
$DIMTOFL
 70
     1
  9
$DIMTVP
 40
0.7
  9
$DIMTIX
 70
     1
  9
$DIMSOXD
 70
     0
  9
$DIMSAH
 70
     0
  9
$DIMBLK1
  1

  9
$DIMBLK2
  1

  9
$DIMSTYLE
  2
ADD
  9
$DIMCLRD
 70
   144
  9
$DIMCLRE
 70
   144
  9
$DIMCLRT
 70
     7
  9
$DIMTFAC
 40
1.0
  9
$DIMGAP
 40
0.625
  9
$DIMJUST
 70
     0
  9
$DIMSD1
 70
     0
  9
$DIMSD2
 70
     0
  9
$DIMTOLJ
 70
     2
  9
$DIMTZIN
 70
     8
  9
$DIMALTZ
 70
     0
  9
$DIMALTTZ
 70
     0
  9
$DIMFIT
 70
     5
  9
$DIMUPT
 70
     0
  9
$DIMUNIT
 70
     2
  9
$DIMDEC
 70
     1
  9
$DIMTDEC
 70
     1
  9
$DIMALTU
 70
     2
  9
$DIMALTTD
 70
     3
  9
$DIMTXSTY
  7
ADD
  9
$DIMAUNIT
 70
     0
  9
$LUNITS
 70
     2
  9
$LUPREC
 70
     4
  9
$SKETCHINC
 40
1.0
  9
$FILLETRAD
 40
30.0
  9
$AUNITS
 70
     0
  9
$AUPREC
 70
     1
  9
$MENU
  1
.
  9
$ELEVATION
 40
0.0
  9
$PELEVATION
 40
0.0
  9
$THICKNESS
 40
0.0
  9
$LIMCHECK
 70
     0
  9
$BLIPMODE
 70
     0
  9
$CHAMFERA
 40
30.0
  9
$CHAMFERB
 40
30.0
  9
$CHAMFERC
 40
20.0
  9
$CHAMFERD
 40
0.0
  9
$SKPOLY
 70
     0
  9
$TDCREATE
 40
2451801.142532870
  9
$TDUPDATE
 40
2451862.354703588
  9
$TDINDWG
 40
0.4179298495
  9
$TDUSRTIMER
 40
0.4179298495
  9
$USRTIMER
 70
     1
  9
$ANGBASE
 50
0.0
  9
$ANGDIR
 70
     0
  9
$PDMODE
 70
     0
  9
$PDSIZE
 40
0.0
  9
$PLINEWID
 40
0.0
  9
$COORDS
 70
     2
  9
$SPLFRAME
 70
     0
  9
$SPLINETYPE
 70
     6
  9
$SPLINESEGS
 70
     8
  9
$ATTDIA
 70
     0
  9
$ATTREQ
 70
     1
  9
$HANDLING
 70
 10241
  9
$HANDSEED
  5
2362
  9
$SURFTAB1
 70
     6
  9
$SURFTAB2
 70
     6
  9
$SURFTYPE
 70
     6
  9
$SURFU
 70
     6
  9
$SURFV
 70
     6
  9
$UCSNAME
  2

  9
$UCSORG
 10
0.0
 20
0.0
 30
0.0
  9
$UCSXDIR
 10
1.0
 20
0.0
 30
0.0
  9
$UCSYDIR
 10
0.0
 20
1.0
 30
0.0
  9
$PUCSNAME
  2

  9
$PUCSORG
 10
0.0
 20
0.0
 30
0.0
  9
$PUCSXDIR
 10
1.0
 20
0.0
 30
0.0
  9
$PUCSYDIR
 10
0.0
 20
1.0
 30
0.0
  9
$USERI1
 70
     0
  9
$USERI2
 70
     0
  9
$USERI3
 70
     0
  9
$USERI4
 70
     0
  9
$USERI5
 70
     0
  9
$USERR1
 40
841.0
  9
$USERR2
 40
594.0
  9
$USERR3
 40
1.0
  9
$USERR4
 40
0.0
  9
$USERR5
 40
0.0
  9
$WORLDVIEW
 70
     1
  9
$SHADEDGE
 70
     3
  9
$SHADEDIF
 70
    70
  9
$TILEMODE
 70
     1
  9
$MAXACTVP
 70
    48
  9
$PINSBASE
 10
0.0
 20
0.0
 30
0.0
  9
$PLIMCHECK
 70
     0
  9
$PEXTMIN
 10
-5.639720244523232
 20
-6.296546991387913
 30
0.0
  9
$PEXTMAX
 10
834.3956480283654
 20
560.9320000029947
 30
0.0
  9
$PLIMMIN
 10
-7.500000000000001
 20
-20.0
  9
$PLIMMAX
 10
833.5000000000002
 20
574.0000000000001
  9
$UNITMODE
 70
     0
  9
$VISRETAIN
 70
     1
  9
$PLINEGEN
 70
     0
  9
$PSLTSCALE
 70
     1
  9
$TREEDEPTH
 70
  3020
  9
$PICKSTYLE
 70
     1
  9
$CMLSTYLE
  2
STANDARD
  9
$CMLJUST
 70
     0
  9
$CMLSCALE
 40
20.0
  9
$SAVEIMAGES
 70
     1
  0
ENDSEC
  0
SECTION
  2
CLASSES
  0
CLASS
  1
ACDBDICTIONARYWDFLT
  2
AcDbDictionaryWithDefault
  3
AutoCAD 2000
 90
    32768
280
     0
281
     0
  0
CLASS
  1
ACDBPLACEHOLDER
  2
AcDbPlaceHolder
  3
AutoCAD 2000
 90
    32768
280
     0
281
     0
  0
CLASS
  1
LAYOUT
  2
AcDbLayout
  3
AutoCAD 2000
 90
    32768
280
     0
281
     0
  0
CLASS
  1
RTEXT
  2
RText
  3
RText|AutoCAD Express Tool|expresstools@autodesk.com
 90
    32768
280
     0
281
     1
  0
CLASS
  1
DICTIONARYVAR
  2
AcDbDictionaryVar
  3
AutoCAD 2000
 90
    32768
280
     0
281
     0
  0
CLASS
  1
LONG_TRANSACTION
  2
AcDbLongTransaction
  3
AutoCAD 2000
 90
    32768
280
     0
281
     0
  0
CLASS
  1
LWPOLYLINE
  2
AcDbPolyline
  3
AutoCAD 2000
 90
    32768
280
     0
281
     1
  0
CLASS
  1
HATCH
  2
AcDbHatch
  3
AutoCAD 2000
 90
    32768
280
     0
281
     1
  0
CLASS
  1
XRECORD
  2
AcDbXrecord
  3
AutoCAD 2000
 90
    32768
280
     0
281
     0
  0
CLASS
  1
LONG_TRANSACTION
  2
AcDbLongTransaction
  3
AutoCAD 2000
 90
    32768
280
     0
281
     0
  0
CLASS
  1
LWPOLYLINE
  2
AcDbPolyline
  3
AutoCAD 2000
 90
    32768
280
     0
281
     1
  0
CLASS
  1
HATCH
  2
AcDbHatch
  3
AutoCAD 2000
 90
    32768
280
     0
281
     1
  0
CLASS
  1
XRECORD
  2
AcDbXrecord
  3
AutoCAD 2000
 90
    32768
280
     0
281
     0
  0
CLASS
  1
LONG_TRANSACTION
  2
AcDbLongTransaction
  3
AutoCAD 2000
 90
    32768
280
     0
281
     0
  0
CLASS
  1
LWPOLYLINE
  2
AcDbPolyline
  3
AutoCAD 2000
 90
    32768
280
     0
281
     1
  0
CLASS
  1
HATCH
  2
AcDbHatch
  3
AutoCAD 2000
 90
    32768
280
     0
281
     1
  0
CLASS
  1
XRECORD
  2
AcDbXrecord
  3
AutoCAD 2000
 90
    32768
280
     0
281
     0
  0
CLASS
  1
LONG_TRANSACTION
  2
AcDbLongTransaction
  3
AutoCAD 2000
 90
    32768
280
     0
281
     0
  0
CLASS
  1
LWPOLYLINE
  2
AcDbPolyline
  3
AutoCAD 2000
 90
    32768
280
     0
281
     1
  0
CLASS
  1
HATCH
  2
AcDbHatch
  3
AutoCAD 2000
 90
    32768
280
     0
281
     1
  0
CLASS
  1
XRECORD
  2
AcDbXrecord
  3
AutoCAD 2000
 90
    32768
280
     0
281
     0
  0
CLASS
  1
LONG_TRANSACTION
  2
AcDbLongTransaction
  3
AutoCAD 2000
 90
    32768
280
     0
281
     0
  0
CLASS
  1
LWPOLYLINE
  2
AcDbPolyline
  3
AutoCAD 2000
 90
    32768
280
     0
281
     1
  0
CLASS
  1
HATCH
  2
AcDbHatch
  3
AutoCAD 2000
 90
    32768
280
     0
281
     1
  0
CLASS
  1
XRECORD
  2
AcDbXrecord
  3
AutoCAD 2000
 90
    32768
280
     0
281
     0
  0
CLASS
  1
LONG_TRANSACTION
  2
AcDbLongTransaction
  3
AutoCAD 2000
 90
    32768
280
     0
281
     0
  0
CLASS
  1
LWPOLYLINE
  2
AcDbPolyline
  3
AutoCAD 2000
 90
    32768
280
     0
281
     1
  0
CLASS
  1
HATCH
  2
AcDbHatch
  3
AutoCAD 2000
 90
    32768
280
     0
281
     1
  0
CLASS
  1
XRECORD
  2
AcDbXrecord
  3
AutoCAD 2000
 90
    32768
280
     0
281
     0
  0
CLASS
  1
LONG_TRANSACTION
  2
AcDbLongTransaction
  3
AutoCAD 2000
 90
    32768
280
     0
281
     0
  0
CLASS
  1
LWPOLYLINE
  2
AcDbPolyline
  3
AutoCAD 2000
 90
    32768
280
     0
281
     1
  0
CLASS
  1
HATCH
  2
AcDbHatch
  3
AutoCAD 2000
 90
    32768
280
     0
281
     1
  0
CLASS
  1
XRECORD
  2
AcDbXrecord
  3
AutoCAD 2000
 90
    32768
280
     0
281
     0
  0
CLASS
  1
LONG_TRANSACTION
  2
AcDbLongTransaction
  3
AutoCAD 2000
 90
    32768
280
     0
281
     0
  0
CLASS
  1
LWPOLYLINE
  2
AcDbPolyline
  3
AutoCAD 2000
 90
    32768
280
     0
281
     1
  0
CLASS
  1
HATCH
  2
AcDbHatch
  3
AutoCAD 2000
 90
    32768
280
     0
281
     1
  0
CLASS
  1
XRECORD
  2
AcDbXrecord
  3
AutoCAD 2000
 90
    32768
280
     0
281
     0
  0
ENDSEC
  0
SECTION
  2
TABLES
  0
TABLE
  2
VPORT
  5
8
330
0
100
AcDbSymbolTable
 70
     2
  0
VPORT
  5
2352
330
8
100
AcDbSymbolTableRecord
100
AcDbViewportTableRecord
  2
*ACTIVE
 70
     0
 10
0.0
 20
0.0
 11
1.0
 21
1.0
 12
2970.000013830139
 22
2300.253907735564
 13
0.0
 23
0.0
 14
25.0
 24
25.0
 15
10.0
 25
10.0
 16
0.0
 26
0.0
 36
1.0
 17
0.0
 27
0.0
 37
0.0
 40
4681.798028090608
 41
2.091445427728613
 42
50.0
 43
0.0
 44
0.0
 50
0.0
 51
0.0
 71
     0
 72
   200
 73
     1
 74
     1
 75
     1
 76
     0
 77
     0
 78
     0
  0
ENDTAB
  0
TABLE
  2
LTYPE
  5
5
330
0
100
AcDbSymbolTable
 70
     5
  0
LTYPE
  5
14
330
5
100
AcDbSymbolTableRecord
100
AcDbLinetypeTableRecord
  2
BYBLOCK
 70
     0
  3

 72
    65
 73
     0
 40
0.0
  0
LTYPE
  5
15
330
5
100
AcDbSymbolTableRecord
100
AcDbLinetypeTableRecord
  2
BYLAYER
 70
     0
  3

 72
    65
 73
     0
 40
0.0
  0
LTYPE
  5
16
330
5
100
AcDbSymbolTableRecord
100
AcDbLinetypeTableRecord
  2
CONTINUOUS
 70
     0
  3
Solid line
 72
    65
 73
     0
 40
0.0
  0
LTYPE
  5
555
330
5
100
AcDbSymbolTableRecord
100
AcDbLinetypeTableRecord
  2
CENTER
 70
     0
  3
Center ____ _ ____ _ ____ _ ____ _ ____ _ ____
 72
    65
 73
     4
 40
50.8
 49
31.75
 74
     0
 49
-6.349999999999999
 74
     0
 49
6.349999999999999
 74
     0
 49
-6.349999999999999
 74
     0
  0
LTYPE
  5
556
330
5
100
AcDbSymbolTableRecord
100
AcDbLinetypeTableRecord
  2
HIDDEN
 70
     0
  3
Hidden __ __ __ __ __ __ __ __ __ __ __ __ __ _
 72
    65
 73
     2
 40
9.524999999999998
 49
6.349999999999999
 74
     0
 49
-3.174999999999999
 74
     0
  0
LTYPE
  5
557
330
5
100
AcDbSymbolTableRecord
100
AcDbLinetypeTableRecord
  2
HIDDEN2
 70
     0
  3
Hidden (.5x) _ _ _ _ _ _ _ _ _ _ _ _ _ _ _ _ _
 72
    65
 73
     2
 40
4.762499999999999
 49
3.174999999999999
 74
     0
 49
-1.587499999999999
 74
     0
  0
LTYPE
  5
558
330
5
100
AcDbSymbolTableRecord
100
AcDbLinetypeTableRecord
  2
PHANTOM
 70
     0
  3
Phantom ______  __  __  ______  __  __  ______
 72
    65
 73
     6
 40
63.5
 49
31.75
 74
     0
 49
-6.349999999999999
 74
     0
 49
6.349999999999999
 74
     0
 49
-6.349999999999999
 74
     0
 49
6.349999999999999
 74
     0
 49
-6.349999999999999
 74
     0
  0
ENDTAB
  0
TABLE
  2
LAYER
  5
2
330
0
100
AcDbSymbolTable
 70
    22
  0
LAYER
  5
10
330
2
100
AcDbSymbolTableRecord
100
AcDbLayerTableRecord
  2
0
 70
     0
 62
     7
  6
CONTINUOUS
  0
LAYER
  5
75
330
2
100
AcDbSymbolTableRecord
100
AcDbLayerTableRecord
  2
VIEWPORT
 70
     0
 62
     1
  6
CONTINUOUS
  0
LAYER
  5
504
330
2
100
AcDbSymbolTableRecord
100
AcDbLayerTableRecord
  2
DEFPOINTS
 70
     0
 62
     7
  6
CONTINUOUS
  0
LAYER
  5
505
330
2
100
AcDbSymbolTableRecord
100
AcDbLayerTableRecord
  2
1C1
 70
     0
 62
   254
  6
CONTINUOUS
  0
LAYER
  5
506
330
2
100
AcDbSymbolTableRecord
100
AcDbLayerTableRecord
  2
1C2
 70
     0
 62
   254
  6
CONTINUOUS
  0
LAYER
  5
507
330
2
100
AcDbSymbolTableRecord
100
AcDbLayerTableRecord
  2
2C1
 70
     0
 62
   144
  6
CONTINUOUS
  0
LAYER
  5
508
330
2
100
AcDbSymbolTableRecord
100
AcDbLayerTableRecord
  2
2C2
 70
     0
 62
   144
  6
CONTINUOUS
  0
LAYER
  5
509
330
2
100
AcDbSymbolTableRecord
100
AcDbLayerTableRecord
  2
2H1
 70
     0
 62
   144
  6
HIDDEN
  0
LAYER
  5
50A
330
2
100
AcDbSymbolTableRecord
100
AcDbLayerTableRecord
  2
2H2
 70
     0
 62
   144
  6
HIDDEN2
  0
LAYER
  5
50B
330
2
100
AcDbSymbolTableRecord
100
AcDbLayerTableRecord
  2
2P1
 70
     0
 62
   144
  6
PHANTOM
  0
LAYER
  5
50C
330
2
100
AcDbSymbolTableRecord
100
AcDbLayerTableRecord
  2
3C1
 70
     0
 62
     7
  6
CONTINUOUS
  0
LAYER
  5
50D
330
2
100
AcDbSymbolTableRecord
100
AcDbLayerTableRecord
  2
3C2
 70
     0
 62
     7
  6
CONTINUOUS
  0
LAYER
  5
50E
330
2
100
AcDbSymbolTableRecord
100
AcDbLayerTableRecord
  2
3C3
 70
     0
 62
     7
  6
CONTINUOUS
  0
LAYER
  5
50F
330
2
100
AcDbSymbolTableRecord
100
AcDbLayerTableRecord
  2
4H1
 70
     0
 62
     6
  6
HIDDEN
  0
LAYER
  5
510
330
2
100
AcDbSymbolTableRecord
100
AcDbLayerTableRecord
  2
4H2
 70
     0
 62
     6
  6
HIDDEN2
  0
LAYER
  5
511
330
2
100
AcDbSymbolTableRecord
100
AcDbLayerTableRecord
  2
5C1
 70
     0
 62
    55
  6
CONTINUOUS
  0
LAYER
  5
512
330
2
100
AcDbSymbolTableRecord
100
AcDbLayerTableRecord
  2
5C2
 70
     0
 62
    55
  6
CONTINUOUS
  0
LAYER
  5
513
330
2
100
AcDbSymbolTableRecord
100
AcDbLayerTableRecord
  2
8C1
 70
     0
 62
    92
  6
CONTINUOUS
  0
LAYER
  5
514
330
2
100
AcDbSymbolTableRecord
100
AcDbLayerTableRecord
  2
HOJO
 70
     0
 62
     5
  6
CONTINUOUS
  0
LAYER
  5
515
330
2
100
AcDbSymbolTableRecord
100
AcDbLayerTableRecord
  2
KIJUN
 70
     0
 62
     1
  6
CENTER
  0
LAYER
  5
516
330
2
100
AcDbSymbolTableRecord
100
AcDbLayerTableRecord
  2
MOJI
 70
     0
 62
     7
  6
CONTINUOUS
  0
LAYER
  5
517
330
2
100
AcDbSymbolTableRecord
100
AcDbLayerTableRecord
  2
SUNPO
 70
     0
 62
   144
  6
CONTINUOUS
  0
ENDTAB
  0
TABLE
  2
STYLE
  5
3
330
0
100
AcDbSymbolTable
 70
     6
  0
STYLE
  5
11
330
3
100
AcDbSymbolTableRecord
100
AcDbTextStyleTableRecord
  2
STANDARD
 70
     0
 40
0.0
 41
1.0
 50
0.0
 71
     0
 42
2.5
  3
txt
  4

  0
STYLE
  5
2C
330
3
100
AcDbSymbolTableRecord
100
AcDbTextStyleTableRecord
  2

 70
     1
 40
0.0
 41
1.0
 50
0.0
 71
     0
 42
2.5
  3
ltypeshp.shx
  4

  0
STYLE
  5
18E
330
3
100
AcDbSymbolTableRecord
100
AcDbTextStyleTableRecord
  2
ADD
 70
     0
 40
0.0
 41
1.0
 50
0.0
 71
     0
 42
50.0
  3
romans.shx
  4
bigfont.shx
  0
STYLE
  5
191
330
3
100
AcDbSymbolTableRecord
100
AcDbTextStyleTableRecord
  2
MSG
 70
     0
 40
0.0
 41
1.0
 50
0.0
 71
     0
 42
2.5
  3
MS Gothic.ttf
  4

1001
ACAD
1000
MS Gothic
1071
    32817
  0
STYLE
  5
5C8
330
3
100
AcDbSymbolTableRecord
100
AcDbTextStyleTableRecord
  2
STANDARD15
 70
     0
 40
0.0
 41
1.0
 50
15.0
 71
     0
 42
2.5
  3
ROMANS
  4
bigfont
  0
STYLE
  5
5C9
330
3
100
AcDbSymbolTableRecord
100
AcDbTextStyleTableRecord
  2
ROMANS15
 70
     0
 40
0.0
 41
1.0
 50
15.0
 71
     0
 42
2.5
  3
romans
  4

  0
ENDTAB
  0
TABLE
  2
VIEW
  5
6
330
0
100
AcDbSymbolTable
 70
     1
  0
VIEW
  5
54D
330
6
100
AcDbSymbolTableRecord
100
AcDbViewTableRecord
  2
ALL
 70
     0
 40
594.0
 10
420.5
 20
297.0
 41
865.125
 11
0.0
 21
0.0
 31
1.0
 12
0.0
 22
0.0
 32
0.0
 42
50.0
 43
0.0
 44
0.0
 50
0.0
 71
     0
  0
ENDTAB
  0
TABLE
  2
UCS
  5
7
330
0
100
AcDbSymbolTable
 70
     0
  0
ENDTAB
  0
TABLE
  2
APPID
  5
9
330
0
100
AcDbSymbolTable
 70
     4
  0
APPID
  5
12
330
9
100
AcDbSymbolTableRecord
100
AcDbRegAppTableRecord
  2
ACAD
 70
     0
  0
APPID
  5
5CB
330
9
100
AcDbSymbolTableRecord
100
AcDbRegAppTableRecord
  2
ARAIGUMI_YOHEKI
 70
     0
  0
APPID
  5
5CC
330
9
100
AcDbSymbolTableRecord
100
AcDbRegAppTableRecord
  2
CONTENTTABDATA
 70
     0
  0
APPID
  5
5CD
330
9
100
AcDbSymbolTableRecord
100
AcDbRegAppTableRecord
  2
CONTENTCURRENTTAB
 70
     0
  0
ENDTAB
  0
TABLE
  2
DIMSTYLE
  5
A
330
0
100
AcDbSymbolTable
 70
    10
  0
DIMSTYLE
105
27
330
A
100
AcDbSymbolTableRecord
100
AcDbDimStyleTableRecord
  2
ISO-25
 70
     0
  3

  4

  5

  6

  7

 40
1.0
 41
2.5
 42
0.625
 43
3.75
 44
1.25
 45
0.0
 46
0.0
 47
0.0
 48
0.0
140
2.5
141
2.5
142
0.0
143
0.03937007874016
144
1.0
145
0.0
146
1.0
147
0.625
 71
     0
 72
     0
 73
     0
 74
     0
 75
     0
 76
     0
 77
     1
 78
     8
170
     0
171
     3
172
     1
173
     0
174
     0
175
     0
176
     0
177
     0
178
     0
270
     2
271
     2
272
     2
273
     2
274
     3
340
11
275
     0
280
     0
281
     0
282
     0
283
     0
284
     8
285
     0
286
     0
287
     3
288
     0
  0
DIMSTYLE
105
197
330
A
100
AcDbSymbolTableRecord
100
AcDbDimStyleTableRecord
  2
ADD
 70
     0
  3

  4

  5

  6

  7

 40
1.0
 41
2.5
 42
1.0
 43
7.0
 44
0.5
 45
0.0
 46
0.0
 47
0.0
 48
0.0
140
2.5
141
2.5
142
0.0
143
0.03937007874016
144
1.0
145
0.7
146
1.0
147
0.625
 71
     0
 72
     0
 73
     0
 74
     0
 75
     0
 76
     0
 77
     1
 78
     8
170
     0
171
     3
172
     1
173
     0
174
     1
175
     0
176
   144
177
   144
178
     7
270
     2
271
     1
272
     1
273
     2
274
     3
340
18E
275
     0
280
     0
281
     0
282
     0
283
     2
284
     8
285
     0
286
     0
287
     5
288
     0
  0
DIMSTYLE
105
3E6
330
A
100
AcDbSymbolTableRecord
100
AcDbDimStyleTableRecord
  2
ADD$2
 70
     0
  3

  4

  5

  6

  7

 40
1.0
 41
2.5
 42
1.0
 43
7.0
 44
0.5
 45
0.0
 46
0.0
 47
0.0
 48
0.0
140
2.5
141
2.5
142
0.0
143
0.03937007874016
144
1.0
145
0.7
146
1.0
147
0.625
 71
     0
 72
     0
 73
     0
 74
     0
 75
     0
 76
     0
 77
     1
 78
     8
170
     0
171
     3
172
     1
173
     0
174
     1
175
     0
176
   144
177
   144
178
     7
270
     2
271
     1
272
     1
273
     2
274
     3
340
18E
275
     0
280
     0
281
     0
282
     0
283
     2
284
     8
285
     0
286
     0
287
     5
288
     0
  0
DIMSTYLE
105
3E7
102
{ACAD_REACTORS
330
1FCB
330
1F99
330
1D30
330
1D26
102
}
330
A
100
AcDbSymbolTableRecord
100
AcDbDimStyleTableRecord
  2
ADD$4
 70
     0
  3

  4

  5

  6

  7

 40
1.0
 41
2.5
 42
1.0
 43
7.0
 44
0.5
 45
0.0
 46
0.0
 47
0.0
 48
0.0
140
2.5
141
2.5
142
0.0
143
0.03937007874016
144
1.0
145
0.0
146
1.0
147
0.625
 71
     0
 72
     0
 73
     0
 74
     0
 75
     0
 76
     0
 77
     1
 78
     8
170
     0
171
     3
172
     1
173
     0
174
     1
175
     0
176
   144
177
   144
178
     7
270
     2
271
     1
272
     1
273
     2
274
     3
340
18E
275
     0
280
     0
281
     0
282
     0
283
     2
284
     8
285
     0
286
     0
287
     5
288
     0
  0
DIMSTYLE
105
3E8
330
A
100
AcDbSymbolTableRecord
100
AcDbDimStyleTableRecord
  2
ADD$3
 70
     0
  3

  4

  5

  6

  7

 40
1.0
 41
2.5
 42
1.0
 43
7.0
 44
0.5
 45
0.0
 46
0.0
 47
0.0
 48
0.0
140
2.5
141
2.5
142
0.0
143
0.03937007874016
144
1.0
145
0.0
146
1.0
147
0.625
 71
     0
 72
     0
 73
     0
 74
     0
 75
     0
 76
     0
 77
     1
 78
     8
170
     0
171
     3
172
     1
173
     0
174
     1
175
     0
176
   144
177
   144
178
     7
270
     2
271
     1
272
     1
273
     2
274
     3
340
18E
275
     0
280
     0
281
     0
282
     0
283
     2
284
     8
285
     0
286
     0
287
     5
288
     0
  0
DIMSTYLE
105
3E9
330
A
100
AcDbSymbolTableRecord
100
AcDbDimStyleTableRecord
  2
ADD$6
 70
     0
  3

  4

  5

  6

  7

 40
1.0
 41
2.5
 42
1.0
 43
7.0
 44
0.5
 45
0.0
 46
0.0
 47
0.0
 48
0.0
140
2.5
141
2.5
142
0.0
143
0.03937007874016
144
1.0
145
0.0
146
1.0
147
0.625
 71
     0
 72
     0
 73
     0
 74
     0
 75
     0
 76
     0
 77
     1
 78
     8
170
     0
171
     3
172
     1
173
     0
174
     1
175
     0
176
   144
177
   144
178
     7
270
     2
271
     1
272
     1
273
     2
274
     3
340
18E
275
     0
280
     0
281
     0
282
     0
283
     2
284
     8
285
     0
286
     0
287
     5
288
     0
  0
DIMSTYLE
105
3EA
330
A
100
AcDbSymbolTableRecord
100
AcDbDimStyleTableRecord
  2
ADD$7
 70
     0
  3

  4

  5

  6

  7

 40
1.0
 41
2.5
 42
1.0
 43
7.0
 44
0.5
 45
0.0
 46
0.0
 47
0.0
 48
0.0
140
2.5
141
2.5
142
0.0
143
0.03937007874016
144
1.0
145
0.0
146
1.0
147
0.625
 71
     0
 72
     0
 73
     0
 74
     0
 75
     0
 76
     0
 77
     0
 78
     8
170
     0
171
     3
172
     1
173
     0
174
     1
175
     0
176
   144
177
   144
178
     7
270
     2
271
     1
272
     1
273
     2
274
     3
340
18E
275
     0
280
     0
281
     0
282
     0
283
     2
284
     8
285
     0
286
     0
287
     5
288
     0
  0
DIMSTYLE
105
518
330
A
100
AcDbSymbolTableRecord
100
AcDbDimStyleTableRecord
  2
STANDARD
 70
     0
  3

  4

  5

  6

  7

 40
1.0
 41
0.18
 42
0.0625
 43
0.38
 44
0.18
 45
0.0
 46
0.0
 47
0.0
 48
0.0
140
0.18
141
0.09
142
0.0
143
25.4
144
1.0
145
0.0
146
1.0
147
0.09
 71
     0
 72
     0
 73
     1
 74
     1
 75
     0
 76
     0
 77
     0
 78
     0
170
     0
171
     2
172
     0
173
     0
174
     0
175
     0
176
     0
177
     0
178
     0
270
     2
271
     4
272
     4
273
     2
274
     2
340
11
275
     0
280
     0
281
     0
282
     0
283
     1
284
     0
285
     0
286
     0
287
     3
288
     0
  0
DIMSTYLE
105
550
102
{ACAD_REACTORS
330
1F74
330
1EBC
330
1EAF
330
1E9A
330
1D43
330
1D16
330
1BC8
102
}
330
A
100
AcDbSymbolTableRecord
100
AcDbDimStyleTableRecord
  2
ADD$0
 70
     0
  3

  4

  5

  6

  7

 40
1.0
 41
2.2
 42
1.0
 43
7.0
 44
0.5
 45
0.0
 46
0.0
 47
0.0
 48
0.0
140
2.5
141
2.5
142
0.0
143
0.03937007874016
144
1.0
145
0.7
146
1.0
147
0.625
 71
     0
 72
     0
 73
     0
 74
     0
 75
     0
 76
     0
 77
     1
 78
     8
170
     0
171
     3
172
     1
173
     0
174
     1
175
     0
176
   144
177
   144
178
     7
270
     2
271
     1
272
     1
273
     2
274
     3
340
18E
275
     0
280
     0
281
     0
282
     0
283
     2
284
     8
285
     0
286
     0
287
     5
288
     0
  0
DIMSTYLE
105
59B
330
A
100
AcDbSymbolTableRecord
100
AcDbDimStyleTableRecord
  2
ADD_M
 70
     0
  3

  4

  5

  6

  7

 40
1.0
 41
2.5
 42
1.0
 43
7.0
 44
0.5
 45
0.0
 46
0.0
 47
0.0
 48
0.0
140
2.5
141
2.5
142
0.0
143
0.03937007874016
144
1.0
145
0.7
146
1.0
147
0.625
 71
     0
 72
     0
 73
     0
 74
     0
 75
     0
 76
     0
 77
     1
 78
     8
170
     0
171
     3
172
     1
173
     0
174
     1
175
     0
176
   144
177
   144
178
     7
270
     2
271
     1
272
     1
273
     2
274
     3
340
18E
275
     0
280
     0
281
     0
282
     0
283
     2
284
     8
285
     0
286
     0
287
     5
288
     0
  0
ENDTAB
  0
TABLE
  2
BLOCK_RECORD
  5
1
330
0
100
AcDbSymbolTable
 70
    16
  0
BLOCK_RECORD
  5
1F
102
{ACAD_XDICTIONARY
360
17F6
102
}
330
1
100
AcDbSymbolTableRecord
100
AcDbBlockTableRecord
  2
*MODEL_SPACE
  0
BLOCK_RECORD
  5
1B
102
{ACAD_XDICTIONARY
360
17F8
102
}
330
1
100
AcDbSymbolTableRecord
100
AcDbBlockTableRecord
  2
*PAPER_SPACE
  0
BLOCK_RECORD
  5
192
330
1
100
AcDbSymbolTableRecord
100
AcDbBlockTableRecord
  2
_DOT
  0
BLOCK_RECORD
  5
5CE
330
1
100
AcDbSymbolTableRecord
100
AcDbBlockTableRecord
  2
A4
  0
BLOCK_RECORD
  5
636
330
1
100
AcDbSymbolTableRecord
100
AcDbBlockTableRecord
  2
_OPEN90
  0
BLOCK_RECORD
  5
63C
330
1
100
AcDbSymbolTableRecord
100
AcDbBlockTableRecord
  2
_OPEN30
  0
BLOCK_RECORD
  5
FDC
330
1
100
AcDbSymbolTableRecord
100
AcDbBlockTableRecord
  2
_DATUMFILLED
  0
BLOCK_RECORD
  5
1BC9
330
1
100
AcDbSymbolTableRecord
100
AcDbBlockTableRecord
  2
*D5
  0
BLOCK_RECORD
  5
1D17
330
1
100
AcDbSymbolTableRecord
100
AcDbBlockTableRecord
  2
*D6
  0
BLOCK_RECORD
  5
1D27
330
1
100
AcDbSymbolTableRecord
100
AcDbBlockTableRecord
  2
*D7
  0
BLOCK_RECORD
  5
1D31
330
1
100
AcDbSymbolTableRecord
100
AcDbBlockTableRecord
  2
*D8
  0
BLOCK_RECORD
  5
1D44
330
1
100
AcDbSymbolTableRecord
100
AcDbBlockTableRecord
  2
*D9
  0
BLOCK_RECORD
  5
1E9B
330
1
100
AcDbSymbolTableRecord
100
AcDbBlockTableRecord
  2
*D10
  0
BLOCK_RECORD
  5
1EB0
330
1
100
AcDbSymbolTableRecord
100
AcDbBlockTableRecord
  2
*D11
  0
BLOCK_RECORD
  5
1EBD
330
1
100
AcDbSymbolTableRecord
100
AcDbBlockTableRecord
  2
*D12
  0
BLOCK_RECORD
  5
1F75
330
1
100
AcDbSymbolTableRecord
100
AcDbBlockTableRecord
  2
*D13
  0
BLOCK_RECORD
  5
1F9A
330
1
100
AcDbSymbolTableRecord
100
AcDbBlockTableRecord
  2
*D14
  0
BLOCK_RECORD
  5
1FCC
330
1
100
AcDbSymbolTableRecord
100
AcDbBlockTableRecord
  2
*D15
  0
ENDTAB
  0
ENDSEC
  0
SECTION
  2
BLOCKS
  0
BLOCK
  5
20
330
1F
100
AcDbEntity
  8
0
100
AcDbBlockBegin
  2
*MODEL_SPACE
 70
     0
 10
0.0
 20
0.0
 30
0.0
  3
*MODEL_SPACE
  1

  0
ENDBLK
  5
21
330
1F
100
AcDbEntity
  8
0
100
AcDbBlockEnd
  0
BLOCK
  5
1C
330
1B
100
AcDbEntity
 67
     1
  8
0
100
AcDbBlockBegin
  2
*PAPER_SPACE
 70
     0
 10
0.0
 20
0.0
 30
0.0
  3
*PAPER_SPACE
  1

  0
ENDBLK
  5
1D
330
1B
100
AcDbEntity
 67
     1
  8
0
100
AcDbBlockEnd
  0
BLOCK
  5
195
330
192
100
AcDbEntity
  8
0
100
AcDbBlockBegin
  2
_DOT
 70
     0
 10
0.0
 20
0.0
 30
0.0
  3
_DOT
  1

  0
POLYLINE
  5
193
330
192
100
AcDbEntity
  8
0
 62
     0
100
AcDb2dPolyline
 66
     1
 10
0.0
 20
0.0
 30
0.0
 70
     1
 40
0.5
 41
0.5
  0
VERTEX
  5
2355
330
193
100
AcDbEntity
  8
0
 62
     0
100
AcDbVertex
100
AcDb2dVertex
 10
-0.25
 20
0.0
 30
0.0
 42
1.0
  0
VERTEX
  5
2356
330
193
100
AcDbEntity
  8
0
 62
     0
100
AcDbVertex
100
AcDb2dVertex
 10
0.25
 20
0.0
 30
0.0
 42
1.0
  0
SEQEND
  5
2357
330
193
100
AcDbEntity
  8
0
 62
     0
  0
LINE
  5
194
330
192
100
AcDbEntity
  8
0
 62
     0
100
AcDbLine
 10
-0.5
 20
0.0
 30
0.0
 11
-1.0
 21
0.0
 31
0.0
  0
ENDBLK
  5
196
330
192
100
AcDbEntity
  8
0
100
AcDbBlockEnd
  0
BLOCK
  5
5D1
330
5CE
100
AcDbEntity
  8
0
100
AcDbBlockBegin
  2
A4
 70
     0
 10
0.0
 20
0.0
 30
0.0
  3
A4
  1

  0
POLYLINE
  5
5CF
330
5CE
100
AcDbEntity
  8
HOJO
100
AcDb2dPolyline
 66
     1
 10
0.0
 20
0.0
 30
0.0
 70
     1
  0
VERTEX
  5
2358
330
5CF
100
AcDbEntity
  8
HOJO
100
AcDbVertex
100
AcDb2dVertex
 10
0.0
 20
0.0
 30
0.0
  0
VERTEX
  5
2359
330
5CF
100
AcDbEntity
  8
HOJO
100
AcDbVertex
100
AcDb2dVertex
 10
297.0
 20
0.0
 30
0.0
  0
VERTEX
  5
235A
330
5CF
100
AcDbEntity
  8
HOJO
100
AcDbVertex
100
AcDb2dVertex
 10
297.0
 20
210.0
 30
0.0
  0
VERTEX
  5
235B
330
5CF
100
AcDbEntity
  8
HOJO
100
AcDbVertex
100
AcDb2dVertex
 10
0.0
 20
210.0
 30
0.0
  0
SEQEND
  5
235C
330
5CF
100
AcDbEntity
  8
HOJO
  0
POLYLINE
  5
5D0
330
5CE
100
AcDbEntity
  8
HOJO
100
AcDb2dPolyline
 66
     1
 10
0.0
 20
0.0
 30
0.0
 70
     1
  0
VERTEX
  5
235D
330
5D0
100
AcDbEntity
  8
HOJO
100
AcDbVertex
100
AcDb2dVertex
 10
18.0
 20
13.0
 30
0.0
  0
VERTEX
  5
235E
330
5D0
100
AcDbEntity
  8
HOJO
100
AcDbVertex
100
AcDb2dVertex
 10
279.0
 20
13.0
 30
0.0
  0
VERTEX
  5
235F
330
5D0
100
AcDbEntity
  8
HOJO
100
AcDbVertex
100
AcDb2dVertex
 10
279.0
 20
197.0
 30
0.0
  0
VERTEX
  5
2360
330
5D0
100
AcDbEntity
  8
HOJO
100
AcDbVertex
100
AcDb2dVertex
 10
18.0
 20
197.0
 30
0.0
  0
SEQEND
  5
2361
330
5D0
100
AcDbEntity
  8
HOJO
  0
ENDBLK
  5
5D2
330
5CE
100
AcDbEntity
  8
0
100
AcDbBlockEnd
  0
BLOCK
  5
63A
330
636
100
AcDbEntity
  8
0
100
AcDbBlockBegin
  2
_OPEN90
 70
     0
 10
0.0
 20
0.0
 30
0.0
  3
_OPEN90
  1

  0
LINE
  5
637
330
636
100
AcDbEntity
  8
SUNPO
 62
     0
100
AcDbLine
 10
-0.5
 20
0.5
 30
0.0
 11
0.0
 21
0.0
 31
0.0
  0
LINE
  5
638
330
636
100
AcDbEntity
  8
SUNPO
 62
     0
100
AcDbLine
 10
0.0
 20
0.0
 30
0.0
 11
-0.5
 21
-0.5
 31
0.0
  0
LINE
  5
639
330
636
100
AcDbEntity
  8
SUNPO
 62
     0
100
AcDbLine
 10
0.0
 20
0.0
 30
0.0
 11
-1.0
 21
0.0
 31
0.0
  0
ENDBLK
  5
63B
330
636
100
AcDbEntity
  8
0
100
AcDbBlockEnd
  0
BLOCK
  5
640
330
63C
100
AcDbEntity
  8
0
100
AcDbBlockBegin
  2
_OPEN30
 70
     0
 10
0.0
 20
0.0
 30
0.0
  3
_OPEN30
  1

  0
LINE
  5
63D
330
63C
100
AcDbEntity
  8
SUNPO
 62
     0
100
AcDbLine
 10
-1.0
 20
0.26794919
 30
0.0
 11
0.0
 21
0.0
 31
0.0
  0
LINE
  5
63E
330
63C
100
AcDbEntity
  8
SUNPO
 62
     0
100
AcDbLine
 10
0.0
 20
0.0
 30
0.0
 11
-1.0
 21
-0.26794919
 31
0.0
  0
LINE
  5
63F
330
63C
100
AcDbEntity
  8
SUNPO
 62
     0
100
AcDbLine
 10
0.0
 20
0.0
 30
0.0
 11
-1.0
 21
0.0
 31
0.0
  0
ENDBLK
  5
641
330
63C
100
AcDbEntity
  8
0
100
AcDbBlockEnd
  0
BLOCK
  5
FDE
330
FDC
100
AcDbEntity
  8
0
100
AcDbBlockBegin
  2
_DATUMFILLED
 70
     0
 10
0.0
 20
0.0
 30
0.0
  3
_DATUMFILLED
  1

  0
SOLID
  5
FDD
330
FDC
100
AcDbEntity
  8
MOJI
 62
     0
100
AcDbTrace
 10
0.0
 20
0.5773502700000001
 30
0.0
 11
-1.0
 21
0.0
 31
0.0
 12
0.0
 22
-0.5773502700000001
 32
0.0
 13
0.0
 23
-0.5773502700000001
 33
0.0
  0
ENDBLK
  5
FDF
330
FDC
100
AcDbEntity
  8
0
100
AcDbBlockEnd
  0
BLOCK
  5
1BD3
330
1BC9
100
AcDbEntity
  8
0
100
AcDbBlockBegin
  2
*D5
 70
     1
 10
0.0
 20
0.0
 30
0.0
  3
*D5
  1

  0
LINE
  5
215F
330
1BC9
100
AcDbEntity
  8
SUNPO
 62
   144
100
AcDbLine
 10
2164.999999999999
 20
2080.000000000002
 30
0.0
 11
2164.999999999999
 21
1940.0
 31
0.0
  0
LINE
  5
2160
330
1BC9
100
AcDbEntity
  8
SUNPO
 62
   144
100
AcDbLine
 10
2374.999999999999
 20
2080.000000000003
 30
0.0
 11
2374.999999999999
 21
1940.0
 31
0.0
  0
LINE
  5
2161
330
1BC9
100
AcDbEntity
  8
SUNPO
 62
   144
100
AcDbLine
 10
2192.999999999999
 20
1950.0
 30
0.0
 11
2346.999999999999
 21
1950.0
 31
0.0
  0
SOLID
  5
2162
330
1BC9
100
AcDbEntity
  8
SUNPO
 62
   144
100
AcDbTrace
 10
2192.999999999999
 20
1954.666666666666
 30
0.0
 11
2192.999999999999
 21
1945.333333333333
 31
0.0
 12
2164.999999999999
 22
1950.0
 32
0.0
 13
2164.999999999999
 23
1950.0
 33
0.0
  0
SOLID
  5
2163
330
1BC9
100
AcDbEntity
  8
SUNPO
 62
   144
100
AcDbTrace
 10
2346.999999999999
 20
1954.666666666666
 30
0.0
 11
2346.999999999999
 21
1945.333333333333
 31
0.0
 12
2374.999999999999
 22
1950.0
 32
0.0
 13
2374.999999999999
 23
1950.0
 33
0.0
  0
MTEXT
  5
2164
330
1BC9
100
AcDbEntity
  8
SUNPO
 62
     7
100
AcDbMText
 10
2269.999999999999
 20
1980.5
 30
0.0
 40
36.0
 41
0.0
 71
     5
 72
     1
  1
\A2;210
  7
ADD
1001
ACAD
1000
MTEXTBEGIN
1070
    73
1070
     1
1070
    44
1040
1.0
1070
    74
1070
     0
1000
MTEXTEND
1000
MTEXTBEGIN
1070
    73
1070
     1
1070
    44
1040
1.0
1070
    74
1070
     0
1000
MTEXTEND
1000
MTEXTBEGIN
1070
    73
1070
     1
1070
    44
1040
1.0
1070
    74
1070
     0
1000
MTEXTEND
  0
POINT
  5
2165
330
1BC9
100
AcDbEntity
  8
DEFPOINTS
 62
     0
100
AcDbPoint
 10
2164.999999999999
 20
2100.000000000002
 30
0.0
  0
POINT
  5
2166
330
1BC9
100
AcDbEntity
  8
DEFPOINTS
 62
     0
100
AcDbPoint
 10
2374.999999999999
 20
2100.000000000002
 30
0.0
  0
POINT
  5
2167
330
1BC9
100
AcDbEntity
  8
DEFPOINTS
 62
     0
100
AcDbPoint
 10
2374.999999999999
 20
1950.0
 30
0.0
  0
ENDBLK
  5
1BD4
330
1BC9
100
AcDbEntity
  8
0
100
AcDbBlockEnd
  0
BLOCK
  5
1D21
330
1D17
100
AcDbEntity
  8
0
100
AcDbBlockBegin
  2
*D6
 70
     1
 10
0.0
 20
0.0
 30
0.0
  3
*D6
  1

  0
LINE
  5
2156
330
1D17
100
AcDbEntity
  8
SUNPO
 62
   144
100
AcDbLine
 10
2395.0
 20
2100.0
 30
0.0
 11
2535.0
 21
2100.0
 31
0.0
  0
LINE
  5
2157
330
1D17
100
AcDbEntity
  8
SUNPO
 62
   144
100
AcDbLine
 10
2395.0
 20
2220.0
 30
0.0
 11
2535.0
 21
2220.0
 31
0.0
  0
LINE
  5
2158
330
1D17
100
AcDbEntity
  8
SUNPO
 62
   144
100
AcDbLine
 10
2525.0
 20
2128.0
 30
0.0
 11
2525.0
 21
2192.0
 31
0.0
  0
SOLID
  5
2159
330
1D17
100
AcDbEntity
  8
SUNPO
 62
   144
100
AcDbTrace
 10
2520.333333333333
 20
2128.0
 30
0.0
 11
2529.666666666666
 21
2128.0
 31
0.0
 12
2525.0
 22
2100.0
 32
0.0
 13
2525.0
 23
2100.0
 33
0.0
  0
SOLID
  5
215A
330
1D17
100
AcDbEntity
  8
SUNPO
 62
   144
100
AcDbTrace
 10
2520.333333333333
 20
2192.0
 30
0.0
 11
2529.666666666666
 21
2192.0
 31
0.0
 12
2525.0
 22
2220.0
 32
0.0
 13
2525.0
 23
2220.0
 33
0.0
  0
MTEXT
  5
215B
330
1D17
100
AcDbEntity
  8
SUNPO
 62
     7
100
AcDbMText
 10
2494.499999999999
 20
2160.0
 30
0.0
 40
36.0
 41
0.0
 71
     5
 72
     1
  1
\A2;120
  7
ADD
 11
0.0000000000000001
 21
1.0
 31
0.0
1001
ACAD
1000
MTEXTBEGIN
1070
    73
1070
     1
1070
    44
1040
1.0
1070
    74
1070
     0
1000
MTEXTEND
1000
MTEXTBEGIN
1070
    73
1070
     1
1070
    44
1040
1.0
1070
    74
1070
     0
1000
MTEXTEND
1000
MTEXTBEGIN
1070
    73
1070
     1
1070
    44
1040
1.0
1070
    74
1070
     0
1000
MTEXTEND
  0
POINT
  5
215C
330
1D17
100
AcDbEntity
  8
DEFPOINTS
 62
     0
100
AcDbPoint
 10
2375.0
 20
2100.0
 30
0.0
  0
POINT
  5
215D
330
1D17
100
AcDbEntity
  8
DEFPOINTS
 62
     0
100
AcDbPoint
 10
2375.0
 20
2220.0
 30
0.0
  0
POINT
  5
215E
330
1D17
100
AcDbEntity
  8
DEFPOINTS
 62
     0
100
AcDbPoint
 10
2525.0
 20
2220.0
 30
0.0
  0
ENDBLK
  5
1D22
330
1D17
100
AcDbEntity
  8
0
100
AcDbBlockEnd
  0
BLOCK
  5
1D2E
330
1D27
100
AcDbEntity
  8
0
100
AcDbBlockBegin
  2
*D7
 70
     1
 10
0.0
 20
0.0
 30
0.0
  3
*D7
  1

  0
LINE
  5
2150
330
1D27
100
AcDbEntity
  8
SUNPO
 62
   144
100
AcDbLine
 10
2063.786692967083
 20
2343.769258408544
 30
0.0
 11
2161.261724696129
 21
2235.650531974369
 31
0.0
  0
MTEXT
  5
2151
330
1D27
100
AcDbEntity
  8
SUNPO
 62
     7
100
AcDbMText
 10
2125.80271225089
 20
2320.530851486551
 30
0.0
 40
36.0
 41
0.0
 71
     5
 72
     1
  1
\A2;R20
  7
ADD
 11
0.6696027694831455
 21
-0.7427194161327019
 31
0.0
1001
ACAD
1000
MTEXTBEGIN
1070
    73
1070
     1
1070
    44
1040
1.0
1070
    74
1070
     0
1000
MTEXTEND
1000
MTEXTBEGIN
1070
    73
1070
     1
1070
    44
1040
1.0
1070
    74
1070
     0
1000
MTEXTEND
1000
MTEXTBEGIN
1070
    73
1070
     1
1070
    44
1040
1.0
1070
    74
1070
     0
1000
MTEXTEND
  0
LINE
  5
2152
330
1D27
100
AcDbEntity
  8
SUNPO
 62
   144
100
AcDbLine
 10
2193.40265763132
 20
2200.0
 30
0.0
 11
2180.010602241657
 21
2214.854388322654
 31
0.0
  0
SOLID
  5
2153
330
1D27
100
AcDbEntity
  8
SUNPO
 62
   144
100
AcDbTrace
 10
2164.727748638081
 20
2238.775344898624
 30
0.0
 11
2157.795700754177
 21
2232.525719050115
 31
0.0
 12
2180.010602241657
 22
2214.854388322654
 32
0.0
 13
2180.010602241657
 23
2214.854388322654
 33
0.0
  0
POINT
  5
2154
330
1D27
100
AcDbEntity
  8
DEFPOINTS
 62
     0
100
AcDbPoint
 10
2180.010602241657
 20
2214.854388322654
 30
0.0
  0
POINT
  5
2155
330
1D27
100
AcDbEntity
  8
DEFPOINTS
 62
     0
100
AcDbPoint
 10
2193.40265763132
 20
2200.0
 30
0.0
  0
ENDBLK
  5
1D2F
330
1D27
100
AcDbEntity
  8
0
100
AcDbBlockEnd
  0
BLOCK
  5
1D38
330
1D31
100
AcDbEntity
  8
0
100
AcDbBlockBegin
  2
*D8
 70
     1
 10
0.0
 20
0.0
 30
0.0
  3
*D8
  1

  0
LINE
  5
214A
330
1D31
100
AcDbEntity
  8
SUNPO
 62
   144
100
AcDbLine
 10
2475.639845420094
 20
2344.284199985339
 30
0.0
 11
2378.596073752647
 21
2235.778222284188
 31
0.0
  0
MTEXT
  5
214B
330
1D31
100
AcDbEntity
  8
SUNPO
 62
     7
100
AcDbMText
 10
2413.716844163616
 20
2320.799053201214
 30
0.0
 40
36.0
 41
0.0
 71
     5
 72
     1
  1
\A2;R20
  7
ADD
 11
0.6666402371659811
 21
0.7453796309205698
 31
0.0
1001
ACAD
1000
MTEXTBEGIN
1070
    73
1070
     1
1070
    44
1040
1.0
1070
    74
1070
     0
1000
MTEXTEND
1000
MTEXTBEGIN
1070
    73
1070
     1
1070
    44
1040
1.0
1070
    74
1070
     0
1000
MTEXTEND
1000
MTEXTBEGIN
1070
    73
1070
     1
1070
    44
1040
1.0
1070
    74
1070
     0
1000
MTEXTEND
  0
LINE
  5
214C
330
1D31
100
AcDbEntity
  8
SUNPO
 62
   144
100
AcDbLine
 10
2346.59734236868
 20
2200.000000000001
 30
0.0
 11
2359.930147111999
 21
2214.907592618411
 31
0.0
  0
SOLID
  5
214D
330
1D31
100
AcDbEntity
  8
SUNPO
 62
   144
100
AcDbTrace
 10
2375.117635475017
 20
2238.889210057629
 30
0.0
 11
2382.074512030276
 21
2232.667234510747
 31
0.0
 12
2359.930147111999
 22
2214.907592618411
 32
0.0
 13
2359.930147111999
 23
2214.907592618411
 33
0.0
  0
POINT
  5
214E
330
1D31
100
AcDbEntity
  8
DEFPOINTS
 62
     0
100
AcDbPoint
 10
2359.930147111999
 20
2214.907592618411
 30
0.0
  0
POINT
  5
214F
330
1D31
100
AcDbEntity
  8
DEFPOINTS
 62
     0
100
AcDbPoint
 10
2346.59734236868
 20
2200.000000000001
 30
0.0
  0
ENDBLK
  5
1D39
330
1D31
100
AcDbEntity
  8
0
100
AcDbBlockEnd
  0
BLOCK
  5
1D4E
330
1D44
100
AcDbEntity
  8
0
100
AcDbBlockBegin
  2
*D9
 70
     1
 10
0.0
 20
0.0
 30
0.0
  3
*D9
  1

  0
LINE
  5
2141
330
1D44
100
AcDbEntity
  8
SUNPO
 62
   144
100
AcDbLine
 10
2175.0
 20
2240.0
 30
0.0
 11
2175.0
 21
2380.0
 31
0.0
  0
LINE
  5
2142
330
1D44
100
AcDbEntity
  8
SUNPO
 62
   144
100
AcDbLine
 10
2365.0
 20
2240.0
 30
0.0
 11
2365.0
 21
2380.0
 31
0.0
  0
LINE
  5
2143
330
1D44
100
AcDbEntity
  8
SUNPO
 62
   144
100
AcDbLine
 10
2203.0
 20
2370.0
 30
0.0
 11
2337.0
 21
2370.0
 31
0.0
  0
SOLID
  5
2144
330
1D44
100
AcDbEntity
  8
SUNPO
 62
   144
100
AcDbTrace
 10
2203.0
 20
2374.666666666666
 30
0.0
 11
2203.0
 21
2365.333333333333
 31
0.0
 12
2175.0
 22
2370.0
 32
0.0
 13
2175.0
 23
2370.0
 33
0.0
  0
SOLID
  5
2145
330
1D44
100
AcDbEntity
  8
SUNPO
 62
   144
100
AcDbTrace
 10
2337.0
 20
2374.666666666666
 30
0.0
 11
2337.0
 21
2365.333333333333
 31
0.0
 12
2365.0
 22
2370.0
 32
0.0
 13
2365.0
 23
2370.0
 33
0.0
  0
MTEXT
  5
2146
330
1D44
100
AcDbEntity
  8
SUNPO
 62
     7
100
AcDbMText
 10
2270.0
 20
2400.5
 30
0.0
 40
36.0
 41
0.0
 71
     5
 72
     1
  1
\A2;190
  7
ADD
1001
ACAD
1000
MTEXTBEGIN
1070
    73
1070
     1
1070
    44
1040
1.0
1070
    74
1070
     0
1000
MTEXTEND
1000
MTEXTBEGIN
1070
    73
1070
     1
1070
    44
1040
1.0
1070
    74
1070
     0
1000
MTEXTEND
1000
MTEXTBEGIN
1070
    73
1070
     1
1070
    44
1040
1.0
1070
    74
1070
     0
1000
MTEXTEND
  0
POINT
  5
2147
330
1D44
100
AcDbEntity
  8
DEFPOINTS
 62
     0
100
AcDbPoint
 10
2175.0
 20
2220.0
 30
0.0
  0
POINT
  5
2148
330
1D44
100
AcDbEntity
  8
DEFPOINTS
 62
     0
100
AcDbPoint
 10
2365.0
 20
2220.0
 30
0.0
  0
POINT
  5
2149
330
1D44
100
AcDbEntity
  8
DEFPOINTS
 62
     0
100
AcDbPoint
 10
2365.0
 20
2370.0
 30
0.0
  0
ENDBLK
  5
1D4F
330
1D44
100
AcDbEntity
  8
0
100
AcDbBlockEnd
  0
BLOCK
  5
1EA5
330
1E9B
100
AcDbEntity
  8
0
100
AcDbBlockBegin
  2
*D10
 70
     1
 10
0.0
 20
0.0
 30
0.0
  3
*D10
  1

  0
LINE
  5
1E9C
330
1E9B
100
AcDbEntity
  8
SUNPO
 62
   144
100
AcDbLine
 10
2650.0
 20
2080.0
 30
0.0
 11
2650.0
 21
1940.0
 31
0.0
  0
LINE
  5
1E9D
330
1E9B
100
AcDbEntity
  8
SUNPO
 62
   144
100
AcDbLine
 10
3249.999999999999
 20
2080.0
 30
0.0
 11
3249.999999999999
 21
1940.0
 31
0.0
  0
LINE
  5
1E9E
330
1E9B
100
AcDbEntity
  8
SUNPO
 62
   144
100
AcDbLine
 10
2678.0
 20
1950.0
 30
0.0
 11
3221.999999999999
 21
1950.0
 31
0.0
  0
SOLID
  5
1E9F
330
1E9B
100
AcDbEntity
  8
SUNPO
 62
   144
100
AcDbTrace
 10
2678.0
 20
1954.666666666666
 30
0.0
 11
2678.0
 21
1945.333333333333
 31
0.0
 12
2650.0
 22
1950.0
 32
0.0
 13
2650.0
 23
1950.0
 33
0.0
  0
SOLID
  5
1EA0
330
1E9B
100
AcDbEntity
  8
SUNPO
 62
   144
100
AcDbTrace
 10
3221.999999999999
 20
1954.666666666666
 30
0.0
 11
3221.999999999999
 21
1945.333333333333
 31
0.0
 12
3249.999999999999
 22
1950.0
 32
0.0
 13
3249.999999999999
 23
1950.0
 33
0.0
  0
MTEXT
  5
1EA1
330
1E9B
100
AcDbEntity
  8
SUNPO
 62
     7
100
AcDbMText
 10
2950.0
 20
1980.5
 30
0.0
 40
36.0
 41
0.0
 71
     5
 72
     1
  1
\A2;600
  7
ADD
1001
ACAD
1000
MTEXTBEGIN
1070
    73
1070
     1
1070
    44
1040
1.0
1070
    74
1070
     0
1000
MTEXTEND
1000
MTEXTBEGIN
1070
    73
1070
     1
1070
    44
1040
1.0
1070
    74
1070
     0
1000
MTEXTEND
1000
MTEXTBEGIN
1070
    73
1070
     1
1070
    44
1040
1.0
1070
    74
1070
     0
1000
MTEXTEND
1000
MTEXTBEGIN
1070
    73
1070
     1
1070
    44
1040
1.0
1070
    74
1070
     0
1000
MTEXTEND
  0
POINT
  5
1EA2
330
1E9B
100
AcDbEntity
  8
DEFPOINTS
 62
     0
100
AcDbPoint
 10
2650.0
 20
2100.0
 30
0.0
  0
POINT
  5
1EA3
330
1E9B
100
AcDbEntity
  8
DEFPOINTS
 62
     0
100
AcDbPoint
 10
3249.999999999999
 20
2100.0
 30
0.0
  0
POINT
  5
1EA4
330
1E9B
100
AcDbEntity
  8
DEFPOINTS
 62
     0
100
AcDbPoint
 10
3249.999999999999
 20
1950.0
 30
0.0
  0
ENDBLK
  5
1EA6
330
1E9B
100
AcDbEntity
  8
0
100
AcDbBlockEnd
  0
BLOCK
  5
1EBA
330
1EB0
100
AcDbEntity
  8
0
100
AcDbBlockBegin
  2
*D11
 70
     1
 10
0.0
 20
0.0
 30
0.0
  3
*D11
  1

  0
LINE
  5
217D
330
1EB0
100
AcDbEntity
  8
SUNPO
 62
   144
100
AcDbLine
 10
3524.999999999999
 20
2080.000000000002
 30
0.0
 11
3524.999999999999
 21
1940.0
 31
0.0
  0
LINE
  5
217E
330
1EB0
100
AcDbEntity
  8
SUNPO
 62
   144
100
AcDbLine
 10
3734.999999999999
 20
2080.0
 30
0.0
 11
3734.999999999999
 21
1940.0
 31
0.0
  0
LINE
  5
217F
330
1EB0
100
AcDbEntity
  8
SUNPO
 62
   144
100
AcDbLine
 10
3552.999999999999
 20
1950.0
 30
0.0
 11
3706.999999999999
 21
1950.0
 31
0.0
  0
SOLID
  5
2180
330
1EB0
100
AcDbEntity
  8
SUNPO
 62
   144
100
AcDbTrace
 10
3552.999999999999
 20
1954.666666666666
 30
0.0
 11
3552.999999999999
 21
1945.333333333333
 31
0.0
 12
3524.999999999999
 22
1950.0
 32
0.0
 13
3524.999999999999
 23
1950.0
 33
0.0
  0
SOLID
  5
2181
330
1EB0
100
AcDbEntity
  8
SUNPO
 62
   144
100
AcDbTrace
 10
3706.999999999999
 20
1954.666666666666
 30
0.0
 11
3706.999999999999
 21
1945.333333333333
 31
0.0
 12
3734.999999999999
 22
1950.0
 32
0.0
 13
3734.999999999999
 23
1950.0
 33
0.0
  0
MTEXT
  5
2182
330
1EB0
100
AcDbEntity
  8
SUNPO
 62
     7
100
AcDbMText
 10
3629.999999999999
 20
1980.5
 30
0.0
 40
36.0
 41
0.0
 71
     5
 72
     1
  1
\A2;210
  7
ADD
1001
ACAD
1000
MTEXTBEGIN
1070
    73
1070
     1
1070
    44
1040
1.0
1070
    74
1070
     0
1000
MTEXTEND
1000
MTEXTBEGIN
1070
    73
1070
     1
1070
    44
1040
1.0
1070
    74
1070
     0
1000
MTEXTEND
1000
MTEXTBEGIN
1070
    73
1070
     1
1070
    44
1040
1.0
1070
    74
1070
     0
1000
MTEXTEND
  0
POINT
  5
2183
330
1EB0
100
AcDbEntity
  8
DEFPOINTS
 62
     0
100
AcDbPoint
 10
3524.999999999999
 20
2100.000000000002
 30
0.0
  0
POINT
  5
2184
330
1EB0
100
AcDbEntity
  8
DEFPOINTS
 62
     0
100
AcDbPoint
 10
3734.999999999999
 20
2100.0
 30
0.0
  0
POINT
  5
2185
330
1EB0
100
AcDbEntity
  8
DEFPOINTS
 62
     0
100
AcDbPoint
 10
3734.999999999999
 20
1950.0
 30
0.0
  0
ENDBLK
  5
1EBB
330
1EB0
100
AcDbEntity
  8
0
100
AcDbBlockEnd
  0
BLOCK
  5
1EC7
330
1EBD
100
AcDbEntity
  8
0
100
AcDbBlockBegin
  2
*D12
 70
     1
 10
0.0
 20
0.0
 30
0.0
  3
*D12
  1

  0
LINE
  5
2174
330
1EBD
100
AcDbEntity
  8
SUNPO
 62
   144
100
AcDbLine
 10
3552.5
 20
2420.0
 30
0.0
 11
3552.5
 21
2560.0
 31
0.0
  0
LINE
  5
2175
330
1EBD
100
AcDbEntity
  8
SUNPO
 62
   144
100
AcDbLine
 10
3707.5
 20
2420.0
 30
0.0
 11
3707.5
 21
2560.0
 31
0.0
  0
LINE
  5
2176
330
1EBD
100
AcDbEntity
  8
SUNPO
 62
   144
100
AcDbLine
 10
3580.5
 20
2550.0
 30
0.0
 11
3679.5
 21
2550.0
 31
0.0
  0
SOLID
  5
2177
330
1EBD
100
AcDbEntity
  8
SUNPO
 62
   144
100
AcDbTrace
 10
3580.5
 20
2554.666666666666
 30
0.0
 11
3580.5
 21
2545.333333333333
 31
0.0
 12
3552.5
 22
2550.0
 32
0.0
 13
3552.5
 23
2550.0
 33
0.0
  0
SOLID
  5
2178
330
1EBD
100
AcDbEntity
  8
SUNPO
 62
   144
100
AcDbTrace
 10
3679.5
 20
2554.666666666666
 30
0.0
 11
3679.5
 21
2545.333333333333
 31
0.0
 12
3707.5
 22
2550.0
 32
0.0
 13
3707.5
 23
2550.0
 33
0.0
  0
MTEXT
  5
2179
330
1EBD
100
AcDbEntity
  8
SUNPO
 62
     7
100
AcDbMText
 10
3630.0
 20
2580.5
 30
0.0
 40
36.0
 41
0.0
 71
     5
 72
     1
  1
\A2;155
  7
ADD
1001
ACAD
1000
MTEXTBEGIN
1070
    73
1070
     1
1070
    44
1040
1.0
1070
    74
1070
     0
1000
MTEXTEND
1000
MTEXTBEGIN
1070
    73
1070
     1
1070
    44
1040
1.0
1070
    74
1070
     0
1000
MTEXTEND
1000
MTEXTBEGIN
1070
    73
1070
     1
1070
    44
1040
1.0
1070
    74
1070
     0
1000
MTEXTEND
  0
POINT
  5
217A
330
1EBD
100
AcDbEntity
  8
DEFPOINTS
 62
     0
100
AcDbPoint
 10
3552.5
 20
2400.0
 30
0.0
  0
POINT
  5
217B
330
1EBD
100
AcDbEntity
  8
DEFPOINTS
 62
     0
100
AcDbPoint
 10
3707.5
 20
2400.0
 30
0.0
  0
POINT
  5
217C
330
1EBD
100
AcDbEntity
  8
DEFPOINTS
 62
     0
100
AcDbPoint
 10
3707.5
 20
2550.0
 30
0.0
  0
ENDBLK
  5
1EC8
330
1EBD
100
AcDbEntity
  8
0
100
AcDbBlockEnd
  0
BLOCK
  5
1F7F
330
1F75
100
AcDbEntity
  8
0
100
AcDbBlockBegin
  2
*D13
 70
     1
 10
0.0
 20
0.0
 30
0.0
  3
*D13
  1

  0
LINE
  5
1F76
330
1F75
100
AcDbEntity
  8
SUNPO
 62
   144
100
AcDbLine
 10
3270.0
 20
2400.0
 30
0.0
 11
3410.0
 21
2400.0
 31
0.0
  0
LINE
  5
1F77
330
1F75
100
AcDbEntity
  8
SUNPO
 62
   144
100
AcDbLine
 10
3270.0
 20
2100.0
 30
0.0
 11
3410.0
 21
2100.0
 31
0.0
  0
LINE
  5
1F78
330
1F75
100
AcDbEntity
  8
SUNPO
 62
   144
100
AcDbLine
 10
3400.0
 20
2372.0
 30
0.0
 11
3400.0
 21
2128.0
 31
0.0
  0
SOLID
  5
1F79
330
1F75
100
AcDbEntity
  8
SUNPO
 62
   144
100
AcDbTrace
 10
3395.333333333333
 20
2372.0
 30
0.0
 11
3404.666666666666
 21
2372.0
 31
0.0
 12
3400.0
 22
2400.0
 32
0.0
 13
3400.0
 23
2400.0
 33
0.0
  0
SOLID
  5
1F7A
330
1F75
100
AcDbEntity
  8
SUNPO
 62
   144
100
AcDbTrace
 10
3395.333333333333
 20
2128.0
 30
0.0
 11
3404.666666666666
 21
2128.0
 31
0.0
 12
3400.0
 22
2100.0
 32
0.0
 13
3400.0
 23
2100.0
 33
0.0
  0
MTEXT
  5
1F7B
330
1F75
100
AcDbEntity
  8
SUNPO
 62
     7
100
AcDbMText
 10
3369.499999999999
 20
2250.000000000001
 30
0.0
 40
36.0
 41
0.0
 71
     5
 72
     1
  1
\A2;300
  7
ADD
 11
0.0000000000000001
 21
1.0
 31
0.0
1001
ACAD
1000
MTEXTBEGIN
1070
    73
1070
     1
1070
    44
1040
1.0
1070
    74
1070
     0
1000
MTEXTEND
1000
MTEXTBEGIN
1070
    73
1070
     1
1070
    44
1040
1.0
1070
    74
1070
     0
1000
MTEXTEND
1000
MTEXTBEGIN
1070
    73
1070
     1
1070
    44
1040
1.0
1070
    74
1070
     0
1000
MTEXTEND
1000
MTEXTBEGIN
1070
    73
1070
     1
1070
    44
1040
1.0
1070
    74
1070
     0
1000
MTEXTEND
  0
POINT
  5
1F7C
330
1F75
100
AcDbEntity
  8
DEFPOINTS
 62
     0
100
AcDbPoint
 10
3250.0
 20
2400.0
 30
0.0
  0
POINT
  5
1F7D
330
1F75
100
AcDbEntity
  8
DEFPOINTS
 62
     0
100
AcDbPoint
 10
3250.0
 20
2100.0
 30
0.0
  0
POINT
  5
1F7E
330
1F75
100
AcDbEntity
  8
DEFPOINTS
 62
     0
100
AcDbPoint
 10
3400.0
 20
2100.0
 30
0.0
  0
ENDBLK
  5
1F80
330
1F75
100
AcDbEntity
  8
0
100
AcDbBlockEnd
  0
BLOCK
  5
1FA1
330
1F9A
100
AcDbEntity
  8
0
100
AcDbBlockBegin
  2
*D14
 70
     1
 10
0.0
 20
0.0
 30
0.0
  3
*D14
  1

  0
LINE
  5
216E
330
1F9A
100
AcDbEntity
  8
SUNPO
 62
   144
100
AcDbLine
 10
3442.670199424085
 20
2520.386022418108
 30
0.0
 11
3540.784223681683
 21
2412.846824632808
 31
0.0
  0
MTEXT
  5
216F
330
1F9A
100
AcDbEntity
  8
SUNPO
 62
     7
100
AcDbMText
 10
3504.822838981655
 20
2497.51552613778
 30
0.0
 40
36.0
 41
0.0
 71
     5
 72
     1
  1
\A2;R30
  7
ADD
 11
0.6739923158029293
 21
-0.7387383557380817
 31
0.0
1001
ACAD
1000
MTEXTBEGIN
1070
    73
1070
     1
1070
    44
1040
1.0
1070
    74
1070
     0
1000
MTEXTEND
1000
MTEXTBEGIN
1070
    73
1070
     1
1070
    44
1040
1.0
1070
    74
1070
     0
1000
MTEXTEND
1000
MTEXTBEGIN
1070
    73
1070
     1
1070
    44
1040
1.0
1070
    74
1070
     0
1000
MTEXTEND
  0
LINE
  5
2170
330
1F9A
100
AcDbEntity
  8
SUNPO
 62
   144
100
AcDbLine
 10
3579.875777998253
 20
2369.999999999999
 30
0.0
 11
3559.656008524165
 21
2392.162150672141
 31
0.0
  0
SOLID
  5
2171
330
1F9A
100
AcDbEntity
  8
SUNPO
 62
   144
100
AcDbTrace
 10
3544.231669341794
 20
2415.992122106555
 30
0.0
 11
3537.336778021571
 21
2409.70152715906
 31
0.0
 12
3559.656008524165
 22
2392.162150672141
 32
0.0
 13
3559.656008524165
 23
2392.162150672141
 33
0.0
  0
POINT
  5
2172
330
1F9A
100
AcDbEntity
  8
DEFPOINTS
 62
     0
100
AcDbPoint
 10
3559.656008524165
 20
2392.162150672141
 30
0.0
  0
POINT
  5
2173
330
1F9A
100
AcDbEntity
  8
DEFPOINTS
 62
     0
100
AcDbPoint
 10
3579.875777998253
 20
2369.999999999999
 30
0.0
  0
ENDBLK
  5
1FA2
330
1F9A
100
AcDbEntity
  8
0
100
AcDbBlockEnd
  0
BLOCK
  5
1FD3
330
1FCC
100
AcDbEntity
  8
0
100
AcDbBlockBegin
  2
*D15
 70
     1
 10
0.0
 20
0.0
 30
0.0
  3
*D15
  1

  0
LINE
  5
2168
330
1FCC
100
AcDbEntity
  8
SUNPO
 62
   144
100
AcDbLine
 10
3816.679236967391
 20
2520.976999633538
 30
0.0
 11
3719.030422756871
 21
2413.015201299099
 31
0.0
  0
MTEXT
  5
2169
330
1FCC
100
AcDbEntity
  8
SUNPO
 62
     7
100
AcDbMText
 10
3754.625919016428
 20
2497.838375314916
 30
0.0
 40
36.0
 41
0.0
 71
     5
 72
     1
  1
\A2;R30
  7
ADD
 11
0.6707965647435098
 21
0.7416414017086064
 31
0.0
1001
ACAD
1000
MTEXTBEGIN
1070
    73
1070
     1
1070
    44
1040
1.0
1070
    74
1070
     0
1000
MTEXTEND
1000
MTEXTBEGIN
1070
    73
1070
     1
1070
    44
1040
1.0
1070
    74
1070
     0
1000
MTEXTEND
1000
MTEXTBEGIN
1070
    73
1070
     1
1070
    44
1040
1.0
1070
    74
1070
     0
1000
MTEXTEND
  0
LINE
  5
216A
330
1FCC
100
AcDbEntity
  8
SUNPO
 62
   144
100
AcDbLine
 10
3680.124222001748
 20
2370.0
 30
0.0
 11
3700.248118944053
 21
2392.249242051258
 31
0.0
  0
SOLID
  5
216B
330
1FCC
100
AcDbEntity
  8
SUNPO
 62
   144
100
AcDbTrace
 10
3715.569429548898
 20
2416.145585267901
 30
0.0
 11
3722.491415964845
 21
2409.884817330295
 31
0.0
 12
3700.248118944053
 22
2392.249242051258
 32
0.0
 13
3700.248118944053
 23
2392.249242051258
 33
0.0
  0
POINT
  5
216C
330
1FCC
100
AcDbEntity
  8
DEFPOINTS
 62
     0
100
AcDbPoint
 10
3700.248118944053
 20
2392.249242051258
 30
0.0
  0
POINT
  5
216D
330
1FCC
100
AcDbEntity
  8
DEFPOINTS
 62
     0
100
AcDbPoint
 10
3680.124222001748
 20
2370.0
 30
0.0
  0
ENDBLK
  5
1FD4
330
1FCC
100
AcDbEntity
  8
0
100
AcDbBlockEnd
  0
ENDSEC
  0
SECTION
  2
ENTITIES
  0
LINE
  5
60B
330
1F
100
AcDbEntity
  8
3C1
100
AcDbLine
 10
360.0
 20
560.0
 30
0.0
 11
5580.0
 21
560.0
 31
0.0
  0
LINE
  5
60D
330
1F
100
AcDbEntity
  8
3C1
100
AcDbLine
 10
2360.0
 20
260.0
 30
0.0
 11
2360.0
 21
560.0
 31
0.0
  0
LINE
  5
60F
330
1F
100
AcDbEntity
  8
3C1
100
AcDbLine
 10
3160.0
 20
260.0
 30
0.0
 11
3160.0
 21
560.0
 31
0.0
  0
LINE
  5
610
330
1F
100
AcDbEntity
  8
3C1
100
AcDbLine
 10
3660.0
 20
260.0
 30
0.0
 11
3660.0
 21
560.0
 31
0.0
  0
LINE
  5
1912
330
1F
100
AcDbEntity
  8
3C1
100
AcDbLine
 10
2650.0
 20
2220.0
 30
0.0
 11
2650.0
 21
2100.0
 31
0.0
  0
LINE
  5
1BB8
330
1F
100
AcDbEntity
  8
3C1
100
AcDbLine
 10
2164.999999999999
 20
2100.000000000002
 30
0.0
 11
2375.0
 21
2100.0
 31
0.0
  0
LINE
  5
1C0D
330
1F
100
AcDbEntity
  8
3C1
100
AcDbLine
 10
2650.0
 20
2100.0
 30
0.0
 11
3250.0
 21
2100.0
 31
0.0
  0
LINE
  5
1D06
330
1F
100
AcDbEntity
  8
3C1
100
AcDbLine
 10
2164.999999999999
 20
2100.0
 30
0.0
 11
2173.471742466423
 21
2201.660909597074
 31
0.0
  0
LINE
  5
1D07
330
1F
100
AcDbEntity
  8
3C1
100
AcDbLine
 10
2193.40265763132
 20
2220.0
 30
0.0
 11
2346.597342368679
 21
2220.0
 31
0.0
  0
LINE
  5
1D08
330
1F
100
AcDbEntity
  8
3C1
100
AcDbLine
 10
2366.528257533577
 20
2201.660909597074
 30
0.0
 11
2375.0
 21
2100.0
 31
0.0
  0
ARC
  5
1D24
330
1F
100
AcDbEntity
  8
3C1
100
AcDbCircle
 10
2193.40265763132
 20
2200.0
 30
0.0
 40
20.0
100
AcDbArc
 50
90.0
 51
175.2363583092736
  0
ARC
  5
1D25
330
1F
100
AcDbEntity
  8
3C1
100
AcDbCircle
 10
2346.597342368679
 20
2200.0
 30
0.0
 40
20.0
100
AcDbArc
 50
4.763641690726179
 51
90.0
  0
LINE
  5
1EA7
330
1F
100
AcDbEntity
  8
3C1
100
AcDbLine
 10
2650.0
 20
2220.0
 30
0.0
 11
3250.0
 21
2400.0
 31
0.0
  0
LINE
  5
1EA8
330
1F
100
AcDbEntity
  8
3C1
100
AcDbLine
 10
3250.0
 20
2400.0
 30
0.0
 11
3249.999999999999
 21
2100.0
 31
0.0
  0
LINE
  5
1EA9
330
1F
100
AcDbEntity
  8
3C1
100
AcDbLine
 10
3550.001030861359
 20
2372.738518487547
 30
0.0
 11
3524.999999999999
 21
2100.0
 31
0.0
  0
LINE
  5
1EAA
330
1F
100
AcDbEntity
  8
3C1
100
AcDbLine
 10
3524.999999999999
 20
2100.0
 30
0.0
 11
3734.999999999999
 21
2100.0
 31
0.0
  0
LINE
  5
1EAB
330
1F
100
AcDbEntity
  8
3C1
100
AcDbLine
 10
3734.999999999999
 20
2100.0
 30
0.0
 11
3709.998969138641
 21
2372.738518487548
 31
0.0
  0
LINE
  5
1EAC
330
1F
100
AcDbEntity
  8
3C1
100
AcDbLine
 10
3680.124222001747
 20
2399.999999999999
 30
0.0
 11
3579.875777998252
 21
2399.999999999998
 31
0.0
  0
ARC
  5
1EAD
330
1F
100
AcDbEntity
  8
3C1
100
AcDbCircle
 10
3579.875777998252
 20
2369.999999999998
 30
0.0
 40
30.0
100
AcDbArc
 50
90.00000000000067
 51
174.7625239331874
  0
ARC
  5
1EAE
330
1F
100
AcDbEntity
  8
3C1
100
AcDbCircle
 10
3680.124222001747
 20
2369.999999999999
 30
0.0
 40
30.0
100
AcDbArc
 50
5.237476066812423
 51
90.00000000000062
  0
LINE
  5
1F81
330
1F
100
AcDbEntity
  8
SUNPO
100
AcDbLine
 10
3270.0
 20
2400.0
 30
0.0
 11
3505.0
 21
2400.0
 31
0.0
  0
LINE
  5
1F82
330
1F
100
AcDbEntity
  8
SUNPO
100
AcDbLine
 10
3270.0
 20
2100.0
 30
0.0
 11
3505.0
 21
2100.0
 31
0.0
  0
LINE
  5
1F83
330
1F
100
AcDbEntity
  8
SUNPO
100
AcDbLine
 10
2395.0
 20
2100.0
 30
0.0
 11
2630.0
 21
2100.0
 31
0.0
  0
LINE
  5
1F84
330
1F
100
AcDbEntity
  8
SUNPO
100
AcDbLine
 10
2395.0
 20
2220.0
 30
0.0
 11
2630.0
 21
2220.0
 31
0.0
  0
LINE
  5
22FD
330
1F
100
AcDbEntity
  8
SUNPO
 62
   144
100
AcDbLine
 10
3816.679236967391
 20
2520.976999633538
 30
0.0
 11
3719.030422756871
 21
2413.015201299099
 31
0.0
  0
LINE
  5
22FF
330
1F
100
AcDbEntity
  8
SUNPO
 62
   144
100
AcDbLine
 10
3680.124222001748
 20
2370.0
 30
0.0
 11
3700.248118944053
 21
2392.249242051258
 31
0.0
  0
SOLID
  5
2300
330
1F
100
AcDbEntity
  8
SUNPO
 62
   144
100
AcDbTrace
 10
3715.569429548898
 20
2416.145585267901
 30
0.0
 11
3722.491415964845
 21
2409.884817330295
 31
0.0
 12
3700.248118944053
 22
2392.249242051258
 32
0.0
 13
3700.248118944053
 23
2392.249242051258
 33
0.0
  0
LINE
  5
2301
330
1F
100
AcDbEntity
  8
SUNPO
 62
   144
100
AcDbLine
 10
3442.670199424085
 20
2520.386022418108
 30
0.0
 11
3540.784223681683
 21
2412.846824632808
 31
0.0
  0
LINE
  5
2303
330
1F
100
AcDbEntity
  8
SUNPO
 62
   144
100
AcDbLine
 10
3579.875777998253
 20
2369.999999999999
 30
0.0
 11
3559.656008524165
 21
2392.162150672141
 31
0.0
  0
SOLID
  5
2304
330
1F
100
AcDbEntity
  8
SUNPO
 62
   144
100
AcDbTrace
 10
3544.231669341794
 20
2415.992122106555
 30
0.0
 11
3537.336778021571
 21
2409.70152715906
 31
0.0
 12
3559.656008524165
 22
2392.162150672141
 32
0.0
 13
3559.656008524165
 23
2392.162150672141
 33
0.0
  0
LINE
  5
2305
330
1F
100
AcDbEntity
  8
SUNPO
 62
   144
100
AcDbLine
 10
3270.0
 20
2400.0
 30
0.0
 11
3410.0
 21
2400.0
 31
0.0
  0
LINE
  5
2306
330
1F
100
AcDbEntity
  8
SUNPO
 62
   144
100
AcDbLine
 10
3270.0
 20
2100.0
 30
0.0
 11
3410.0
 21
2100.0
 31
0.0
  0
LINE
  5
2307
330
1F
100
AcDbEntity
  8
SUNPO
 62
   144
100
AcDbLine
 10
3400.0
 20
2372.0
 30
0.0
 11
3400.0
 21
2128.0
 31
0.0
  0
SOLID
  5
2308
330
1F
100
AcDbEntity
  8
SUNPO
 62
   144
100
AcDbTrace
 10
3395.333333333333
 20
2372.0
 30
0.0
 11
3404.666666666666
 21
2372.0
 31
0.0
 12
3400.0
 22
2400.0
 32
0.0
 13
3400.0
 23
2400.0
 33
0.0
  0
SOLID
  5
2309
330
1F
100
AcDbEntity
  8
SUNPO
 62
   144
100
AcDbTrace
 10
3395.333333333333
 20
2128.0
 30
0.0
 11
3404.666666666666
 21
2128.0
 31
0.0
 12
3400.0
 22
2100.0
 32
0.0
 13
3400.0
 23
2100.0
 33
0.0
  0
LINE
  5
230B
330
1F
100
AcDbEntity
  8
SUNPO
 62
   144
100
AcDbLine
 10
3552.5
 20
2420.0
 30
0.0
 11
3552.5
 21
2560.0
 31
0.0
  0
LINE
  5
230C
330
1F
100
AcDbEntity
  8
SUNPO
 62
   144
100
AcDbLine
 10
3707.5
 20
2420.0
 30
0.0
 11
3707.5
 21
2560.0
 31
0.0
  0
LINE
  5
230D
330
1F
100
AcDbEntity
  8
SUNPO
 62
   144
100
AcDbLine
 10
3580.5
 20
2550.0
 30
0.0
 11
3679.5
 21
2550.0
 31
0.0
  0
SOLID
  5
230E
330
1F
100
AcDbEntity
  8
SUNPO
 62
   144
100
AcDbTrace
 10
3580.5
 20
2554.666666666666
 30
0.0
 11
3580.5
 21
2545.333333333333
 31
0.0
 12
3552.5
 22
2550.0
 32
0.0
 13
3552.5
 23
2550.0
 33
0.0
  0
SOLID
  5
230F
330
1F
100
AcDbEntity
  8
SUNPO
 62
   144
100
AcDbTrace
 10
3679.5
 20
2554.666666666666
 30
0.0
 11
3679.5
 21
2545.333333333333
 31
0.0
 12
3707.5
 22
2550.0
 32
0.0
 13
3707.5
 23
2550.0
 33
0.0
  0
LINE
  5
2311
330
1F
100
AcDbEntity
  8
SUNPO
 62
   144
100
AcDbLine
 10
3524.999999999999
 20
2080.000000000002
 30
0.0
 11
3524.999999999999
 21
1940.0
 31
0.0
  0
LINE
  5
2312
330
1F
100
AcDbEntity
  8
SUNPO
 62
   144
100
AcDbLine
 10
3734.999999999999
 20
2080.0
 30
0.0
 11
3734.999999999999
 21
1940.0
 31
0.0
  0
LINE
  5
2313
330
1F
100
AcDbEntity
  8
SUNPO
 62
   144
100
AcDbLine
 10
3552.999999999999
 20
1950.0
 30
0.0
 11
3706.999999999999
 21
1950.0
 31
0.0
  0
SOLID
  5
2314
330
1F
100
AcDbEntity
  8
SUNPO
 62
   144
100
AcDbTrace
 10
3552.999999999999
 20
1954.666666666666
 30
0.0
 11
3552.999999999999
 21
1945.333333333333
 31
0.0
 12
3524.999999999999
 22
1950.0
 32
0.0
 13
3524.999999999999
 23
1950.0
 33
0.0
  0
SOLID
  5
2315
330
1F
100
AcDbEntity
  8
SUNPO
 62
   144
100
AcDbTrace
 10
3706.999999999999
 20
1954.666666666666
 30
0.0
 11
3706.999999999999
 21
1945.333333333333
 31
0.0
 12
3734.999999999999
 22
1950.0
 32
0.0
 13
3734.999999999999
 23
1950.0
 33
0.0
  0
LINE
  5
2317
330
1F
100
AcDbEntity
  8
SUNPO
 62
   144
100
AcDbLine
 10
2650.0
 20
2080.0
 30
0.0
 11
2650.0
 21
1940.0
 31
0.0
  0
LINE
  5
2318
330
1F
100
AcDbEntity
  8
SUNPO
 62
   144
100
AcDbLine
 10
3249.999999999999
 20
2080.0
 30
0.0
 11
3249.999999999999
 21
1940.0
 31
0.0
  0
LINE
  5
2319
330
1F
100
AcDbEntity
  8
SUNPO
 62
   144
100
AcDbLine
 10
2678.0
 20
1950.0
 30
0.0
 11
3221.999999999999
 21
1950.0
 31
0.0
  0
SOLID
  5
231A
330
1F
100
AcDbEntity
  8
SUNPO
 62
   144
100
AcDbTrace
 10
2678.0
 20
1954.666666666666
 30
0.0
 11
2678.0
 21
1945.333333333333
 31
0.0
 12
2650.0
 22
1950.0
 32
0.0
 13
2650.0
 23
1950.0
 33
0.0
  0
SOLID
  5
231B
330
1F
100
AcDbEntity
  8
SUNPO
 62
   144
100
AcDbTrace
 10
3221.999999999999
 20
1954.666666666666
 30
0.0
 11
3221.999999999999
 21
1945.333333333333
 31
0.0
 12
3249.999999999999
 22
1950.0
 32
0.0
 13
3249.999999999999
 23
1950.0
 33
0.0
  0
LINE
  5
231D
330
1F
100
AcDbEntity
  8
SUNPO
 62
   144
100
AcDbLine
 10
2175.0
 20
2240.0
 30
0.0
 11
2175.0
 21
2380.0
 31
0.0
  0
LINE
  5
231E
330
1F
100
AcDbEntity
  8
SUNPO
 62
   144
100
AcDbLine
 10
2365.0
 20
2240.0
 30
0.0
 11
2365.0
 21
2380.0
 31
0.0
  0
LINE
  5
231F
330
1F
100
AcDbEntity
  8
SUNPO
 62
   144
100
AcDbLine
 10
2203.0
 20
2370.0
 30
0.0
 11
2337.0
 21
2370.0
 31
0.0
  0
SOLID
  5
2320
330
1F
100
AcDbEntity
  8
SUNPO
 62
   144
100
AcDbTrace
 10
2203.0
 20
2374.666666666666
 30
0.0
 11
2203.0
 21
2365.333333333333
 31
0.0
 12
2175.0
 22
2370.0
 32
0.0
 13
2175.0
 23
2370.0
 33
0.0
  0
SOLID
  5
2321
330
1F
100
AcDbEntity
  8
SUNPO
 62
   144
100
AcDbTrace
 10
2337.0
 20
2374.666666666666
 30
0.0
 11
2337.0
 21
2365.333333333333
 31
0.0
 12
2365.0
 22
2370.0
 32
0.0
 13
2365.0
 23
2370.0
 33
0.0
  0
LINE
  5
2323
330
1F
100
AcDbEntity
  8
SUNPO
 62
   144
100
AcDbLine
 10
2475.639845420094
 20
2344.284199985339
 30
0.0
 11
2378.596073752647
 21
2235.778222284188
 31
0.0
  0
LINE
  5
2325
330
1F
100
AcDbEntity
  8
SUNPO
 62
   144
100
AcDbLine
 10
2346.59734236868
 20
2200.000000000001
 30
0.0
 11
2359.930147111999
 21
2214.907592618411
 31
0.0
  0
SOLID
  5
2326
330
1F
100
AcDbEntity
  8
SUNPO
 62
   144
100
AcDbTrace
 10
2375.117635475017
 20
2238.889210057629
 30
0.0
 11
2382.074512030276
 21
2232.667234510747
 31
0.0
 12
2359.930147111999
 22
2214.907592618411
 32
0.0
 13
2359.930147111999
 23
2214.907592618411
 33
0.0
  0
LINE
  5
2327
330
1F
100
AcDbEntity
  8
SUNPO
 62
   144
100
AcDbLine
 10
2063.786692967083
 20
2343.769258408544
 30
0.0
 11
2161.261724696129
 21
2235.650531974369
 31
0.0
  0
LINE
  5
2329
330
1F
100
AcDbEntity
  8
SUNPO
 62
   144
100
AcDbLine
 10
2193.40265763132
 20
2200.0
 30
0.0
 11
2180.010602241657
 21
2214.854388322654
 31
0.0
  0
SOLID
  5
232A
330
1F
100
AcDbEntity
  8
SUNPO
 62
   144
100
AcDbTrace
 10
2164.727748638081
 20
2238.775344898624
 30
0.0
 11
2157.795700754177
 21
2232.525719050115
 31
0.0
 12
2180.010602241657
 22
2214.854388322654
 32
0.0
 13
2180.010602241657
 23
2214.854388322654
 33
0.0
  0
LINE
  5
232B
330
1F
100
AcDbEntity
  8
SUNPO
 62
   144
100
AcDbLine
 10
2395.0
 20
2100.0
 30
0.0
 11
2535.0
 21
2100.0
 31
0.0
  0
LINE
  5
232C
330
1F
100
AcDbEntity
  8
SUNPO
 62
   144
100
AcDbLine
 10
2395.0
 20
2220.0
 30
0.0
 11
2535.0
 21
2220.0
 31
0.0
  0
LINE
  5
232D
330
1F
100
AcDbEntity
  8
SUNPO
 62
   144
100
AcDbLine
 10
2525.0
 20
2128.0
 30
0.0
 11
2525.0
 21
2192.0
 31
0.0
  0
SOLID
  5
232E
330
1F
100
AcDbEntity
  8
SUNPO
 62
   144
100
AcDbTrace
 10
2520.333333333333
 20
2128.0
 30
0.0
 11
2529.666666666666
 21
2128.0
 31
0.0
 12
2525.0
 22
2100.0
 32
0.0
 13
2525.0
 23
2100.0
 33
0.0
  0
SOLID
  5
232F
330
1F
100
AcDbEntity
  8
SUNPO
 62
   144
100
AcDbTrace
 10
2520.333333333333
 20
2192.0
 30
0.0
 11
2529.666666666666
 21
2192.0
 31
0.0
 12
2525.0
 22
2220.0
 32
0.0
 13
2525.0
 23
2220.0
 33
0.0
  0
LINE
  5
2331
330
1F
100
AcDbEntity
  8
SUNPO
 62
   144
100
AcDbLine
 10
2164.999999999999
 20
2080.000000000002
 30
0.0
 11
2164.999999999999
 21
1940.0
 31
0.0
  0
LINE
  5
2332
330
1F
100
AcDbEntity
  8
SUNPO
 62
   144
100
AcDbLine
 10
2374.999999999999
 20
2080.000000000003
 30
0.0
 11
2374.999999999999
 21
1940.0
 31
0.0
  0
LINE
  5
2333
330
1F
100
AcDbEntity
  8
SUNPO
 62
   144
100
AcDbLine
 10
2192.999999999999
 20
1950.0
 30
0.0
 11
2346.999999999999
 21
1950.0
 31
0.0
  0
SOLID
  5
2334
330
1F
100
AcDbEntity
  8
SUNPO
 62
   144
100
AcDbTrace
 10
2192.999999999999
 20
1954.666666666666
 30
0.0
 11
2192.999999999999
 21
1945.333333333333
 31
0.0
 12
2164.999999999999
 22
1950.0
 32
0.0
 13
2164.999999999999
 23
1950.0
 33
0.0
  0
SOLID
  5
2335
330
1F
100
AcDbEntity
  8
SUNPO
 62
   144
100
AcDbTrace
 10
2346.999999999999
 20
1954.666666666666
 30
0.0
 11
2346.999999999999
 21
1945.333333333333
 31
0.0
 12
2374.999999999999
 22
1950.0
 32
0.0
 13
2374.999999999999
 23
1950.0
 33
0.0
  0
TEXT
  5
2337
330
1F
100
AcDbEntity
  8
SUNPO
100
AcDbText
 10
750.0
 20
310.0
 30
0.0
 40
80.0
  1
　　　（フラット用）
  7
ADD
100
AcDbText
1001
ACAD
1000
MTEXTBEGIN
1070
    73
1070
     1
1070
    44
1040
1.0
1070
    74
1070
     0
1000
MTEXTEND
1000
MTEXTBEGIN
1070
    73
1070
     1
1070
    44
1040
1.0
1070
    74
1070
     0
1000
MTEXTEND
1000
MTEXTBEGIN
1070
    73
1070
     1
1070
    44
1040
1.0
1070
    74
1070
     0
1000
MTEXTEND
1000
MTEXTBEGIN
1070
    73
1070
     1
1070
    44
1040
1.0
1070
    74
1070
     0
1000
MTEXTEND
1000
MTEXTBEGIN
1070
    73
1070
     1
1070
    44
1040
1.0
1070
    74
1070
     0
1000
MTEXTEND
1000
MTEXTBEGIN
1070
    73
1070
     1
1070
    44
1040
1.0
1070
    74
1070
     0
1000
MTEXTEND
1000
MTEXTBEGIN
1070
    73
1070
     1
1070
    44
1040
1.0
1070
    74
1070
     0
1000
MTEXTEND
  0
TEXT
  5
2338
330
1F
100
AcDbEntity
  8
SUNPO
100
AcDbText
 10
2484.761904761905
 20
370.0
 30
0.0
 40
80.0
  1
FT-C
  7
ADD
100
AcDbText
1001
ACAD
1000
MTEXTBEGIN
1070
    73
1070
     1
1070
    44
1040
1.0
1070
    74
1070
     0
1000
MTEXTEND
1000
MTEXTBEGIN
1070
    73
1070
     1
1070
    44
1040
1.0
1070
    74
1070
     0
1000
MTEXTEND
1000
MTEXTBEGIN
1070
    73
1070
     1
1070
    44
1040
1.0
1070
    74
1070
     0
1000
MTEXTEND
1000
MTEXTBEGIN
1070
    73
1070
     1
1070
    44
1040
1.0
1070
    74
1070
     0
1000
MTEXTEND
1000
MTEXTBEGIN
1070
    73
1070
     1
1070
    44
1040
1.0
1070
    74
1070
     0
1000
MTEXTEND
1000
MTEXTBEGIN
1070
    73
1070
     1
1070
    44
1040
1.0
1070
    74
1070
     0
1000
MTEXTEND
1000
MTEXTBEGIN
1070
    73
1070
     1
1070
    44
1040
1.0
1070
    74
1070
     0
1000
MTEXTEND
  0
TEXT
  5
2339
330
1F
100
AcDbEntity
  8
SUNPO
100
AcDbText
 10
750.0
 20
430.0
 30
0.0
 40
80.0
  1
千葉県型歩車道境界ブロック
  7
ADD
100
AcDbText
1001
ACAD
1000
MTEXTBEGIN
1070
    73
1070
     1
1070
    44
1040
1.0
1070
    74
1070
     0
1000
MTEXTEND
1000
MTEXTBEGIN
1070
    73
1070
     1
1070
    44
1040
1.0
1070
    74
1070
     0
1000
MTEXTEND
1000
MTEXTBEGIN
1070
    73
1070
     1
1070
    44
1040
1.0
1070
    74
1070
     0
1000
MTEXTEND
1000
MTEXTBEGIN
1070
    73
1070
     1
1070
    44
1040
1.0
1070
    74
1070
     0
1000
MTEXTEND
1000
MTEXTBEGIN
1070
    73
1070
     1
1070
    44
1040
1.0
1070
    74
1070
     0
1000
MTEXTEND
1000
MTEXTBEGIN
1070
    73
1070
     1
1070
    44
1040
1.0
1070
    74
1070
     0
1000
MTEXTEND
1000
MTEXTBEGIN
1070
    73
1070
     1
1070
    44
1040
1.0
1070
    74
1070
     0
1000
MTEXTEND
  0
TEXT
  5
233A
330
1F
100
AcDbEntity
  8
SUNPO
100
AcDbText
 10
3246.680311730542
 20
359.2274732162223
 30
0.0
 40
70.0
  1
１／２０
  7
ADD
100
AcDbText
1001
ACAD
1000
MTEXTBEGIN
1070
    73
1070
     1
1070
    44
1040
1.0
1070
    74
1070
     0
1000
MTEXTEND
1000
MTEXTBEGIN
1070
    73
1070
     1
1070
    44
1040
1.0
1070
    74
1070
     0
1000
MTEXTEND
1000
MTEXTBEGIN
1070
    73
1070
     1
1070
    44
1040
1.0
1070
    74
1070
     0
1000
MTEXTEND
1000
MTEXTBEGIN
1070
    73
1070
     1
1070
    44
1040
1.0
1070
    74
1070
     0
1000
MTEXTEND
1000
MTEXTBEGIN
1070
    73
1070
     1
1070
    44
1040
1.0
1070
    74
1070
     0
1000
MTEXTEND
1000
MTEXTBEGIN
1070
    73
1070
     1
1070
    44
1040
1.0
1070
    74
1070
     0
1000
MTEXTEND
1000
MTEXTBEGIN
1070
    73
1070
     1
1070
    44
1040
1.0
1070
    74
1070
     0
1000
MTEXTEND
  0
TEXT
  5
233B
330
1F
100
AcDbEntity
  8
SUNPO
100
AcDbText
 10
381.8862574011546
 20
488.6918916770627
 30
0.0
 40
50.0
  1
製品名
  7
ADD
100
AcDbText
1001
ACAD
1000
MTEXTBEGIN
1070
    73
1070
     1
1070
    44
1040
1.0
1070
    74
1070
     0
1000
MTEXTEND
1000
MTEXTBEGIN
1070
    73
1070
     1
1070
    44
1040
1.0
1070
    74
1070
     0
1000
MTEXTEND
1000
MTEXTBEGIN
1070
    73
1070
     1
1070
    44
1040
1.0
1070
    74
1070
     0
1000
MTEXTEND
1000
MTEXTBEGIN
1070
    73
1070
     1
1070
    44
1040
1.0
1070
    74
1070
     0
1000
MTEXTEND
1000
MTEXTBEGIN
1070
    73
1070
     1
1070
    44
1040
1.0
1070
    74
1070
     0
1000
MTEXTEND
1000
MTEXTBEGIN
1070
    73
1070
     1
1070
    44
1040
1.0
1070
    74
1070
     0
1000
MTEXTEND
1000
MTEXTBEGIN
1070
    73
1070
     1
1070
    44
1040
1.0
1070
    74
1070
     0
1000
MTEXTEND
  0
TEXT
  5
233C
330
1F
100
AcDbEntity
  8
SUNPO
100
AcDbText
 10
2376.290169028722
 20
494.4531736811823
 30
0.0
 40
50.0
  1
型式
  7
ADD
100
AcDbText
1001
ACAD
1000
MTEXTBEGIN
1070
    73
1070
     1
1070
    44
1040
1.0
1070
    74
1070
     0
1000
MTEXTEND
1000
MTEXTBEGIN
1070
    73
1070
     1
1070
    44
1040
1.0
1070
    74
1070
     0
1000
MTEXTEND
1000
MTEXTBEGIN
1070
    73
1070
     1
1070
    44
1040
1.0
1070
    74
1070
     0
1000
MTEXTEND
1000
MTEXTBEGIN
1070
    73
1070
     1
1070
    44
1040
1.0
1070
    74
1070
     0
1000
MTEXTEND
1000
MTEXTBEGIN
1070
    73
1070
     1
1070
    44
1040
1.0
1070
    74
1070
     0
1000
MTEXTEND
1000
MTEXTBEGIN
1070
    73
1070
     1
1070
    44
1040
1.0
1070
    74
1070
     0
1000
MTEXTEND
1000
MTEXTBEGIN
1070
    73
1070
     1
1070
    44
1040
1.0
1070
    74
1070
     0
1000
MTEXTEND
  0
TEXT
  5
233D
330
1F
100
AcDbEntity
  8
SUNPO
100
AcDbText
 10
3177.510249231658
 20
488.6918916770627
 30
0.0
 40
50.0
  1
縮尺
  7
ADD
100
AcDbText
1001
ACAD
1000
MTEXTBEGIN
1070
    73
1070
     1
1070
    44
1040
1.0
1070
    74
1070
     0
1000
MTEXTEND
1000
MTEXTBEGIN
1070
    73
1070
     1
1070
    44
1040
1.0
1070
    74
1070
     0
1000
MTEXTEND
1000
MTEXTBEGIN
1070
    73
1070
     1
1070
    44
1040
1.0
1070
    74
1070
     0
1000
MTEXTEND
1000
MTEXTBEGIN
1070
    73
1070
     1
1070
    44
1040
1.0
1070
    74
1070
     0
1000
MTEXTEND
1000
MTEXTBEGIN
1070
    73
1070
     1
1070
    44
1040
1.0
1070
    74
1070
     0
1000
MTEXTEND
1000
MTEXTBEGIN
1070
    73
1070
     1
1070
    44
1040
1.0
1070
    74
1070
     0
1000
MTEXTEND
1000
MTEXTBEGIN
1070
    73
1070
     1
1070
    44
1040
1.0
1070
    74
1070
     0
1000
MTEXTEND
  0
TEXT
  5
233E
330
1F
100
AcDbEntity
  8
SUNPO
100
AcDbText
 10
3730.870883051572
 20
352.2726133092145
 30
0.0
 40
100.0
  1
千葉県コンクリート製品協同組合
  7
ADD
100
AcDbText
1001
ACAD
1000
MTEXTBEGIN
1070
    73
1070
     1
1070
    44
1040
1.0
1070
    74
1070
     0
1000
MTEXTEND
1000
MTEXTBEGIN
1070
    73
1070
     1
1070
    44
1040
1.0
1070
    74
1070
     0
1000
MTEXTEND
1000
MTEXTBEGIN
1070
    73
1070
     1
1070
    44
1040
1.0
1070
    74
1070
     0
1000
MTEXTEND
1000
MTEXTBEGIN
1070
    73
1070
     1
1070
    44
1040
1.0
1070
    74
1070
     0
1000
MTEXTEND
1000
MTEXTBEGIN
1070
    73
1070
     1
1070
    44
1040
1.0
1070
    74
1070
     0
1000
MTEXTEND
1000
MTEXTBEGIN
1070
    73
1070
     1
1070
    44
1040
1.0
1070
    74
1070
     0
1000
MTEXTEND
1000
MTEXTBEGIN
1070
    73
1070
     1
1070
    44
1040
1.0
1070
    74
1070
     0
1000
MTEXTEND
  0
LINE
  5
233F
330
1F
100
AcDbEntity
  8
3C1
100
AcDbLine
 10
360.0
 20
260.0
 30
0.0
 11
5580.0
 21
260.0
 31
0.0
  0
LINE
  5
2340
330
1F
100
AcDbEntity
  8
3C1
100
AcDbLine
 10
5580.0
 20
260.0
 30
0.0
 11
5580.0
 21
3940.0
 31
0.0
  0
LINE
  5
2341
330
1F
100
AcDbEntity
  8
3C1
100
AcDbLine
 10
5580.0
 20
3940.0
 30
0.0
 11
360.0
 21
3940.0
 31
0.0
  0
LINE
  5
2342
330
1F
100
AcDbEntity
  8
3C1
100
AcDbLine
 10
360.0
 20
3940.0
 30
0.0
 11
360.0
 21
260.0
 31
0.0
  0
LINE
  5
2343
330
1F
100
AcDbEntity
  8
HOJO
100
AcDbLine
 10
0.0
 20
0.0
 30
0.0
 11
5940.0
 21
0.0
 31
0.0
  0
LINE
  5
2344
330
1F
100
AcDbEntity
  8
HOJO
100
AcDbLine
 10
5940.0
 20
0.0
 30
0.0
 11
5940.0
 21
4200.0
 31
0.0
  0
LINE
  5
2345
330
1F
100
AcDbEntity
  8
HOJO
100
AcDbLine
 10
5940.0
 20
4200.0
 30
0.0
 11
0.0
 21
4200.0
 31
0.0
  0
LINE
  5
2346
330
1F
100
AcDbEntity
  8
HOJO
100
AcDbLine
 10
0.0
 20
4200.0
 30
0.0
 11
0.0
 21
0.0
 31
0.0
  0
TEXT
  5
2347
330
1F
100
AcDbEntity
  8
SUNPO
 62
     7
100
AcDbText
 10
2218.571428571427
 20
1962.5
 30
0.0
 40
36.0
  1
210
  7
ADD
100
AcDbText
1001
ACAD
1000
MTEXTBEGIN
1070
    73
1070
     1
1070
    44
1040
1.0
1070
    74
1070
     0
1000
MTEXTEND
1000
MTEXTBEGIN
1070
    73
1070
     1
1070
    44
1040
1.0
1070
    74
1070
     0
1000
MTEXTEND
  0
TEXT
  5
2348
330
1F
100
AcDbEntity
  8
SUNPO
 62
     7
100
AcDbText
 10
2512.499999999999
 20
2106.0
 30
0.0
 40
36.0
  1
120
 50
90.0
  7
ADD
100
AcDbText
1001
ACAD
1000
MTEXTBEGIN
1070
    73
1070
     1
1070
    44
1040
1.0
1070
    74
1070
     0
1000
MTEXTEND
1000
MTEXTBEGIN
1070
    73
1070
     1
1070
    44
1040
1.0
1070
    74
1070
     0
1000
MTEXTEND
  0
TEXT
  5
2349
330
1F
100
AcDbEntity
  8
SUNPO
 62
     7
100
AcDbText
 10
2076.849158439397
 20
2347.948233464621
 30
0.0
 40
36.0
  1
R20
 50
312.0364137618972
  7
ADD
100
AcDbText
1001
ACAD
1000
MTEXTBEGIN
1070
    73
1070
     1
1070
    44
1040
1.0
1070
    74
1070
     0
1000
MTEXTEND
1000
MTEXTBEGIN
1070
    73
1070
     1
1070
    44
1040
1.0
1070
    74
1070
     0
1000
MTEXTEND
  0
TEXT
  5
234A
330
1F
100
AcDbEntity
  8
SUNPO
 62
     7
100
AcDbText
 10
2391.706510630795
 20
2269.187925689018
 30
0.0
 40
36.0
  1
R20
 50
48.1917167170976
  7
ADD
100
AcDbText
1001
ACAD
1000
MTEXTBEGIN
1070
    73
1070
     1
1070
    44
1040
1.0
1070
    74
1070
     0
1000
MTEXTEND
1000
MTEXTBEGIN
1070
    73
1070
     1
1070
    44
1040
1.0
1070
    74
1070
     0
1000
MTEXTEND
  0
TEXT
  5
234B
330
1F
100
AcDbEntity
  8
SUNPO
 62
     7
100
AcDbText
 10
2216.0
 20
2382.499999999999
 30
0.0
 40
36.0
  1
190
  7
ADD
100
AcDbText
1001
ACAD
1000
MTEXTBEGIN
1070
    73
1070
     1
1070
    44
1040
1.0
1070
    74
1070
     0
1000
MTEXTEND
1000
MTEXTBEGIN
1070
    73
1070
     1
1070
    44
1040
1.0
1070
    74
1070
     0
1000
MTEXTEND
  0
TEXT
  5
234C
330
1F
100
AcDbEntity
  8
SUNPO
 62
     7
100
AcDbText
 10
2897.714285714286
 20
1962.5
 30
0.0
 40
36.0
  1
600
  7
ADD
100
AcDbText
1001
ACAD
1000
MTEXTBEGIN
1070
    73
1070
     1
1070
    44
1040
1.0
1070
    74
1070
     0
1000
MTEXTEND
1000
MTEXTBEGIN
1070
    73
1070
     1
1070
    44
1040
1.0
1070
    74
1070
     0
1000
MTEXTEND
1000
MTEXTBEGIN
1070
    73
1070
     1
1070
    44
1040
1.0
1070
    74
1070
     0
1000
MTEXTEND
  0
TEXT
  5
234D
330
1F
100
AcDbEntity
  8
SUNPO
 62
     7
100
AcDbText
 10
3578.571428571427
 20
1962.5
 30
0.0
 40
36.0
  1
210
  7
ADD
100
AcDbText
1001
ACAD
1000
MTEXTBEGIN
1070
    73
1070
     1
1070
    44
1040
1.0
1070
    74
1070
     0
1000
MTEXTEND
1000
MTEXTBEGIN
1070
    73
1070
     1
1070
    44
1040
1.0
1070
    74
1070
     0
1000
MTEXTEND
  0
TEXT
  5
234E
330
1F
100
AcDbEntity
  8
SUNPO
 62
     7
100
AcDbText
 10
3576.0
 20
2562.5
 30
0.0
 40
36.0
  1
155
  7
ADD
100
AcDbText
1001
ACAD
1000
MTEXTBEGIN
1070
    73
1070
     1
1070
    44
1040
1.0
1070
    74
1070
     0
1000
MTEXTEND
1000
MTEXTBEGIN
1070
    73
1070
     1
1070
    44
1040
1.0
1070
    74
1070
     0
1000
MTEXTEND
  0
TEXT
  5
234F
330
1F
100
AcDbEntity
  8
SUNPO
 62
     7
100
AcDbText
 10
3387.499999999999
 20
2198.571428571429
 30
0.0
 40
36.0
  1
300
 50
90.0
  7
ADD
100
AcDbText
1001
ACAD
1000
MTEXTBEGIN
1070
    73
1070
     1
1070
    44
1040
1.0
1070
    74
1070
     0
1000
MTEXTEND
1000
MTEXTBEGIN
1070
    73
1070
     1
1070
    44
1040
1.0
1070
    74
1070
     0
1000
MTEXTEND
1000
MTEXTBEGIN
1070
    73
1070
     1
1070
    44
1040
1.0
1070
    74
1070
     0
1000
MTEXTEND
  0
TEXT
  5
2350
330
1F
100
AcDbEntity
  8
SUNPO
 62
     7
100
AcDbText
 10
3455.707671224271
 20
2524.642331358266
 30
0.0
 40
36.0
  1
R30
 50
312.3759465476079
  7
ADD
100
AcDbText
1001
ACAD
1000
MTEXTBEGIN
1070
    73
1070
     1
1070
    44
1040
1.0
1070
    74
1070
     0
1000
MTEXTEND
1000
MTEXTBEGIN
1070
    73
1070
     1
1070
    44
1040
1.0
1070
    74
1070
     0
1000
MTEXTEND
  0
TEXT
  5
2351
330
1F
100
AcDbEntity
  8
SUNPO
 62
     7
100
AcDbText
 10
3732.327418235099
 20
2446.351094087304
 30
0.0
 40
36.0
  1
R30
 50
47.87142614541887
  7
ADD
100
AcDbText
1001
ACAD
1000
MTEXTBEGIN
1070
    73
1070
     1
1070
    44
1040
1.0
1070
    74
1070
     0
1000
MTEXTEND
1000
MTEXTBEGIN
1070
    73
1070
     1
1070
    44
1040
1.0
1070
    74
1070
     0
1000
MTEXTEND
  0
VIEWPORT
  5
72
330
1B
100
AcDbEntity
 67
     1
  8
0
100
AcDbViewport
 10
645.8325449029127
 20
277.0
 30
0.0
 40
1380.967339805825
 41
628.4520000000001
 68
     2
 69
     1
1001
ACAD
1000
MVIEW
1002
{
1070
    16
1010
0.0
1020
0.0
1030
0.0
1010
0.0
1020
0.0
1030
1.0
1040
0.0
1040
628.4520000000001
1040
645.8325449029127
1040
277.0
1040
50.0
1040
0.0
1040
0.0
1070
     0
1070
   100
1070
     1
1070
     1
1070
     0
1070
     0
1070
     0
1070
     0
1040
0.0
1040
0.0
1040
0.0
1040
10.0
1040
10.0
1040
10.0
1040
10.0
1070
     0
1002
{
1002
}
1002
}
  0
VIEWPORT
  5
74
330
1B
100
AcDbEntity
 67
     1
  8
VIEWPORT
100
AcDbViewport
 10
414.3779638919211
 20
277.3177265058034
 30
0.0
 40
840.0353682728887
 41
567.2285469943826
 68
     1
 69
     2
1001
ACAD
1000
MVIEW
1002
{
1070
    16
1010
0.0
1020
0.0
1030
0.0
1010
0.0
1020
0.0
1030
1.0
1040
0.0
1040
579.5583043546323
1040
424.4938908624541
1040
286.1973242720074
1040
50.0
1040
0.0
1040
0.0
1070
     0
1070
   100
1070
     1
1070
     1
1070
     0
1070
     0
1070
     0
1070
     0
1040
0.0
1040
0.0
1040
0.0
1040
10.0
1040
10.0
1040
10.0
1040
10.0
1070
     0
1002
{
1002
}
1002
}
  0
ENDSEC
  0
SECTION
  2
OBJECTS
  0
DICTIONARY
  5
C
330
0
100
AcDbDictionary
  3
ACAD_GROUP
350
D
  3
ACAD_LAYOUT
350
1A
  3
ACAD_MLINESTYLE
350
17
  3
ACAD_PLOTSETTINGS
350
19
  3
ACADDIM
350
1BE4
  3
DWGPROPS
350
4C7
1001
ACAD
1000
TREAT_AS_HARD
1070
     0
  0
DICTIONARY
  5
17F6
330
1F
100
AcDbDictionary
  3
ACAD_LAYOUTSELFREF
350
2354
1001
ACAD
1000
TREAT_AS_HARD
1070
     1
  0
DICTIONARY
  5
17F8
330
1B
100
AcDbDictionary
  3
ACAD_LAYOUTSELFREF
350
2353
1001
ACAD
1000
TREAT_AS_HARD
1070
     1
  0
DICTIONARY
  5
D
102
{ACAD_REACTORS
330
C
102
}
330
C
100
AcDbDictionary
1001
ACAD
1000
TREAT_AS_HARD
1070
     0
  0
DICTIONARY
  5
1A
102
{ACAD_REACTORS
330
C
102
}
330
C
100
AcDbDictionary
1001
ACAD
1000
TREAT_AS_HARD
1070
     0
  0
DICTIONARY
  5
17
102
{ACAD_REACTORS
330
C
102
}
330
C
100
AcDbDictionary
  3
STANDARD
350
18
1001
ACAD
1000
TREAT_AS_HARD
1070
     0
  0
DICTIONARY
  5
19
102
{ACAD_REACTORS
330
C
102
}
330
C
100
AcDbDictionary
1001
ACAD
1000
TREAT_AS_HARD
1070
     0
  0
XRECORD
  5
1BE4
102
{ACAD_REACTORS
330
C
102
}
330
C
100
AcDbXrecord
 90
   990106
  3

 60
     0
 61
     0
 62
     1
 63
     3
 64
     0
 65
     0
 66
     0
 67
     3
 68
     1
 69
     0
 70
     0
 71
     0
 72
     0
 40
0.0
170
     0
  0
XRECORD
  5
4C7
102
{ACAD_REACTORS
330
C
102
}
330
C
100
AcDbXrecord
  1
DWGPROPS COOKIE
  2
印刷用テスト
  3
AutoCAD2000による建築設計
  4
鈴木 裕二
  6

  7

  8
U2
  9

300
=
301
=
302
=
303
=
304
=
305
=
306
=
307
=
308
=
309
=
 40
0.7653446875
 41
2451285.4846114
 42
2451333.689743032
  1

 90
        0
  0
XRECORD
  5
2354
102
{ACAD_REACTORS
330
17F6
102
}
330
17F6
100
AcDbXrecord
340
1F
  0
XRECORD
  5
2353
102
{ACAD_REACTORS
330
17F8
102
}
330
17F8
100
AcDbXrecord
340
1B
  0
MLINESTYLE
  5
18
102
{ACAD_REACTORS
330
17
102
}
330
17
100
AcDbMlineStyle
  2
STANDARD
 70
     0
  3

 62
   256
 51
90.0
 52
90.0
 71
     2
 49
0.5
 62
   256
  6
BYLAYER
 49
-0.5
 62
   256
  6
BYLAYER
  0
ENDSEC
  0
EOF
