  0
SECTION
  2
HEADER
  9
$ACADVER
  1
AC1012
  9
$DWGCODEPAGE
  3
dos932
  9
$INSBASE
 10
0.0
 20
0.0
 30
0.0
  9
$EXTMIN
 10
-0.2718908761999046
 20
-0.1922558694768668
 30
-0.0015258207003583
  9
$EXTMAX
 10
5940.317247512655
 20
4200.438327852546
 30
0.0000000349246037
  9
$LIMMIN
 10
0.0
 20
0.0
  9
$LIMMAX
 10
5940.0
 20
4200.0
  9
$ORTHOMODE
 70
     0
  9
$REGENMODE
 70
     1
  9
$FILLMODE
 70
     1
  9
$QTEXTMODE
 70
     0
  9
$MIRRTEXT
 70
     1
  9
$DRAGMODE
 70
     2
  9
$LTSCALE
 40
20.0
  9
$OSMODE
 70
    53
  9
$ATTMODE
 70
     1
  9
$TEXTSIZE
 40
0.0
  9
$TRACEWID
 40
0.05
  9
$TEXTSTYLE
  7
STANDARD
  9
$CLAYER
  8
0
  9
$CELTYPE
  6
CONTINUOUS
  9
$CECOLOR
 62
   256
  9
$CELTSCALE
 40
1.0
  9
$DELOBJ
 70
     1
  9
$DISPSILH
 70
     0
  9
$DIMSCALE
 40
20.0
  9
$DIMASZ
 40
0.18
  9
$DIMEXO
 40
0.0625
  9
$DIMDLI
 40
0.38
  9
$DIMRND
 40
0.0
  9
$DIMDLE
 40
0.0
  9
$DIMEXE
 40
0.18
  9
$DIMTP
 40
0.0
  9
$DIMTM
 40
0.0
  9
$DIMTXT
 40
0.18
  9
$DIMCEN
 40
0.09
  9
$DIMTSZ
 40
0.0
  9
$DIMTOL
 70
     0
  9
$DIMLIM
 70
     0
  9
$DIMTIH
 70
     1
  9
$DIMTOH
 70
     1
  9
$DIMSE1
 70
     0
  9
$DIMSE2
 70
     0
  9
$DIMTAD
 70
     0
  9
$DIMZIN
 70
     0
  9
$DIMBLK
  1

  9
$DIMASO
 70
     1
  9
$DIMSHO
 70
     1
  9
$DIMPOST
  1

  9
$DIMAPOST
  1

  9
$DIMALT
 70
     0
  9
$DIMALTD
 70
     2
  9
$DIMALTF
 40
25.4
  9
$DIMLFAC
 40
1.0
  9
$DIMTOFL
 70
     0
  9
$DIMTVP
 40
0.0
  9
$DIMTIX
 70
     0
  9
$DIMSOXD
 70
     0
  9
$DIMSAH
 70
     0
  9
$DIMBLK1
  1

  9
$DIMBLK2
  1

  9
$DIMSTYLE
  2
STANDARD
  9
$DIMCLRD
 70
     0
  9
$DIMCLRE
 70
     0
  9
$DIMCLRT
 70
     0
  9
$DIMTFAC
 40
1.0
  9
$DIMGAP
 40
0.09
  9
$DIMJUST
 70
     0
  9
$DIMSD1
 70
     0
  9
$DIMSD2
 70
     0
  9
$DIMTOLJ
 70
     1
  9
$DIMTZIN
 70
     0
  9
$DIMALTZ
 70
     0
  9
$DIMALTTZ
 70
     0
  9
$DIMFIT
 70
     3
  9
$DIMUPT
 70
     0
  9
$DIMUNIT
 70
     2
  9
$DIMDEC
 70
     4
  9
$DIMTDEC
 70
     4
  9
$DIMALTU
 70
     2
  9
$DIMALTTD
 70
     2
  9
$DIMTXSTY
  7
STANDARD
  9
$DIMAUNIT
 70
     0
  9
$LUNITS
 70
     2
  9
$LUPREC
 70
     4
  9
$SKETCHINC
 40
0.1
  9
$FILLETRAD
 40
0.0
  9
$AUNITS
 70
     0
  9
$AUPREC
 70
     0
  9
$MENU
  1
.
  9
$ELEVATION
 40
0.0
  9
$PELEVATION
 40
0.0
  9
$THICKNESS
 40
0.0
  9
$LIMCHECK
 70
     0
  9
$BLIPMODE
 70
     0
  9
$CHAMFERA
 40
0.0
  9
$CHAMFERB
 40
0.0
  9
$CHAMFERC
 40
0.0
  9
$CHAMFERD
 40
0.0
  9
$SKPOLY
 70
     0
  9
$TDCREATE
 40
2451851.524011690
  9
$TDUPDATE
 40
2451851.525592546
  9
$TDINDWG
 40
0.0015818981
  9
$TDUSRTIMER
 40
0.0015818981
  9
$USRTIMER
 70
     1
  9
$ANGBASE
 50
0.0
  9
$ANGDIR
 70
     0
  9
$PDMODE
 70
     0
  9
$PDSIZE
 40
40.0
  9
$PLINEWID
 40
0.0
  9
$COORDS
 70
     1
  9
$SPLFRAME
 70
     0
  9
$SPLINETYPE
 70
     6
  9
$SPLINESEGS
 70
     8
  9
$ATTDIA
 70
     0
  9
$ATTREQ
 70
     1
  9
$HANDLING
 70
 10241
  9
$HANDSEED
  5
9D04
  9
$SURFTAB1
 70
     6
  9
$SURFTAB2
 70
     6
  9
$SURFTYPE
 70
     6
  9
$SURFU
 70
     6
  9
$SURFV
 70
     6
  9
$UCSNAME
  2

  9
$UCSORG
 10
0.0
 20
0.0
 30
0.0
  9
$UCSXDIR
 10
1.0
 20
0.0
 30
0.0
  9
$UCSYDIR
 10
0.0
 20
1.0
 30
0.0
  9
$PUCSNAME
  2

  9
$PUCSORG
 10
0.0
 20
0.0
 30
0.0
  9
$PUCSXDIR
 10
1.0
 20
0.0
 30
0.0
  9
$PUCSYDIR
 10
0.0
 20
1.0
 30
0.0
  9
$USERI1
 70
     0
  9
$USERI2
 70
     0
  9
$USERI3
 70
     0
  9
$USERI4
 70
     0
  9
$USERI5
 70
     0
  9
$USERR1
 40
0.0
  9
$USERR2
 40
0.0
  9
$USERR3
 40
0.0
  9
$USERR4
 40
0.0
  9
$USERR5
 40
0.0
  9
$WORLDVIEW
 70
     1
  9
$SHADEDGE
 70
     3
  9
$SHADEDIF
 70
    70
  9
$TILEMODE
 70
     1
  9
$MAXACTVP
 70
    64
  9
$PINSBASE
 10
0.0
 20
0.0
 30
0.0
  9
$PLIMCHECK
 70
     0
  9
$PEXTMIN
 10
1.000000000000000E+20
 20
1.000000000000000E+20
 30
1.000000000000000E+20
  9
$PEXTMAX
 10
-1.000000000000000E+20
 20
-1.000000000000000E+20
 30
-1.000000000000000E+20
  9
$PLIMMIN
 10
0.0
 20
0.0
  9
$PLIMMAX
 10
12.0
 20
9.0
  9
$UNITMODE
 70
     0
  9
$VISRETAIN
 70
     1
  9
$PLINEGEN
 70
     0
  9
$PSLTSCALE
 70
     1
  9
$TREEDEPTH
 70
  3020
  9
$PICKSTYLE
 70
     1
  9
$CMLSTYLE
  2
STANDARD
  9
$CMLJUST
 70
     0
  9
$CMLSCALE
 40
1.0
  9
$SAVEIMAGES
 70
     1
  0
ENDSEC
  0
SECTION
  2
CLASSES
  0
CLASS
  1
ACDBDICTIONARYWDFLT
  2
AcDbDictionaryWithDefault
  3
AutoCAD 2000
 90
    32768
280
     0
281
     0
  0
CLASS
  1
ACDBPLACEHOLDER
  2
AcDbPlaceHolder
  3
AutoCAD 2000
 90
    32768
280
     0
281
     0
  0
CLASS
  1
LAYOUT
  2
AcDbLayout
  3
AutoCAD 2000
 90
    32768
280
     0
281
     0
  0
CLASS
  1
LONG_TRANSACTION
  2
AcDbLongTransaction
  3
AutoCAD 2000
 90
    32768
280
     0
281
     0
  0
CLASS
  1
LWPOLYLINE
  2
AcDbPolyline
  3
AutoCAD 2000
 90
    32768
280
     0
281
     1
  0
CLASS
  1
HATCH
  2
AcDbHatch
  3
AutoCAD 2000
 90
    32768
280
     0
281
     1
  0
CLASS
  1
XRECORD
  2
AcDbXrecord
  3
AutoCAD 2000
 90
    32768
280
     0
281
     0
  0
ENDSEC
  0
SECTION
  2
TABLES
  0
TABLE
  2
VPORT
  5
1F4
330
0
100
AcDbSymbolTable
 70
     3
  0
VPORT
  5
9CFF
330
1F4
100
AcDbSymbolTableRecord
100
AcDbViewportTableRecord
  2
*ACTIVE
 70
     0
 10
0.0
 20
0.0
 11
1.0
 21
1.0
 12
2970.022678318228
 22
2100.123035991535
 13
0.0
 23
0.0
 14
1.0
 24
1.0
 15
0.0
 25
0.0
 16
0.0
 26
0.0
 36
1.0
 17
0.0
 27
0.0
 37
0.0
 40
4233.362770088688
 41
1.566970091027308
 42
50.0
 43
0.0
 44
0.0
 50
0.0
 51
0.0
 71
     0
 72
   100
 73
     1
 74
     1
 75
     0
 76
     0
 77
     0
 78
     0
  0
ENDTAB
  0
TABLE
  2
LTYPE
  5
1F6
330
0
100
AcDbSymbolTable
 70
     9
  0
LTYPE
  5
1F7
330
1F6
100
AcDbSymbolTableRecord
100
AcDbLinetypeTableRecord
  2
BYBLOCK
 70
     0
  3

 72
    65
 73
     0
 40
0.0
  0
LTYPE
  5
1F8
330
1F6
100
AcDbSymbolTableRecord
100
AcDbLinetypeTableRecord
  2
BYLAYER
 70
     0
  3

 72
    65
 73
     0
 40
0.0
  0
LTYPE
  5
1F9
330
1F6
100
AcDbSymbolTableRecord
100
AcDbLinetypeTableRecord
  2
CONTINUOUS
 70
     0
  3
実線
 72
    65
 73
     0
 40
0.0
  0
LTYPE
  5
1FA
330
1F6
100
AcDbSymbolTableRecord
100
AcDbLinetypeTableRecord
  2
DOT
 70
     0
  3
--  --  --  --  --  --  --  --     
 72
    65
 73
     2
 40
10.0
 49
4.0
 74
     0
 49
-6.0
 74
     0
  0
LTYPE
  5
1FB
330
1F6
100
AcDbSymbolTableRecord
100
AcDbLinetypeTableRecord
  2
DASHED
 70
     0
  3
----    ----    ----    ----    
 72
    65
 73
     2
 40
10.0
 49
6.0
 74
     0
 49
-4.0
 74
     0
  0
LTYPE
  5
1FC
330
1F6
100
AcDbSymbolTableRecord
100
AcDbLinetypeTableRecord
  2
DASHED2
 70
     0
  3
------  ------  ------  ------ 
 72
    65
 73
     2
 40
15.0
 49
10.0
 74
     0
 49
-5.0
 74
     0
  0
LTYPE
  5
1FD
330
1F6
100
AcDbSymbolTableRecord
100
AcDbLinetypeTableRecord
  2
CENTER
 70
     0
  3
----- - ----- - ----- - ----- - 
 72
    65
 73
     4
 40
9.0
 49
6.0
 74
     0
 49
-1.0
 74
     0
 49
1.0
 74
     0
 49
-1.0
 74
     0
  0
LTYPE
  5
1FE
330
1F6
100
AcDbSymbolTableRecord
100
AcDbLinetypeTableRecord
  2
CENTER2
 70
     0
  3
----------  --  ----------  --  
 72
    65
 73
     4
 40
18.0
 49
12.0
 74
     0
 49
-2.0
 74
     0
 49
2.0
 74
     0
 49
-2.0
 74
     0
  0
LTYPE
  5
1FF
330
1F6
100
AcDbSymbolTableRecord
100
AcDbLinetypeTableRecord
  2
PHANTOM
 70
     0
  3
--- - - --- - - --- - - --- - - 
 72
    65
 73
     6
 40
10.0
 49
5.0
 74
     0
 49
-1.0
 74
     0
 49
1.0
 74
     0
 49
-1.0
 74
     0
 49
1.0
 74
     0
 49
-1.0
 74
     0
  0
LTYPE
  5
200
330
1F6
100
AcDbSymbolTableRecord
100
AcDbLinetypeTableRecord
  2
PHANTOM2
 70
     0
  3
--------  -  -  --------  -  - 
 72
    65
 73
     6
 40
16.0
 49
6.0
 74
     0
 49
-2.0
 74
     0
 49
2.0
 74
     0
 49
-2.0
 74
     0
 49
2.0
 74
     0
 49
-2.0
 74
     0
  0
LTYPE
  5
201
330
1F6
100
AcDbSymbolTableRecord
100
AcDbLinetypeTableRecord
  2
HIDDEN
 70
     0
  3
-   -   -   -   -   -   -   -   
 72
    65
 73
     2
 40
2.5
 49
0.5
 74
     0
 49
-2.0
 74
     0
  0
ENDTAB
  0
TABLE
  2
LAYER
  5
BF9
330
0
100
AcDbSymbolTable
 70
     7
  0
LAYER
  5
BFA
330
BF9
100
AcDbSymbolTableRecord
100
AcDbLayerTableRecord
  2
0
 70
     0
 62
     7
  6
CONTINUOUS
  0
LAYER
  5
BFB
330
BF9
100
AcDbSymbolTableRecord
100
AcDbLayerTableRecord
  2
0-3C1
 70
     0
 62
     7
  6
CONTINUOUS
  0
LAYER
  5
BFC
330
BF9
100
AcDbSymbolTableRecord
100
AcDbLayerTableRecord
  2
0-ADD
 70
     0
 62
    -7
  6
CONTINUOUS
  0
LAYER
  5
BFD
330
BF9
100
AcDbSymbolTableRecord
100
AcDbLayerTableRecord
  2
1-HOJO
 70
     0
 62
     7
  6
CONTINUOUS
  0
LAYER
  5
BFE
330
BF9
100
AcDbSymbolTableRecord
100
AcDbLayerTableRecord
  2
1-MOJI
 70
     0
 62
     7
  6
CONTINUOUS
  0
LAYER
  5
BFF
330
BF9
100
AcDbSymbolTableRecord
100
AcDbLayerTableRecord
  2
1-SUNPO
 70
     0
 62
     7
  6
CONTINUOUS
  0
LAYER
  5
C00
330
BF9
100
AcDbSymbolTableRecord
100
AcDbLayerTableRecord
  2
1-ADD
 70
     0
 62
    -7
  6
CONTINUOUS
  0
ENDTAB
  0
TABLE
  2
STYLE
  5
202
330
0
100
AcDbSymbolTable
 70
     4
  0
STYLE
  5
203
330
202
100
AcDbSymbolTableRecord
100
AcDbTextStyleTableRecord
  2
STANDARD
 70
     0
 40
0.0
 41
1.0
 50
0.0
 71
     0
 42
0.0
  3
txt.shx
  4
extfont.shx
  0
STYLE
  5
204
330
202
100
AcDbSymbolTableRecord
100
AcDbTextStyleTableRecord
  2
TATEGAKI
 70
     4
 40
0.0
 41
1.0
 50
0.0
 71
     0
 42
0.0
  3
txt.shx
  4
extfont.shx
  0
STYLE
  5
205
330
202
100
AcDbSymbolTableRecord
100
AcDbTextStyleTableRecord
  2
MT
 70
     0
 40
0.0
 41
1.0
 50
0.0
 71
     0
 42
0.0
  3
MS Gothic
  4

  0
STYLE
  5
206
330
202
100
AcDbSymbolTableRecord
100
AcDbTextStyleTableRecord
  2
TMT
 70
     4
 40
0.0
 41
1.0
 50
0.0
 71
     0
 42
0.0
  3
@MS Gothic
  4

  0
ENDTAB
  0
TABLE
  2
VIEW
  5
207
330
0
100
AcDbSymbolTable
 70
     0
  0
ENDTAB
  0
TABLE
  2
UCS
  5
208
330
0
100
AcDbSymbolTable
 70
     0
  0
ENDTAB
  0
TABLE
  2
APPID
  5
209
330
0
100
AcDbSymbolTable
 70
     1
  0
APPID
  5
20A
330
209
100
AcDbSymbolTableRecord
100
AcDbRegAppTableRecord
  2
ACAD
 70
     0
  0
ENDTAB
  0
TABLE
  2
DIMSTYLE
  5
20B
330
0
100
AcDbSymbolTable
 70
     1
  0
DIMSTYLE
105
20C
330
20B
100
AcDbSymbolTableRecord
100
AcDbDimStyleTableRecord
  2
STANDARD
 70
     0
  3

  4

  5

  6

  7

 40
1.0
 41
0.18
 42
0.0625
 43
0.38
 44
0.18
 45
0.0
 46
0.0
 47
0.0
 48
0.0
140
0.18
141
0.09
142
0.0
143
25.4
144
1.0
145
0.0
146
1.0
147
0.09
 71
     0
 72
     0
 73
     1
 74
     1
 75
     0
 76
     0
 77
     0
 78
     0
170
     0
171
     2
172
     0
173
     0
174
     0
175
     0
176
     0
177
     0
178
     0
270
     2
271
     4
272
     4
273
     2
274
     2
340
0
275
     0
280
     0
281
     0
282
     0
283
     1
284
     0
285
     0
286
     0
287
     3
288
     0
  0
ENDTAB
  0
TABLE
  2
BLOCK_RECORD
  5
20D
330
0
100
AcDbSymbolTable
 70
     1
  0
BLOCK_RECORD
  5
20E
102
{ACAD_XDICTIONARY
360
9D00
102
}
330
20D
100
AcDbSymbolTableRecord
100
AcDbBlockTableRecord
  2
*MODEL_SPACE
  0
BLOCK_RECORD
  5
20F
102
{ACAD_XDICTIONARY
360
9D02
102
}
330
20D
100
AcDbSymbolTableRecord
100
AcDbBlockTableRecord
  2
*PAPER_SPACE
  0
BLOCK_RECORD
  5
210
330
20D
100
AcDbSymbolTableRecord
100
AcDbBlockTableRecord
  2
REVDATE
  0
ENDTAB
  0
ENDSEC
  0
SECTION
  2
BLOCKS
  0
BLOCK
  5
C01
330
20E
100
AcDbEntity
  8
0
100
AcDbBlockBegin
  2
*MODEL_SPACE
 70
     0
 10
0.0
 20
0.0
 30
0.0
  3
*MODEL_SPACE
  1

  0
ENDBLK
  5
C02
330
20E
100
AcDbEntity
  8
0
100
AcDbBlockEnd
  0
BLOCK
  5
C03
330
20F
100
AcDbEntity
 67
     1
  8
0
100
AcDbBlockBegin
  2
*PAPER_SPACE
 70
     0
 10
0.0
 20
0.0
 30
0.0
  3
*PAPER_SPACE
  1

  0
ENDBLK
  5
C04
330
20F
100
AcDbEntity
 67
     1
  8
0
100
AcDbBlockEnd
  0
BLOCK
  5
C05
330
210
100
AcDbEntity
  8
0
100
AcDbBlockBegin
  2
REVDATE
 70
     2
 10
0.0
 20
0.0
 30
0.0
  3
REVDATE
  1
REVDATE
  0
ATTDEF
  5
C06
330
210
100
AcDbEntity
  8
0
 62
     0
100
AcDbText
 10
0.0
 20
0.0
 30
0.0
 40
1.0
  1

100
AcDbAttributeDefinition
  3

  2
USER
 70
     8
  0
ATTDEF
  5
C07
330
210
100
AcDbEntity
  8
0
 62
     0
100
AcDbText
 10
0.0
 20
0.0
 30
0.0
 40
1.0
  1

100
AcDbAttributeDefinition
  3

  2
REVDATE
 70
     8
  0
ATTDEF
  5
C08
330
210
100
AcDbEntity
  8
0
 62
     0
100
AcDbText
 10
0.0
 20
0.0
 30
0.0
 40
1.0
  1

100
AcDbAttributeDefinition
  3

  2
FNAME
 70
     8
  0
ENDBLK
  5
C09
330
210
100
AcDbEntity
  8
0
100
AcDbBlockEnd
  0
ENDSEC
  0
SECTION
  2
ENTITIES
  0
LINE
  5
C0A
330
20E
100
AcDbEntity
  8
1-HOJO
  6
CONTINUOUS
 62
     5
100
AcDbLine
 10
0.0
 20
0.0
 30
0.0
 11
5940.0
 21
0.0
 31
0.0
  0
LINE
  5
C0B
330
20E
100
AcDbEntity
  8
1-HOJO
  6
CONTINUOUS
 62
     5
100
AcDbLine
 10
5940.0
 20
0.0
 30
0.0
 11
5940.0
 21
4200.0
 31
0.0
  0
LINE
  5
C0C
330
20E
100
AcDbEntity
  8
1-HOJO
  6
CONTINUOUS
 62
     5
100
AcDbLine
 10
5940.0
 20
4200.0
 30
0.0
 11
0.0
 21
4200.0
 31
0.0
  0
LINE
  5
C0D
330
20E
100
AcDbEntity
  8
1-HOJO
  6
CONTINUOUS
 62
     5
100
AcDbLine
 10
0.0
 20
4200.0
 30
0.0
 11
0.0
 21
0.0
 31
0.0
  0
LINE
  5
C0E
330
20E
100
AcDbEntity
  8
1-HOJO
  6
CONTINUOUS
 62
     5
100
AcDbLine
 10
360.0
 20
260.0
 30
0.0
 11
5580.0
 21
260.0
 31
0.0
  0
LINE
  5
C0F
330
20E
100
AcDbEntity
  8
1-HOJO
  6
CONTINUOUS
 62
     5
100
AcDbLine
 10
5580.0
 20
260.0
 30
0.0
 11
5580.0
 21
3940.0
 31
0.0
  0
LINE
  5
C10
330
20E
100
AcDbEntity
  8
1-HOJO
  6
CONTINUOUS
 62
     5
100
AcDbLine
 10
5580.0
 20
3940.0
 30
0.0
 11
360.0
 21
3940.0
 31
0.0
  0
LINE
  5
C11
330
20E
100
AcDbEntity
  8
1-HOJO
  6
CONTINUOUS
 62
     5
100
AcDbLine
 10
360.0
 20
3940.0
 30
0.0
 11
360.0
 21
260.0
 31
0.0
  0
LINE
  5
C12
330
20E
100
AcDbEntity
  8
1-HOJO
  6
CONTINUOUS
 62
     5
100
AcDbLine
 10
360.0
 20
260.0
 30
0.0
 11
5580.0
 21
260.0
 31
0.0
  0
LINE
  5
C13
330
20E
100
AcDbEntity
  8
1-HOJO
  6
CONTINUOUS
 62
     5
100
AcDbLine
 10
360.0
 20
560.0
 30
0.0
 11
5580.0
 21
560.0
 31
0.0
  0
LINE
  5
C14
330
20E
100
AcDbEntity
  8
1-HOJO
  6
CONTINUOUS
 62
     5
100
AcDbLine
 10
360.0
 20
260.0
 30
0.0
 11
360.0
 21
560.0
 31
0.0
  0
LINE
  5
C15
330
20E
100
AcDbEntity
  8
1-HOJO
  6
CONTINUOUS
 62
     5
100
AcDbLine
 10
2360.0
 20
260.0
 30
0.0
 11
2360.0
 21
560.0
 31
0.0
  0
LINE
  5
C16
330
20E
100
AcDbEntity
  8
1-HOJO
  6
CONTINUOUS
 62
     5
100
AcDbLine
 10
3160.0
 20
260.0
 30
0.0
 11
3160.0
 21
560.0
 31
0.0
  0
LINE
  5
C17
330
20E
100
AcDbEntity
  8
1-HOJO
  6
CONTINUOUS
 62
     5
100
AcDbLine
 10
3660.0
 20
260.0
 30
0.0
 11
3660.0
 21
560.0
 31
0.0
  0
LINE
  5
C18
330
20E
100
AcDbEntity
  8
0-3C1
  6
CONTINUOUS
100
AcDbLine
 10
1628.34
 20
2322.449999999999
 30
0.0
 11
1678.34
 21
2272.45
 31
0.0
  0
LINE
  5
C19
330
20E
100
AcDbEntity
  8
0-3C1
  6
CONTINUOUS
100
AcDbLine
 10
1983.34
 20
2272.45
 30
0.0
 11
2033.34
 21
2322.449999999999
 31
0.0
  0
LINE
  5
C1A
330
20E
100
AcDbEntity
  8
0-3C1
  6
CONTINUOUS
100
AcDbLine
 10
1628.34
 20
2637.449999999999
 30
0.0
 11
1683.34
 21
2637.449999999999
 31
0.0
  0
LINE
  5
C1B
330
20E
100
AcDbEntity
  8
0-3C1
  6
CONTINUOUS
100
AcDbLine
 10
2033.34
 20
2637.449999999999
 30
0.0
 11
1983.34
 21
2637.449999999999
 31
0.0
  0
LINE
  5
C1C
330
20E
100
AcDbEntity
  8
0-3C1
  6
CONTINUOUS
100
AcDbLine
 10
1628.34
 20
2322.449999999999
 30
0.0
 11
1628.34
 21
2637.449999999999
 31
0.0
  0
LINE
  5
C1D
330
20E
100
AcDbEntity
  8
0-3C1
  6
CONTINUOUS
100
AcDbLine
 10
2033.34
 20
2637.449999999999
 30
0.0
 11
2033.34
 21
2322.449999999999
 31
0.0
  0
LINE
  5
C1E
330
20E
100
AcDbEntity
  8
0-3C1
  6
CONTINUOUS
100
AcDbLine
 10
1678.34
 20
2272.45
 30
0.0
 11
1983.34
 21
2272.45
 31
0.0
  0
LINE
  5
C1F
330
20E
100
AcDbEntity
  8
0-3C1
  6
CONTINUOUS
100
AcDbLine
 10
1948.339999999999
 20
2337.45
 30
0.0
 11
1718.339999999999
 21
2337.45
 31
0.0
  0
LINE
  5
C20
330
20E
100
AcDbEntity
  8
0-3C1
  6
CONTINUOUS
100
AcDbLine
 10
1683.34
 20
2637.449999999999
 30
0.0
 11
1693.34
 21
2362.449999999999
 31
0.0
  0
LINE
  5
C21
330
20E
100
AcDbEntity
  8
0-3C1
  6
CONTINUOUS
100
AcDbLine
 10
1983.34
 20
2637.449999999999
 30
0.0
 11
1973.34
 21
2362.449999999999
 31
0.0
  0
LINE
  5
C22
330
20E
100
AcDbEntity
  8
0-3C1
  6
CONTINUOUS
100
AcDbLine
 10
2733.34
 20
2272.45
 30
0.0
 11
2733.34
 21
2637.449999999999
 31
0.0
  0
LINE
  5
C23
330
20E
100
AcDbEntity
  8
0-3C1
  6
CONTINUOUS
100
AcDbLine
 10
4733.34
 20
2637.449999999999
 30
0.0
 11
4733.34
 21
2272.45
 31
0.0
  0
LINE
  5
C24
330
20E
100
AcDbEntity
  8
0-3C1
  6
CONTINUOUS
100
AcDbLine
 10
4733.34
 20
2272.45
 30
0.0
 11
2733.34
 21
2272.45
 31
0.0
  0
LINE
  5
C25
330
20E
100
AcDbEntity
  8
1-SUNPO
  6
CONTINUOUS
100
AcDbLine
 10
1628.34
 20
2837.45
 30
0.0
 11
1683.34
 21
2837.45
 31
0.0
  0
LINE
  5
C26
330
20E
100
AcDbEntity
  8
1-SUNPO
  6
CONTINUOUS
100
AcDbLine
 10
1628.34
 20
2672.449999999999
 30
0.0
 11
1628.34
 21
2837.45
 31
0.0
  0
LINE
  5
C27
330
20E
100
AcDbEntity
  8
1-SUNPO
  6
CONTINUOUS
100
AcDbLine
 10
1683.34
 20
2672.449999999999
 30
0.0
 11
1683.34
 21
2837.45
 31
0.0
  0
LINE
  5
C28
330
20E
100
AcDbEntity
  8
1-SUNPO
  6
CONTINUOUS
100
AcDbLine
 10
1628.34
 20
2837.45
 30
0.0
 11
1647.66
 21
2842.63
 31
0.0
  0
LINE
  5
C29
330
20E
100
AcDbEntity
  8
1-SUNPO
  6
CONTINUOUS
100
AcDbLine
 10
1628.34
 20
2837.45
 30
0.0
 11
1647.66
 21
2832.28
 31
0.0
  0
LINE
  5
C2A
330
20E
100
AcDbEntity
  8
1-SUNPO
  6
CONTINUOUS
100
AcDbLine
 10
1683.34
 20
2837.45
 30
0.0
 11
1664.02
 21
2842.63
 31
0.0
  0
LINE
  5
C2B
330
20E
100
AcDbEntity
  8
1-SUNPO
  6
CONTINUOUS
100
AcDbLine
 10
1683.34
 20
2837.45
 30
0.0
 11
1664.02
 21
2832.28
 31
0.0
  0
LINE
  5
C2C
330
20E
100
AcDbEntity
  8
1-SUNPO
  6
CONTINUOUS
100
AcDbLine
 10
1683.34
 20
2837.45
 30
0.0
 11
1983.34
 21
2837.45
 31
0.0
  0
LINE
  5
C2D
330
20E
100
AcDbEntity
  8
1-SUNPO
  6
CONTINUOUS
100
AcDbLine
 10
1983.34
 20
2672.449999999999
 30
0.0
 11
1983.34
 21
2837.45
 31
0.0
  0
LINE
  5
C2E
330
20E
100
AcDbEntity
  8
1-SUNPO
  6
CONTINUOUS
100
AcDbLine
 10
1683.34
 20
2837.45
 30
0.0
 11
1702.66
 21
2842.63
 31
0.0
  0
LINE
  5
C2F
330
20E
100
AcDbEntity
  8
1-SUNPO
  6
CONTINUOUS
100
AcDbLine
 10
1683.34
 20
2837.45
 30
0.0
 11
1702.66
 21
2832.28
 31
0.0
  0
LINE
  5
C30
330
20E
100
AcDbEntity
  8
1-SUNPO
  6
CONTINUOUS
100
AcDbLine
 10
1983.34
 20
2837.45
 30
0.0
 11
1964.02
 21
2842.63
 31
0.0
  0
LINE
  5
C31
330
20E
100
AcDbEntity
  8
1-SUNPO
  6
CONTINUOUS
100
AcDbLine
 10
1983.34
 20
2837.45
 30
0.0
 11
1964.02
 21
2832.28
 31
0.0
  0
LINE
  5
C32
330
20E
100
AcDbEntity
  8
1-SUNPO
  6
CONTINUOUS
100
AcDbLine
 10
1983.34
 20
2837.45
 30
0.0
 11
2033.34
 21
2837.45
 31
0.0
  0
LINE
  5
C33
330
20E
100
AcDbEntity
  8
1-SUNPO
  6
CONTINUOUS
100
AcDbLine
 10
2033.34
 20
2672.449999999999
 30
0.0
 11
2033.34
 21
2837.45
 31
0.0
  0
LINE
  5
C34
330
20E
100
AcDbEntity
  8
1-SUNPO
  6
CONTINUOUS
100
AcDbLine
 10
1983.34
 20
2837.45
 30
0.0
 11
2002.66
 21
2842.63
 31
0.0
  0
LINE
  5
C35
330
20E
100
AcDbEntity
  8
1-SUNPO
  6
CONTINUOUS
100
AcDbLine
 10
1983.34
 20
2837.45
 30
0.0
 11
2002.66
 21
2832.28
 31
0.0
  0
LINE
  5
C36
330
20E
100
AcDbEntity
  8
1-SUNPO
  6
CONTINUOUS
100
AcDbLine
 10
2033.34
 20
2837.45
 30
0.0
 11
2014.019999999999
 21
2842.63
 31
0.0
  0
LINE
  5
C37
330
20E
100
AcDbEntity
  8
1-SUNPO
  6
CONTINUOUS
100
AcDbLine
 10
2033.34
 20
2837.45
 30
0.0
 11
2014.019999999999
 21
2832.28
 31
0.0
  0
LINE
  5
C38
330
20E
100
AcDbEntity
  8
1-SUNPO
  6
CONTINUOUS
100
AcDbLine
 10
1428.34
 20
2272.45
 30
0.0
 11
1428.34
 21
2337.45
 31
0.0
  0
LINE
  5
C39
330
20E
100
AcDbEntity
  8
1-SUNPO
  6
CONTINUOUS
100
AcDbLine
 10
1593.339999999999
 20
2272.45
 30
0.0
 11
1428.34
 21
2272.45
 31
0.0
  0
LINE
  5
C3A
330
20E
100
AcDbEntity
  8
1-SUNPO
  6
CONTINUOUS
100
AcDbLine
 10
1593.339999999999
 20
2337.45
 30
0.0
 11
1428.34
 21
2337.45
 31
0.0
  0
LINE
  5
C3B
330
20E
100
AcDbEntity
  8
1-SUNPO
  6
CONTINUOUS
100
AcDbLine
 10
1428.34
 20
2272.45
 30
0.0
 11
1423.16
 21
2291.77
 31
0.0
  0
LINE
  5
C3C
330
20E
100
AcDbEntity
  8
1-SUNPO
  6
CONTINUOUS
100
AcDbLine
 10
1428.34
 20
2272.45
 30
0.0
 11
1433.52
 21
2291.77
 31
0.0
  0
LINE
  5
C3D
330
20E
100
AcDbEntity
  8
1-SUNPO
  6
CONTINUOUS
100
AcDbLine
 10
1428.34
 20
2337.45
 30
0.0
 11
1423.16
 21
2318.13
 31
0.0
  0
LINE
  5
C3E
330
20E
100
AcDbEntity
  8
1-SUNPO
  6
CONTINUOUS
100
AcDbLine
 10
1428.34
 20
2337.45
 30
0.0
 11
1433.52
 21
2318.13
 31
0.0
  0
LINE
  5
C3F
330
20E
100
AcDbEntity
  8
1-SUNPO
  6
CONTINUOUS
100
AcDbLine
 10
1428.34
 20
2337.45
 30
0.0
 11
1428.34
 21
2637.449999999999
 31
0.0
  0
LINE
  5
C40
330
20E
100
AcDbEntity
  8
1-SUNPO
  6
CONTINUOUS
100
AcDbLine
 10
1593.339999999999
 20
2637.449999999999
 30
0.0
 11
1428.34
 21
2637.449999999999
 31
0.0
  0
LINE
  5
C41
330
20E
100
AcDbEntity
  8
1-SUNPO
  6
CONTINUOUS
100
AcDbLine
 10
1428.34
 20
2337.45
 30
0.0
 11
1423.16
 21
2356.77
 31
0.0
  0
LINE
  5
C42
330
20E
100
AcDbEntity
  8
1-SUNPO
  6
CONTINUOUS
100
AcDbLine
 10
1428.34
 20
2337.45
 30
0.0
 11
1433.52
 21
2356.77
 31
0.0
  0
LINE
  5
C43
330
20E
100
AcDbEntity
  8
1-SUNPO
  6
CONTINUOUS
100
AcDbLine
 10
1428.34
 20
2637.449999999999
 30
0.0
 11
1423.16
 21
2618.13
 31
0.0
  0
LINE
  5
C44
330
20E
100
AcDbEntity
  8
1-SUNPO
  6
CONTINUOUS
100
AcDbLine
 10
1428.34
 20
2637.449999999999
 30
0.0
 11
1433.52
 21
2618.13
 31
0.0
  0
LINE
  5
C45
330
20E
100
AcDbEntity
  8
1-SUNPO
  6
CONTINUOUS
100
AcDbLine
 10
1678.34
 20
2072.449999999999
 30
0.0
 11
1983.34
 21
2072.449999999999
 31
0.0
  0
LINE
  5
C46
330
20E
100
AcDbEntity
  8
1-SUNPO
  6
CONTINUOUS
100
AcDbLine
 10
1678.34
 20
2237.449999999999
 30
0.0
 11
1678.34
 21
2072.449999999999
 31
0.0
  0
LINE
  5
C47
330
20E
100
AcDbEntity
  8
1-SUNPO
  6
CONTINUOUS
100
AcDbLine
 10
1983.34
 20
2237.449999999999
 30
0.0
 11
1983.34
 21
2072.449999999999
 31
0.0
  0
LINE
  5
C48
330
20E
100
AcDbEntity
  8
1-SUNPO
  6
CONTINUOUS
100
AcDbLine
 10
1678.34
 20
2072.449999999999
 30
0.0
 11
1697.66
 21
2077.63
 31
0.0
  0
LINE
  5
C49
330
20E
100
AcDbEntity
  8
1-SUNPO
  6
CONTINUOUS
100
AcDbLine
 10
1678.34
 20
2072.449999999999
 30
0.0
 11
1697.66
 21
2067.28
 31
0.0
  0
LINE
  5
C4A
330
20E
100
AcDbEntity
  8
1-SUNPO
  6
CONTINUOUS
100
AcDbLine
 10
1983.34
 20
2072.449999999999
 30
0.0
 11
1964.02
 21
2077.63
 31
0.0
  0
LINE
  5
C4B
330
20E
100
AcDbEntity
  8
1-SUNPO
  6
CONTINUOUS
100
AcDbLine
 10
1983.34
 20
2072.449999999999
 30
0.0
 11
1964.02
 21
2067.28
 31
0.0
  0
LINE
  5
C4C
330
20E
100
AcDbEntity
  8
1-SUNPO
  6
CONTINUOUS
100
AcDbLine
 10
1983.34
 20
2272.45
 30
0.0
 11
2109.52
 21
2272.45
 31
0.0
  0
LINE
  5
C4D
330
20E
100
AcDbEntity
  8
1-SUNPO
  6
CONTINUOUS
100
AcDbLine
 10
2030.17
 20
2272.45
 30
0.0
 11
2047.36
 21
2272.45
 31
0.0
  0
LINE
  5
C4E
330
20E
100
AcDbEntity
  8
1-SUNPO
  6
CONTINUOUS
100
AcDbLine
 10
2016.45
 20
2305.57
 30
0.0
 11
2028.61
 21
2317.72
 31
0.0
  0
LINE
  5
C4F
330
20E
100
AcDbEntity
  8
1-MOJI
  6
CONTINUOUS
100
AcDbLine
 10
1701.109999999999
 20
2344.34
 30
0.0
 11
1757.91
 21
2401.139999999999
 31
0.0
  0
LINE
  5
C50
330
20E
100
AcDbEntity
  8
1-MOJI
  6
CONTINUOUS
100
AcDbLine
 10
1701.109999999999
 20
2344.34
 30
0.0
 11
1711.11
 21
2361.66
 31
0.0
  0
LINE
  5
C51
330
20E
100
AcDbEntity
  8
1-MOJI
  6
CONTINUOUS
100
AcDbLine
 10
1701.109999999999
 20
2344.34
 30
0.0
 11
1718.43
 21
2354.34
 31
0.0
  0
LINE
  5
C52
330
20E
100
AcDbEntity
  8
1-MOJI
  6
CONTINUOUS
100
AcDbLine
 10
1693.34
 20
2637.449999999999
 30
0.0
 11
1973.34
 21
2637.449999999999
 31
0.0
  0
LINE
  5
C53
330
20E
100
AcDbEntity
  8
1-MOJI
  6
CONTINUOUS
100
AcDbLine
 10
1693.34
 20
2637.449999999999
 30
0.0
 11
1712.66
 21
2642.63
 31
0.0
  0
LINE
  5
C54
330
20E
100
AcDbEntity
  8
1-MOJI
  6
CONTINUOUS
100
AcDbLine
 10
1973.34
 20
2637.449999999999
 30
0.0
 11
1954.019999999999
 21
2642.63
 31
0.0
  0
LINE
  5
C55
330
20E
100
AcDbEntity
  8
1-MOJI
  6
CONTINUOUS
100
AcDbLine
 10
1973.34
 20
2637.449999999999
 30
0.0
 11
1954.019999999999
 21
2632.28
 31
0.0
  0
LINE
  5
C56
330
20E
100
AcDbEntity
  8
0-3C1
  6
CONTINUOUS
100
AcDbLine
 10
2733.34
 20
2322.449999999999
 30
0.0
 11
4733.34
 21
2322.449999999999
 31
0.0
  0
LINE
  5
C57
330
20E
100
AcDbEntity
  8
0-3C1
  6
CONTINUOUS
100
AcDbLine
 10
2733.34
 20
2637.449999999999
 30
0.0
 11
4733.34
 21
2637.449999999999
 31
0.0
  0
LINE
  5
C58
330
20E
100
AcDbEntity
  8
1-SUNPO
  6
CONTINUOUS
100
AcDbLine
 10
2733.34
 20
2837.45
 30
0.0
 11
4733.34
 21
2837.45
 31
0.0
  0
LINE
  5
C59
330
20E
100
AcDbEntity
  8
1-SUNPO
  6
CONTINUOUS
100
AcDbLine
 10
2733.34
 20
2672.449999999999
 30
0.0
 11
2733.34
 21
2837.45
 31
0.0
  0
LINE
  5
C5A
330
20E
100
AcDbEntity
  8
1-SUNPO
  6
CONTINUOUS
100
AcDbLine
 10
4733.34
 20
2672.449999999999
 30
0.0
 11
4733.34
 21
2837.45
 31
0.0
  0
LINE
  5
C5B
330
20E
100
AcDbEntity
  8
1-SUNPO
  6
CONTINUOUS
100
AcDbLine
 10
2733.34
 20
2837.45
 30
0.0
 11
2752.66
 21
2842.63
 31
0.0
  0
LINE
  5
C5C
330
20E
100
AcDbEntity
  8
1-SUNPO
  6
CONTINUOUS
100
AcDbLine
 10
2733.34
 20
2837.45
 30
0.0
 11
2752.66
 21
2832.28
 31
0.0
  0
LINE
  5
C5D
330
20E
100
AcDbEntity
  8
1-SUNPO
  6
CONTINUOUS
100
AcDbLine
 10
4733.34
 20
2837.45
 30
0.0
 11
4714.02
 21
2842.63
 31
0.0
  0
LINE
  5
C5E
330
20E
100
AcDbEntity
  8
1-SUNPO
  6
CONTINUOUS
100
AcDbLine
 10
4733.34
 20
2837.45
 30
0.0
 11
4714.02
 21
2832.28
 31
0.0
  0
LINE
  5
C5F
330
20E
100
AcDbEntity
  8
1-MOJI
  6
CONTINUOUS
100
AcDbLine
 10
1693.34
 20
2637.449999999999
 30
0.0
 11
1712.66
 21
2632.28
 31
0.0
  0
LINE
  5
C60
330
20E
100
AcDbEntity
  8
1-MOJI
  6
CONTINUOUS
100
AcDbLine
 10
1693.34
 20
2362.449999999999
 30
0.0
 11
1693.34
 21
2637.449999999999
 31
0.0
  0
LINE
  5
C61
330
20E
100
AcDbEntity
  8
1-MOJI
  6
CONTINUOUS
100
AcDbLine
 10
1973.34
 20
2362.449999999999
 30
0.0
 11
1973.34
 21
2637.449999999999
 31
0.0
  0
ARC
  5
C62
330
20E
100
AcDbEntity
  8
0-3C1
  6
CONTINUOUS
100
AcDbCircle
 10
1718.339999999999
 20
2362.449999999999
 30
0.0
 40
25.0
100
AcDbArc
 50
180.0
 51
270.0
  0
ARC
  5
C63
330
20E
100
AcDbEntity
  8
0-3C1
  6
CONTINUOUS
100
AcDbCircle
 10
1948.339999999999
 20
2362.449999999999
 30
0.0
 40
25.0
100
AcDbArc
 50
270.0
 51
0.0
  0
ARC
  5
C64
330
20E
100
AcDbEntity
  8
1-SUNPO
  6
CONTINUOUS
100
AcDbCircle
 10
1983.34
 20
2272.45
 30
0.0
 40
64.02
100
AcDbArc
 50
0.0
 51
45.0
  0
ARC
  5
9CEA
330
20E
100
AcDbEntity
  8
1-SUNPO
  6
CONTINUOUS
100
AcDbCircle
 10
2028.61
 20
2317.72
 30
0.0
 40
4.0
100
AcDbArc
 50
180.0
 51
0.0
  0
ARC
  5
9CEB
330
20E
100
AcDbEntity
  8
1-SUNPO
  6
CONTINUOUS
100
AcDbCircle
 10
2028.61
 20
2317.72
 30
0.0
 40
4.0
100
AcDbArc
 50
0.0
 51
180.0
  0
ARC
  5
9CEC
330
20E
100
AcDbEntity
  8
1-SUNPO
  6
CONTINUOUS
100
AcDbCircle
 10
2047.36
 20
2272.45
 30
0.0
 40
4.000000000000227
100
AcDbArc
 50
180.0
 51
0.0
  0
ARC
  5
9CED
330
20E
100
AcDbEntity
  8
1-SUNPO
  6
CONTINUOUS
100
AcDbCircle
 10
2047.36
 20
2272.45
 30
0.0
 40
4.0
100
AcDbArc
 50
0.0
 51
180.0
  0
TEXT
  5
9CEE
330
20E
100
AcDbEntity
  8
0
  6
CONTINUOUS
 62
     7
100
AcDbText
 10
566.21
 20
357.3999999999999
 30
0.0
 40
62.4
  1
片肉厚Ｕ字溝（Ｔ－２０）
100
AcDbText
  0
TEXT
  5
9CEF
330
20E
100
AcDbEntity
  8
0
  6
CONTINUOUS
 62
     7
100
AcDbText
 10
2401.63
 20
354.0599999999999
 30
0.0
 40
62.4
  1
300×300×2000
100
AcDbText
  0
TEXT
  5
9CF0
330
20E
100
AcDbEntity
  8
0
  6
CONTINUOUS
100
AcDbText
 10
3683.34
 20
2847.45
 30
0.0
 40
39.0
  1
2000
 41
0.8
100
AcDbText
  0
TEXT
  5
9CF1
330
20E
100
AcDbEntity
  8
0
  6
CONTINUOUS
100
AcDbText
 10
1795.84
 20
2647.45
 30
0.0
 40
39.0
  1
280
 41
0.8
100
AcDbText
  0
TEXT
  5
9CF2
330
20E
100
AcDbEntity
  8
0
  6
CONTINUOUS
100
AcDbText
 10
1735.109999999999
 20
2409.09
 30
0.0
 40
39.0
  1
R50
 41
0.7
100
AcDbText
  0
TEXT
  5
9CF3
330
20E
100
AcDbEntity
  8
0
  6
CONTINUOUS
100
AcDbText
 10
2037.38
 20
2335.42
 30
0.0
 40
39.0
  1
45ﾟ
 50
292.0248459339692
 41
0.8
100
AcDbText
  0
TEXT
  5
9CF4
330
20E
100
AcDbEntity
  8
0
  6
CONTINUOUS
100
AcDbText
 10
1793.339999999999
 20
2082.449999999999
 30
0.0
 40
39.0
  1
305
 41
0.8
100
AcDbText
  0
TEXT
  5
9CF5
330
20E
100
AcDbEntity
  8
0
  6
CONTINUOUS
100
AcDbText
 10
1418.339999999999
 20
2449.949999999999
 30
0.0
 40
39.0
  1
300
 50
90.0
 41
0.8
100
AcDbText
  0
TEXT
  5
9CF6
330
20E
100
AcDbEntity
  8
0
  6
CONTINUOUS
100
AcDbText
 10
1418.339999999999
 20
2279.949999999999
 30
0.0
 40
39.0
  1
65
 50
90.0
 41
0.8
100
AcDbText
  0
TEXT
  5
9CF7
330
20E
100
AcDbEntity
  8
0
  6
CONTINUOUS
100
AcDbText
 10
1983.34
 20
2847.45
 30
0.0
 40
39.0
  1
50
 41
0.8
100
AcDbText
  0
TEXT
  5
9CF8
330
20E
100
AcDbEntity
  8
0
  6
CONTINUOUS
100
AcDbText
 10
1795.84
 20
2847.45
 30
0.0
 40
39.0
  1
300
 41
0.8
100
AcDbText
  0
TEXT
  5
9CF9
330
20E
100
AcDbEntity
  8
0
  6
CONTINUOUS
100
AcDbText
 10
1630.84
 20
2847.45
 30
0.0
 40
39.0
  1
55
 41
0.8
100
AcDbText
  0
TEXT
  5
9CFA
330
20E
100
AcDbEntity
  8
0
  6
CONTINUOUS
 62
     7
100
AcDbText
 10
3237.55
 20
376.17
 30
0.0
 40
62.4
  1
１／２０
100
AcDbText
  0
TEXT
  5
9CFB
330
20E
100
AcDbEntity
  8
0
  6
CONTINUOUS
100
AcDbText
 10
2373.19
 20
505.86
 30
0.0
 40
31.2
  1
型式
100
AcDbText
  0
TEXT
  5
9CFC
330
20E
100
AcDbEntity
  8
0
  6
CONTINUOUS
100
AcDbText
 10
373.72
 20
505.86
 30
0.0
 40
31.2
  1
製品名
100
AcDbText
  0
TEXT
  5
9CFD
330
20E
100
AcDbEntity
  8
0
  6
CONTINUOUS
100
AcDbText
 10
3173.61
 20
506.92
 30
0.0
 40
31.2
  1
縮尺
100
AcDbText
  0
TEXT
  5
9CFE
330
20E
100
AcDbEntity
  8
0
  6
CONTINUOUS
100
AcDbText
 10
3809.85
 20
363.73
 30
0.0
 40
78.0
  1
千葉県コンクリート製品協同組合
100
AcDbText
  0
ENDSEC
  0
SECTION
  2
OBJECTS
  0
DICTIONARY
  5
C7E
330
0
100
AcDbDictionary
  3
ACAD_GROUP
350
C7F
  3
ACAD_MLINESTYLE
350
C80
  3
ACAD_LAYOUT
350
9CB4
  3
ACAD_PLOTSETTINGS
350
9CB5
1001
ACAD
1000
TREAT_AS_HARD
1070
     0
  0
DICTIONARY
  5
9D00
330
20E
100
AcDbDictionary
  3
ACAD_LAYOUTSELFREF
350
9D01
  0
DICTIONARY
  5
9D02
330
20F
100
AcDbDictionary
  3
ACAD_LAYOUTSELFREF
350
9D03
  0
DICTIONARY
  5
C7F
102
{ACAD_REACTORS
330
C7E
102
}
330
C7E
100
AcDbDictionary
1001
ACAD
1000
TREAT_AS_HARD
1070
     0
  0
DICTIONARY
  5
C80
102
{ACAD_REACTORS
330
C7E
102
}
330
C7E
100
AcDbDictionary
1001
ACAD
1000
TREAT_AS_HARD
1070
     0
  0
DICTIONARY
  5
9CB4
102
{ACAD_REACTORS
330
C7E
102
}
330
C7E
100
AcDbDictionary
1001
ACAD
1000
TREAT_AS_HARD
1070
     0
  0
DICTIONARY
  5
9CB5
102
{ACAD_REACTORS
330
C7E
102
}
330
C7E
100
AcDbDictionary
1001
ACAD
1000
TREAT_AS_HARD
1070
     0
  0
XRECORD
  5
9D01
102
{ACAD_REACTORS
330
9D00
102
}
330
9D00
100
AcDbXrecord
340
20E
  0
XRECORD
  5
9D03
102
{ACAD_REACTORS
330
9D02
102
}
330
9D02
100
AcDbXrecord
340
20F
  0
ENDSEC
  0
EOF
