  0
SECTION
  2
HEADER
  9
$ACADVER
  1
AC1012
  9
$DWGCODEPAGE
  3
dos932
  9
$INSBASE
 10
0.0
 20
0.0
 30
0.0
  9
$EXTMIN
 10
-0.2718908761999046
 20
-0.1922558694768668
 30
-0.0015258207003583
  9
$EXTMAX
 10
5940.317247512655
 20
4200.438327852546
 30
0.0000000349246037
  9
$LIMMIN
 10
0.0
 20
0.0
  9
$LIMMAX
 10
5940.0
 20
4200.0
  9
$ORTHOMODE
 70
     0
  9
$REGENMODE
 70
     1
  9
$FILLMODE
 70
     1
  9
$QTEXTMODE
 70
     0
  9
$MIRRTEXT
 70
     1
  9
$DRAGMODE
 70
     2
  9
$LTSCALE
 40
20.0
  9
$OSMODE
 70
    53
  9
$ATTMODE
 70
     1
  9
$TEXTSIZE
 40
0.0
  9
$TRACEWID
 40
0.05
  9
$TEXTSTYLE
  7
STANDARD
  9
$CLAYER
  8
0
  9
$CELTYPE
  6
CONTINUOUS
  9
$CECOLOR
 62
   256
  9
$CELTSCALE
 40
1.0
  9
$DELOBJ
 70
     1
  9
$DISPSILH
 70
     0
  9
$DIMSCALE
 40
20.0
  9
$DIMASZ
 40
0.18
  9
$DIMEXO
 40
0.0625
  9
$DIMDLI
 40
0.38
  9
$DIMRND
 40
0.0
  9
$DIMDLE
 40
0.0
  9
$DIMEXE
 40
0.18
  9
$DIMTP
 40
0.0
  9
$DIMTM
 40
0.0
  9
$DIMTXT
 40
0.18
  9
$DIMCEN
 40
0.09
  9
$DIMTSZ
 40
0.0
  9
$DIMTOL
 70
     0
  9
$DIMLIM
 70
     0
  9
$DIMTIH
 70
     1
  9
$DIMTOH
 70
     1
  9
$DIMSE1
 70
     0
  9
$DIMSE2
 70
     0
  9
$DIMTAD
 70
     0
  9
$DIMZIN
 70
     0
  9
$DIMBLK
  1

  9
$DIMASO
 70
     1
  9
$DIMSHO
 70
     1
  9
$DIMPOST
  1

  9
$DIMAPOST
  1

  9
$DIMALT
 70
     0
  9
$DIMALTD
 70
     2
  9
$DIMALTF
 40
25.4
  9
$DIMLFAC
 40
1.0
  9
$DIMTOFL
 70
     0
  9
$DIMTVP
 40
0.0
  9
$DIMTIX
 70
     0
  9
$DIMSOXD
 70
     0
  9
$DIMSAH
 70
     0
  9
$DIMBLK1
  1

  9
$DIMBLK2
  1

  9
$DIMSTYLE
  2
STANDARD
  9
$DIMCLRD
 70
     0
  9
$DIMCLRE
 70
     0
  9
$DIMCLRT
 70
     0
  9
$DIMTFAC
 40
1.0
  9
$DIMGAP
 40
0.09
  9
$DIMJUST
 70
     0
  9
$DIMSD1
 70
     0
  9
$DIMSD2
 70
     0
  9
$DIMTOLJ
 70
     1
  9
$DIMTZIN
 70
     0
  9
$DIMALTZ
 70
     0
  9
$DIMALTTZ
 70
     0
  9
$DIMFIT
 70
     3
  9
$DIMUPT
 70
     0
  9
$DIMUNIT
 70
     2
  9
$DIMDEC
 70
     4
  9
$DIMTDEC
 70
     4
  9
$DIMALTU
 70
     2
  9
$DIMALTTD
 70
     2
  9
$DIMTXSTY
  7
STANDARD
  9
$DIMAUNIT
 70
     0
  9
$LUNITS
 70
     2
  9
$LUPREC
 70
     4
  9
$SKETCHINC
 40
0.1
  9
$FILLETRAD
 40
0.0
  9
$AUNITS
 70
     0
  9
$AUPREC
 70
     0
  9
$MENU
  1
.
  9
$ELEVATION
 40
0.0
  9
$PELEVATION
 40
0.0
  9
$THICKNESS
 40
0.0
  9
$LIMCHECK
 70
     0
  9
$BLIPMODE
 70
     0
  9
$CHAMFERA
 40
0.0
  9
$CHAMFERB
 40
0.0
  9
$CHAMFERC
 40
0.0
  9
$CHAMFERD
 40
0.0
  9
$SKPOLY
 70
     0
  9
$TDCREATE
 40
2451851.463011354
  9
$TDUPDATE
 40
2451851.467658437
  9
$TDINDWG
 40
0.0046481250
  9
$TDUSRTIMER
 40
0.0046481250
  9
$USRTIMER
 70
     1
  9
$ANGBASE
 50
0.0
  9
$ANGDIR
 70
     0
  9
$PDMODE
 70
     0
  9
$PDSIZE
 40
40.0
  9
$PLINEWID
 40
0.0
  9
$COORDS
 70
     1
  9
$SPLFRAME
 70
     0
  9
$SPLINETYPE
 70
     6
  9
$SPLINESEGS
 70
     8
  9
$ATTDIA
 70
     0
  9
$ATTREQ
 70
     1
  9
$HANDLING
 70
 10241
  9
$HANDSEED
  5
9D06
  9
$SURFTAB1
 70
     6
  9
$SURFTAB2
 70
     6
  9
$SURFTYPE
 70
     6
  9
$SURFU
 70
     6
  9
$SURFV
 70
     6
  9
$UCSNAME
  2

  9
$UCSORG
 10
0.0
 20
0.0
 30
0.0
  9
$UCSXDIR
 10
1.0
 20
0.0
 30
0.0
  9
$UCSYDIR
 10
0.0
 20
1.0
 30
0.0
  9
$PUCSNAME
  2

  9
$PUCSORG
 10
0.0
 20
0.0
 30
0.0
  9
$PUCSXDIR
 10
1.0
 20
0.0
 30
0.0
  9
$PUCSYDIR
 10
0.0
 20
1.0
 30
0.0
  9
$USERI1
 70
     0
  9
$USERI2
 70
     0
  9
$USERI3
 70
     0
  9
$USERI4
 70
     0
  9
$USERI5
 70
     0
  9
$USERR1
 40
0.0
  9
$USERR2
 40
0.0
  9
$USERR3
 40
0.0
  9
$USERR4
 40
0.0
  9
$USERR5
 40
0.0
  9
$WORLDVIEW
 70
     1
  9
$SHADEDGE
 70
     3
  9
$SHADEDIF
 70
    70
  9
$TILEMODE
 70
     1
  9
$MAXACTVP
 70
    64
  9
$PINSBASE
 10
0.0
 20
0.0
 30
0.0
  9
$PLIMCHECK
 70
     0
  9
$PEXTMIN
 10
1.000000000000000E+20
 20
1.000000000000000E+20
 30
1.000000000000000E+20
  9
$PEXTMAX
 10
-1.000000000000000E+20
 20
-1.000000000000000E+20
 30
-1.000000000000000E+20
  9
$PLIMMIN
 10
0.0
 20
0.0
  9
$PLIMMAX
 10
12.0
 20
9.0
  9
$UNITMODE
 70
     0
  9
$VISRETAIN
 70
     1
  9
$PLINEGEN
 70
     0
  9
$PSLTSCALE
 70
     1
  9
$TREEDEPTH
 70
  3020
  9
$PICKSTYLE
 70
     1
  9
$CMLSTYLE
  2
STANDARD
  9
$CMLJUST
 70
     0
  9
$CMLSCALE
 40
1.0
  9
$SAVEIMAGES
 70
     1
  0
ENDSEC
  0
SECTION
  2
CLASSES
  0
CLASS
  1
ACDBDICTIONARYWDFLT
  2
AcDbDictionaryWithDefault
  3
AutoCAD 2000
 90
    32768
280
     0
281
     0
  0
CLASS
  1
ACDBPLACEHOLDER
  2
AcDbPlaceHolder
  3
AutoCAD 2000
 90
    32768
280
     0
281
     0
  0
CLASS
  1
LAYOUT
  2
AcDbLayout
  3
AutoCAD 2000
 90
    32768
280
     0
281
     0
  0
CLASS
  1
LONG_TRANSACTION
  2
AcDbLongTransaction
  3
AutoCAD 2000
 90
    32768
280
     0
281
     0
  0
CLASS
  1
LWPOLYLINE
  2
AcDbPolyline
  3
AutoCAD 2000
 90
    32768
280
     0
281
     1
  0
CLASS
  1
HATCH
  2
AcDbHatch
  3
AutoCAD 2000
 90
    32768
280
     0
281
     1
  0
CLASS
  1
XRECORD
  2
AcDbXrecord
  3
AutoCAD 2000
 90
    32768
280
     0
281
     0
  0
ENDSEC
  0
SECTION
  2
TABLES
  0
TABLE
  2
VPORT
  5
1F4
330
0
100
AcDbSymbolTable
 70
     3
  0
VPORT
  5
9D01
330
1F4
100
AcDbSymbolTableRecord
100
AcDbViewportTableRecord
  2
*ACTIVE
 70
     0
 10
0.0
 20
0.0
 11
1.0
 21
1.0
 12
2970.022678318228
 22
2100.123035991535
 13
0.0
 23
0.0
 14
1.0
 24
1.0
 15
0.0
 25
0.0
 16
0.0
 26
0.0
 36
1.0
 17
0.0
 27
0.0
 37
0.0
 40
4233.362770088688
 41
1.566970091027308
 42
50.0
 43
0.0
 44
0.0
 50
0.0
 51
0.0
 71
     0
 72
   100
 73
     1
 74
     1
 75
     0
 76
     0
 77
     0
 78
     0
  0
ENDTAB
  0
TABLE
  2
LTYPE
  5
1F6
330
0
100
AcDbSymbolTable
 70
     9
  0
LTYPE
  5
1F7
330
1F6
100
AcDbSymbolTableRecord
100
AcDbLinetypeTableRecord
  2
BYBLOCK
 70
     0
  3

 72
    65
 73
     0
 40
0.0
  0
LTYPE
  5
1F8
330
1F6
100
AcDbSymbolTableRecord
100
AcDbLinetypeTableRecord
  2
BYLAYER
 70
     0
  3

 72
    65
 73
     0
 40
0.0
  0
LTYPE
  5
1F9
330
1F6
100
AcDbSymbolTableRecord
100
AcDbLinetypeTableRecord
  2
CONTINUOUS
 70
     0
  3
実線
 72
    65
 73
     0
 40
0.0
  0
LTYPE
  5
1FA
330
1F6
100
AcDbSymbolTableRecord
100
AcDbLinetypeTableRecord
  2
DOT
 70
     0
  3
--  --  --  --  --  --  --  --     
 72
    65
 73
     2
 40
10.0
 49
4.0
 74
     0
 49
-6.0
 74
     0
  0
LTYPE
  5
1FB
330
1F6
100
AcDbSymbolTableRecord
100
AcDbLinetypeTableRecord
  2
DASHED
 70
     0
  3
----    ----    ----    ----    
 72
    65
 73
     2
 40
10.0
 49
6.0
 74
     0
 49
-4.0
 74
     0
  0
LTYPE
  5
1FC
330
1F6
100
AcDbSymbolTableRecord
100
AcDbLinetypeTableRecord
  2
DASHED2
 70
     0
  3
------  ------  ------  ------ 
 72
    65
 73
     2
 40
15.0
 49
10.0
 74
     0
 49
-5.0
 74
     0
  0
LTYPE
  5
1FD
330
1F6
100
AcDbSymbolTableRecord
100
AcDbLinetypeTableRecord
  2
CENTER
 70
     0
  3
----- - ----- - ----- - ----- - 
 72
    65
 73
     4
 40
9.0
 49
6.0
 74
     0
 49
-1.0
 74
     0
 49
1.0
 74
     0
 49
-1.0
 74
     0
  0
LTYPE
  5
1FE
330
1F6
100
AcDbSymbolTableRecord
100
AcDbLinetypeTableRecord
  2
CENTER2
 70
     0
  3
----------  --  ----------  --  
 72
    65
 73
     4
 40
18.0
 49
12.0
 74
     0
 49
-2.0
 74
     0
 49
2.0
 74
     0
 49
-2.0
 74
     0
  0
LTYPE
  5
1FF
330
1F6
100
AcDbSymbolTableRecord
100
AcDbLinetypeTableRecord
  2
PHANTOM
 70
     0
  3
--- - - --- - - --- - - --- - - 
 72
    65
 73
     6
 40
10.0
 49
5.0
 74
     0
 49
-1.0
 74
     0
 49
1.0
 74
     0
 49
-1.0
 74
     0
 49
1.0
 74
     0
 49
-1.0
 74
     0
  0
LTYPE
  5
200
330
1F6
100
AcDbSymbolTableRecord
100
AcDbLinetypeTableRecord
  2
PHANTOM2
 70
     0
  3
--------  -  -  --------  -  - 
 72
    65
 73
     6
 40
16.0
 49
6.0
 74
     0
 49
-2.0
 74
     0
 49
2.0
 74
     0
 49
-2.0
 74
     0
 49
2.0
 74
     0
 49
-2.0
 74
     0
  0
LTYPE
  5
201
330
1F6
100
AcDbSymbolTableRecord
100
AcDbLinetypeTableRecord
  2
HIDDEN
 70
     0
  3
-   -   -   -   -   -   -   -   
 72
    65
 73
     2
 40
2.5
 49
0.5
 74
     0
 49
-2.0
 74
     0
  0
ENDTAB
  0
TABLE
  2
LAYER
  5
C82
330
0
100
AcDbSymbolTable
 70
     7
  0
LAYER
  5
C83
330
C82
100
AcDbSymbolTableRecord
100
AcDbLayerTableRecord
  2
0
 70
     0
 62
     7
  6
CONTINUOUS
  0
LAYER
  5
C84
330
C82
100
AcDbSymbolTableRecord
100
AcDbLayerTableRecord
  2
0-3C1
 70
     0
 62
     7
  6
CONTINUOUS
  0
LAYER
  5
C85
330
C82
100
AcDbSymbolTableRecord
100
AcDbLayerTableRecord
  2
0-ADD
 70
     0
 62
    -7
  6
CONTINUOUS
  0
LAYER
  5
C86
330
C82
100
AcDbSymbolTableRecord
100
AcDbLayerTableRecord
  2
1-HOJO
 70
     0
 62
     7
  6
CONTINUOUS
  0
LAYER
  5
C87
330
C82
100
AcDbSymbolTableRecord
100
AcDbLayerTableRecord
  2
1-MOJI
 70
     0
 62
     7
  6
CONTINUOUS
  0
LAYER
  5
C88
330
C82
100
AcDbSymbolTableRecord
100
AcDbLayerTableRecord
  2
1-SUNPO
 70
     0
 62
     7
  6
CONTINUOUS
  0
LAYER
  5
C89
330
C82
100
AcDbSymbolTableRecord
100
AcDbLayerTableRecord
  2
1-ADD
 70
     0
 62
    -7
  6
CONTINUOUS
  0
ENDTAB
  0
TABLE
  2
STYLE
  5
202
330
0
100
AcDbSymbolTable
 70
     4
  0
STYLE
  5
203
330
202
100
AcDbSymbolTableRecord
100
AcDbTextStyleTableRecord
  2
STANDARD
 70
     0
 40
0.0
 41
1.0
 50
0.0
 71
     0
 42
0.0
  3
txt.shx
  4
extfont.shx
  0
STYLE
  5
204
330
202
100
AcDbSymbolTableRecord
100
AcDbTextStyleTableRecord
  2
TATEGAKI
 70
     4
 40
0.0
 41
1.0
 50
0.0
 71
     0
 42
0.0
  3
txt.shx
  4
extfont.shx
  0
STYLE
  5
205
330
202
100
AcDbSymbolTableRecord
100
AcDbTextStyleTableRecord
  2
MT
 70
     0
 40
0.0
 41
1.0
 50
0.0
 71
     0
 42
0.0
  3
MS Gothic
  4

  0
STYLE
  5
206
330
202
100
AcDbSymbolTableRecord
100
AcDbTextStyleTableRecord
  2
TMT
 70
     4
 40
0.0
 41
1.0
 50
0.0
 71
     0
 42
0.0
  3
@MS Gothic
  4

  0
ENDTAB
  0
TABLE
  2
VIEW
  5
207
330
0
100
AcDbSymbolTable
 70
     0
  0
ENDTAB
  0
TABLE
  2
UCS
  5
208
330
0
100
AcDbSymbolTable
 70
     0
  0
ENDTAB
  0
TABLE
  2
APPID
  5
209
330
0
100
AcDbSymbolTable
 70
     1
  0
APPID
  5
20A
330
209
100
AcDbSymbolTableRecord
100
AcDbRegAppTableRecord
  2
ACAD
 70
     0
  0
ENDTAB
  0
TABLE
  2
DIMSTYLE
  5
20B
330
0
100
AcDbSymbolTable
 70
     1
  0
DIMSTYLE
105
20C
330
20B
100
AcDbSymbolTableRecord
100
AcDbDimStyleTableRecord
  2
STANDARD
 70
     0
  3

  4

  5

  6

  7

 40
1.0
 41
0.18
 42
0.0625
 43
0.38
 44
0.18
 45
0.0
 46
0.0
 47
0.0
 48
0.0
140
0.18
141
0.09
142
0.0
143
25.4
144
1.0
145
0.0
146
1.0
147
0.09
 71
     0
 72
     0
 73
     1
 74
     1
 75
     0
 76
     0
 77
     0
 78
     0
170
     0
171
     2
172
     0
173
     0
174
     0
175
     0
176
     0
177
     0
178
     0
270
     2
271
     4
272
     4
273
     2
274
     2
340
0
275
     0
280
     0
281
     0
282
     0
283
     1
284
     0
285
     0
286
     0
287
     3
288
     0
  0
ENDTAB
  0
TABLE
  2
BLOCK_RECORD
  5
20D
330
0
100
AcDbSymbolTable
 70
     1
  0
BLOCK_RECORD
  5
20E
102
{ACAD_XDICTIONARY
360
9D02
102
}
330
20D
100
AcDbSymbolTableRecord
100
AcDbBlockTableRecord
  2
*MODEL_SPACE
  0
BLOCK_RECORD
  5
20F
102
{ACAD_XDICTIONARY
360
9D04
102
}
330
20D
100
AcDbSymbolTableRecord
100
AcDbBlockTableRecord
  2
*PAPER_SPACE
  0
BLOCK_RECORD
  5
210
330
20D
100
AcDbSymbolTableRecord
100
AcDbBlockTableRecord
  2
REVDATE
  0
ENDTAB
  0
ENDSEC
  0
SECTION
  2
BLOCKS
  0
BLOCK
  5
C8A
330
20E
100
AcDbEntity
  8
0
100
AcDbBlockBegin
  2
*MODEL_SPACE
 70
     0
 10
0.0
 20
0.0
 30
0.0
  3
*MODEL_SPACE
  1

  0
ENDBLK
  5
C8B
330
20E
100
AcDbEntity
  8
0
100
AcDbBlockEnd
  0
BLOCK
  5
C8C
330
20F
100
AcDbEntity
 67
     1
  8
0
100
AcDbBlockBegin
  2
*PAPER_SPACE
 70
     0
 10
0.0
 20
0.0
 30
0.0
  3
*PAPER_SPACE
  1

  0
ENDBLK
  5
C8D
330
20F
100
AcDbEntity
 67
     1
  8
0
100
AcDbBlockEnd
  0
BLOCK
  5
C8E
330
210
100
AcDbEntity
  8
0
100
AcDbBlockBegin
  2
REVDATE
 70
     2
 10
0.0
 20
0.0
 30
0.0
  3
REVDATE
  1
REVDATE
  0
ATTDEF
  5
C8F
330
210
100
AcDbEntity
  8
0
 62
     0
100
AcDbText
 10
0.0
 20
0.0
 30
0.0
 40
1.0
  1

100
AcDbAttributeDefinition
  3

  2
USER
 70
     8
  0
ATTDEF
  5
C90
330
210
100
AcDbEntity
  8
0
 62
     0
100
AcDbText
 10
0.0
 20
0.0
 30
0.0
 40
1.0
  1

100
AcDbAttributeDefinition
  3

  2
REVDATE
 70
     8
  0
ATTDEF
  5
C91
330
210
100
AcDbEntity
  8
0
 62
     0
100
AcDbText
 10
0.0
 20
0.0
 30
0.0
 40
1.0
  1

100
AcDbAttributeDefinition
  3

  2
FNAME
 70
     8
  0
ENDBLK
  5
C92
330
210
100
AcDbEntity
  8
0
100
AcDbBlockEnd
  0
ENDSEC
  0
SECTION
  2
ENTITIES
  0
LINE
  5
C93
330
20E
100
AcDbEntity
  8
1-HOJO
  6
CONTINUOUS
 62
     5
100
AcDbLine
 10
0.0
 20
0.0
 30
0.0
 11
5940.0
 21
0.0
 31
0.0
  0
LINE
  5
C94
330
20E
100
AcDbEntity
  8
1-HOJO
  6
CONTINUOUS
 62
     5
100
AcDbLine
 10
5940.0
 20
0.0
 30
0.0
 11
5940.0
 21
4200.0
 31
0.0
  0
LINE
  5
C95
330
20E
100
AcDbEntity
  8
1-HOJO
  6
CONTINUOUS
 62
     5
100
AcDbLine
 10
5940.0
 20
4200.0
 30
0.0
 11
0.0
 21
4200.0
 31
0.0
  0
LINE
  5
C96
330
20E
100
AcDbEntity
  8
1-HOJO
  6
CONTINUOUS
 62
     5
100
AcDbLine
 10
0.0
 20
4200.0
 30
0.0
 11
0.0
 21
0.0
 31
0.0
  0
LINE
  5
C97
330
20E
100
AcDbEntity
  8
1-HOJO
  6
CONTINUOUS
 62
     5
100
AcDbLine
 10
360.0
 20
260.0
 30
0.0
 11
5580.0
 21
260.0
 31
0.0
  0
LINE
  5
C98
330
20E
100
AcDbEntity
  8
1-HOJO
  6
CONTINUOUS
 62
     5
100
AcDbLine
 10
5580.0
 20
260.0
 30
0.0
 11
5580.0
 21
3940.0
 31
0.0
  0
LINE
  5
C99
330
20E
100
AcDbEntity
  8
1-HOJO
  6
CONTINUOUS
 62
     5
100
AcDbLine
 10
5580.0
 20
3940.0
 30
0.0
 11
360.0
 21
3940.0
 31
0.0
  0
LINE
  5
C9A
330
20E
100
AcDbEntity
  8
1-HOJO
  6
CONTINUOUS
 62
     5
100
AcDbLine
 10
360.0
 20
3940.0
 30
0.0
 11
360.0
 21
260.0
 31
0.0
  0
LINE
  5
C9B
330
20E
100
AcDbEntity
  8
1-HOJO
  6
CONTINUOUS
 62
     5
100
AcDbLine
 10
360.0
 20
260.0
 30
0.0
 11
5580.0
 21
260.0
 31
0.0
  0
LINE
  5
C9C
330
20E
100
AcDbEntity
  8
1-HOJO
  6
CONTINUOUS
 62
     5
100
AcDbLine
 10
360.0
 20
560.0
 30
0.0
 11
5580.0
 21
560.0
 31
0.0
  0
LINE
  5
C9D
330
20E
100
AcDbEntity
  8
1-HOJO
  6
CONTINUOUS
 62
     5
100
AcDbLine
 10
360.0
 20
260.0
 30
0.0
 11
360.0
 21
560.0
 31
0.0
  0
LINE
  5
C9E
330
20E
100
AcDbEntity
  8
1-HOJO
  6
CONTINUOUS
 62
     5
100
AcDbLine
 10
2360.0
 20
260.0
 30
0.0
 11
2360.0
 21
560.0
 31
0.0
  0
LINE
  5
C9F
330
20E
100
AcDbEntity
  8
1-HOJO
  6
CONTINUOUS
 62
     5
100
AcDbLine
 10
3160.0
 20
260.0
 30
0.0
 11
3160.0
 21
560.0
 31
0.0
  0
LINE
  5
CA0
330
20E
100
AcDbEntity
  8
1-HOJO
  6
CONTINUOUS
 62
     5
100
AcDbLine
 10
3660.0
 20
260.0
 30
0.0
 11
3660.0
 21
560.0
 31
0.0
  0
LINE
  5
CA1
330
20E
100
AcDbEntity
  8
0-3C1
  6
CONTINUOUS
100
AcDbLine
 10
4733.34
 20
2272.45
 30
0.0
 11
2733.34
 21
2272.45
 31
0.0
  0
LINE
  5
CA2
330
20E
100
AcDbEntity
  8
1-SUNPO
  6
CONTINUOUS
100
AcDbLine
 10
2037.199999999999
 20
2262.449999999999
 30
0.0
 11
2163.38
 21
2262.449999999999
 31
0.0
  0
LINE
  5
CA3
330
20E
100
AcDbEntity
  8
1-SUNPO
  6
CONTINUOUS
100
AcDbLine
 10
2084.039999999999
 20
2262.449999999999
 30
0.0
 11
2101.23
 21
2262.449999999999
 31
0.0
  0
LINE
  5
CA4
330
20E
100
AcDbEntity
  8
1-SUNPO
  6
CONTINUOUS
100
AcDbLine
 10
2070.32
 20
2295.57
 30
0.0
 11
2082.47
 21
2307.719999999999
 31
0.0
  0
LINE
  5
CA5
330
20E
100
AcDbEntity
  8
1-MOJI
  6
CONTINUOUS
100
AcDbLine
 10
1701.109999999999
 20
2344.34
 30
0.0
 11
1757.91
 21
2401.139999999999
 31
0.0
  0
LINE
  5
CA6
330
20E
100
AcDbEntity
  8
1-MOJI
  6
CONTINUOUS
100
AcDbLine
 10
1701.109999999999
 20
2344.34
 30
0.0
 11
1711.11
 21
2361.66
 31
0.0
  0
LINE
  5
CA7
330
20E
100
AcDbEntity
  8
1-MOJI
  6
CONTINUOUS
100
AcDbLine
 10
1701.109999999999
 20
2344.34
 30
0.0
 11
1718.43
 21
2354.34
 31
0.0
  0
LINE
  5
CA8
330
20E
100
AcDbEntity
  8
0-3C1
  6
CONTINUOUS
100
AcDbLine
 10
2733.34
 20
2697.449999999999
 30
0.0
 11
4733.34
 21
2697.449999999999
 31
0.0
  0
LINE
  5
CA9
330
20E
100
AcDbEntity
  8
1-SUNPO
  6
CONTINUOUS
100
AcDbLine
 10
2733.34
 20
2897.45
 30
0.0
 11
4733.34
 21
2897.45
 31
0.0
  0
LINE
  5
CAA
330
20E
100
AcDbEntity
  8
1-SUNPO
  6
CONTINUOUS
100
AcDbLine
 10
2733.34
 20
2732.45
 30
0.0
 11
2733.34
 21
2897.45
 31
0.0
  0
LINE
  5
CAB
330
20E
100
AcDbEntity
  8
1-SUNPO
  6
CONTINUOUS
100
AcDbLine
 10
4733.34
 20
2732.45
 30
0.0
 11
4733.34
 21
2897.45
 31
0.0
  0
LINE
  5
CAC
330
20E
100
AcDbEntity
  8
1-SUNPO
  6
CONTINUOUS
100
AcDbLine
 10
2733.34
 20
2897.45
 30
0.0
 11
2752.66
 21
2902.63
 31
0.0
  0
LINE
  5
CAD
330
20E
100
AcDbEntity
  8
1-SUNPO
  6
CONTINUOUS
100
AcDbLine
 10
2733.34
 20
2897.45
 30
0.0
 11
2752.66
 21
2892.28
 31
0.0
  0
LINE
  5
CAE
330
20E
100
AcDbEntity
  8
1-SUNPO
  6
CONTINUOUS
100
AcDbLine
 10
4733.34
 20
2897.45
 30
0.0
 11
4714.02
 21
2902.63
 31
0.0
  0
LINE
  5
CAF
330
20E
100
AcDbEntity
  8
1-SUNPO
  6
CONTINUOUS
100
AcDbLine
 10
4733.34
 20
2897.45
 30
0.0
 11
4714.02
 21
2892.28
 31
0.0
  0
LINE
  5
CB0
330
20E
100
AcDbEntity
  8
0-3C1
  6
CONTINUOUS
100
AcDbLine
 10
1681.52
 20
2687.45
 30
0.0
 11
1693.34
 21
2362.449999999999
 31
0.0
  0
LINE
  5
CB1
330
20E
100
AcDbEntity
  8
0-3C1
  6
CONTINUOUS
100
AcDbLine
 10
2031.519999999999
 20
2687.45
 30
0.0
 11
2019.699999999999
 21
2362.449999999999
 31
0.0
  0
LINE
  5
CB2
330
20E
100
AcDbEntity
  8
0-3C1
  6
CONTINUOUS
100
AcDbLine
 10
1681.52
 20
2687.45
 30
0.0
 11
1621.52
 21
2687.45
 31
0.0
  0
LINE
  5
CB3
330
20E
100
AcDbEntity
  8
0-3C1
  6
CONTINUOUS
100
AcDbLine
 10
2031.519999999999
 20
2687.45
 30
0.0
 11
2081.52
 21
2687.45
 31
0.0
  0
LINE
  5
CB4
330
20E
100
AcDbEntity
  8
0-3C1
  6
CONTINUOUS
100
AcDbLine
 10
1621.52
 20
2687.45
 30
0.0
 11
1621.52
 21
2311.77
 31
0.0
  0
LINE
  5
CB5
330
20E
100
AcDbEntity
  8
0-3C1
  6
CONTINUOUS
100
AcDbLine
 10
1670.84
 20
2262.449999999999
 30
0.0
 11
1621.52
 21
2311.77
 31
0.0
  0
LINE
  5
CB6
330
20E
100
AcDbEntity
  8
0-3C1
  6
CONTINUOUS
100
AcDbLine
 10
2081.52
 20
2687.45
 30
0.0
 11
2081.52
 21
2306.769999999999
 31
0.0
  0
LINE
  5
CB7
330
20E
100
AcDbEntity
  8
0-3C1
  6
CONTINUOUS
100
AcDbLine
 10
2081.52
 20
2306.769999999999
 30
0.0
 11
2037.199999999999
 21
2262.449999999999
 31
0.0
  0
LINE
  5
CB8
330
20E
100
AcDbEntity
  8
0-3C1
  6
CONTINUOUS
100
AcDbLine
 10
2733.34
 20
2272.45
 30
0.0
 11
2733.34
 21
2697.449999999999
 31
0.0
  0
LINE
  5
CB9
330
20E
100
AcDbEntity
  8
0-3C1
  6
CONTINUOUS
100
AcDbLine
 10
4733.34
 20
2697.449999999999
 30
0.0
 11
4733.34
 21
2272.45
 31
0.0
  0
LINE
  5
CBA
330
20E
100
AcDbEntity
  8
1-ADD
  6
HIDDEN
 62
     7
100
AcDbLine
 10
1421.52
 20
2687.45
 30
0.0
 11
1421.52
 21
2311.77
 31
0.0
  0
LINE
  5
CBB
330
20E
100
AcDbEntity
  8
1-SUNPO
  6
CONTINUOUS
100
AcDbLine
 10
1621.52
 20
2887.449999999999
 30
0.0
 11
1681.52
 21
2887.449999999999
 31
0.0
  0
LINE
  5
CBC
330
20E
100
AcDbEntity
  8
1-SUNPO
  6
CONTINUOUS
100
AcDbLine
 10
1621.52
 20
2722.45
 30
0.0
 11
1621.52
 21
2887.449999999999
 31
0.0
  0
LINE
  5
CBD
330
20E
100
AcDbEntity
  8
1-SUNPO
  6
CONTINUOUS
100
AcDbLine
 10
1621.52
 20
2887.449999999999
 30
0.0
 11
1640.84
 21
2892.63
 31
0.0
  0
LINE
  5
CBE
330
20E
100
AcDbEntity
  8
1-SUNPO
  6
CONTINUOUS
100
AcDbLine
 10
1621.52
 20
2887.449999999999
 30
0.0
 11
1640.84
 21
2882.28
 31
0.0
  0
LINE
  5
CBF
330
20E
100
AcDbEntity
  8
1-SUNPO
  6
CONTINUOUS
100
AcDbLine
 10
1681.52
 20
2887.449999999999
 30
0.0
 11
1662.2
 21
2892.63
 31
0.0
  0
LINE
  5
CC0
330
20E
100
AcDbEntity
  8
1-SUNPO
  6
CONTINUOUS
100
AcDbLine
 10
1681.52
 20
2887.449999999999
 30
0.0
 11
1662.2
 21
2882.28
 31
0.0
  0
LINE
  5
CC1
330
20E
100
AcDbEntity
  8
0-3C1
  6
CONTINUOUS
100
AcDbLine
 10
1421.52
 20
2262.449999999999
 30
0.0
 11
1421.52
 21
2337.45
 31
0.0
  0
LINE
  5
CC2
330
20E
100
AcDbEntity
  8
0-3C1
  6
CONTINUOUS
100
AcDbLine
 10
1586.52
 20
2262.449999999999
 30
0.0
 11
1421.52
 21
2262.449999999999
 31
0.0
  0
LINE
  5
CC3
330
20E
100
AcDbEntity
  8
0-3C1
  6
CONTINUOUS
100
AcDbLine
 10
1586.52
 20
2337.45
 30
0.0
 11
1421.52
 21
2337.45
 31
0.0
  0
LINE
  5
CC4
330
20E
100
AcDbEntity
  8
0-3C1
  6
CONTINUOUS
100
AcDbLine
 10
1421.52
 20
2262.449999999999
 30
0.0
 11
1416.349999999999
 21
2281.769999999999
 31
0.0
  0
LINE
  5
CC5
330
20E
100
AcDbEntity
  8
0-3C1
  6
CONTINUOUS
100
AcDbLine
 10
1421.52
 20
2262.449999999999
 30
0.0
 11
1426.7
 21
2281.769999999999
 31
0.0
  0
LINE
  5
CC6
330
20E
100
AcDbEntity
  8
0-3C1
  6
CONTINUOUS
100
AcDbLine
 10
1421.52
 20
2337.45
 30
0.0
 11
1416.349999999999
 21
2318.13
 31
0.0
  0
LINE
  5
CC7
330
20E
100
AcDbEntity
  8
0-3C1
  6
CONTINUOUS
100
AcDbLine
 10
1421.52
 20
2337.45
 30
0.0
 11
1426.7
 21
2318.13
 31
0.0
  0
LINE
  5
CC8
330
20E
100
AcDbEntity
  8
0-3C1
  6
CONTINUOUS
100
AcDbLine
 10
1421.52
 20
2337.45
 30
0.0
 11
1421.52
 21
2687.45
 31
0.0
  0
LINE
  5
CC9
330
20E
100
AcDbEntity
  8
0-3C1
  6
CONTINUOUS
100
AcDbLine
 10
1586.52
 20
2687.45
 30
0.0
 11
1421.52
 21
2687.45
 31
0.0
  0
LINE
  5
CCA
330
20E
100
AcDbEntity
  8
0-3C1
  6
CONTINUOUS
100
AcDbLine
 10
1421.52
 20
2337.45
 30
0.0
 11
1416.349999999999
 21
2356.77
 31
0.0
  0
LINE
  5
CCB
330
20E
100
AcDbEntity
  8
0-3C1
  6
CONTINUOUS
100
AcDbLine
 10
1421.52
 20
2337.45
 30
0.0
 11
1426.7
 21
2356.77
 31
0.0
  0
LINE
  5
CCC
330
20E
100
AcDbEntity
  8
0-3C1
  6
CONTINUOUS
100
AcDbLine
 10
1421.52
 20
2687.45
 30
0.0
 11
1416.349999999999
 21
2668.13
 31
0.0
  0
LINE
  5
CCD
330
20E
100
AcDbEntity
  8
0-3C1
  6
CONTINUOUS
100
AcDbLine
 10
1421.52
 20
2687.45
 30
0.0
 11
1426.7
 21
2668.13
 31
0.0
  0
LINE
  5
CCE
330
20E
100
AcDbEntity
  8
0-3C1
  6
CONTINUOUS
100
AcDbLine
 10
1994.699999999999
 20
2337.45
 30
0.0
 11
1718.339999999999
 21
2337.45
 31
0.0
  0
LINE
  5
CCF
330
20E
100
AcDbEntity
  8
0-3C1
  6
CONTINUOUS
100
AcDbLine
 10
2037.199999999999
 20
2262.449999999999
 30
0.0
 11
1670.84
 21
2262.449999999999
 31
0.0
  0
LINE
  5
CD0
330
20E
100
AcDbEntity
  8
1-SUNPO
  6
CONTINUOUS
100
AcDbLine
 10
1681.52
 20
2887.449999999999
 30
0.0
 11
2031.519999999999
 21
2887.449999999999
 31
0.0
  0
LINE
  5
CD1
330
20E
100
AcDbEntity
  8
1-SUNPO
  6
CONTINUOUS
100
AcDbLine
 10
1681.52
 20
2722.45
 30
0.0
 11
1681.52
 21
2887.449999999999
 31
0.0
  0
LINE
  5
CD2
330
20E
100
AcDbEntity
  8
1-SUNPO
  6
CONTINUOUS
100
AcDbLine
 10
2031.519999999999
 20
2722.45
 30
0.0
 11
2031.519999999999
 21
2887.449999999999
 31
0.0
  0
LINE
  5
CD3
330
20E
100
AcDbEntity
  8
1-SUNPO
  6
CONTINUOUS
100
AcDbLine
 10
1681.52
 20
2887.449999999999
 30
0.0
 11
1700.839999999999
 21
2892.63
 31
0.0
  0
LINE
  5
CD4
330
20E
100
AcDbEntity
  8
1-SUNPO
  6
CONTINUOUS
100
AcDbLine
 10
1681.52
 20
2887.449999999999
 30
0.0
 11
1700.839999999999
 21
2882.28
 31
0.0
  0
LINE
  5
CD5
330
20E
100
AcDbEntity
  8
1-SUNPO
  6
CONTINUOUS
100
AcDbLine
 10
2031.519999999999
 20
2887.449999999999
 30
0.0
 11
2012.199999999999
 21
2892.63
 31
0.0
  0
LINE
  5
CD6
330
20E
100
AcDbEntity
  8
1-SUNPO
  6
CONTINUOUS
100
AcDbLine
 10
2031.519999999999
 20
2887.449999999999
 30
0.0
 11
2012.199999999999
 21
2882.28
 31
0.0
  0
LINE
  5
CD7
330
20E
100
AcDbEntity
  8
1-SUNPO
  6
CONTINUOUS
100
AcDbLine
 10
2031.519999999999
 20
2887.449999999999
 30
0.0
 11
2081.52
 21
2887.449999999999
 31
0.0
  0
LINE
  5
CD8
330
20E
100
AcDbEntity
  8
1-SUNPO
  6
CONTINUOUS
100
AcDbLine
 10
2081.52
 20
2722.45
 30
0.0
 11
2081.52
 21
2887.449999999999
 31
0.0
  0
LINE
  5
CD9
330
20E
100
AcDbEntity
  8
1-SUNPO
  6
CONTINUOUS
100
AcDbLine
 10
2031.519999999999
 20
2887.449999999999
 30
0.0
 11
2050.84
 21
2892.63
 31
0.0
  0
LINE
  5
CDA
330
20E
100
AcDbEntity
  8
1-SUNPO
  6
CONTINUOUS
100
AcDbLine
 10
2031.519999999999
 20
2887.449999999999
 30
0.0
 11
2050.84
 21
2882.28
 31
0.0
  0
LINE
  5
CDB
330
20E
100
AcDbEntity
  8
1-SUNPO
  6
CONTINUOUS
100
AcDbLine
 10
2081.52
 20
2887.449999999999
 30
0.0
 11
2062.2
 21
2892.63
 31
0.0
  0
LINE
  5
CDC
330
20E
100
AcDbEntity
  8
1-SUNPO
  6
CONTINUOUS
100
AcDbLine
 10
2081.52
 20
2887.449999999999
 30
0.0
 11
2062.2
 21
2882.28
 31
0.0
  0
LINE
  5
CDD
330
20E
100
AcDbEntity
  8
1-ADD
  6
HIDDEN
 62
     7
100
AcDbLine
 10
2037.199999999999
 20
2062.449999999999
 30
0.0
 11
1670.84
 21
2062.449999999999
 31
0.0
  0
LINE
  5
CDE
330
20E
100
AcDbEntity
  8
1-SUNPO
  6
CONTINUOUS
100
AcDbLine
 10
1670.84
 20
2062.449999999999
 30
0.0
 11
2037.199999999999
 21
2062.449999999999
 31
0.0
  0
LINE
  5
CDF
330
20E
100
AcDbEntity
  8
1-SUNPO
  6
CONTINUOUS
100
AcDbLine
 10
1670.84
 20
2227.45
 30
0.0
 11
1670.84
 21
2062.449999999999
 31
0.0
  0
LINE
  5
CE0
330
20E
100
AcDbEntity
  8
1-SUNPO
  6
CONTINUOUS
100
AcDbLine
 10
2037.199999999999
 20
2227.45
 30
0.0
 11
2037.199999999999
 21
2062.449999999999
 31
0.0
  0
LINE
  5
CE1
330
20E
100
AcDbEntity
  8
1-SUNPO
  6
CONTINUOUS
100
AcDbLine
 10
1670.84
 20
2062.449999999999
 30
0.0
 11
1690.16
 21
2067.63
 31
0.0
  0
LINE
  5
CE2
330
20E
100
AcDbEntity
  8
1-SUNPO
  6
CONTINUOUS
100
AcDbLine
 10
1670.84
 20
2062.449999999999
 30
0.0
 11
1690.16
 21
2057.279999999999
 31
0.0
  0
LINE
  5
CE3
330
20E
100
AcDbEntity
  8
1-SUNPO
  6
CONTINUOUS
100
AcDbLine
 10
2037.199999999999
 20
2062.449999999999
 30
0.0
 11
2017.89
 21
2067.63
 31
0.0
  0
LINE
  5
CE4
330
20E
100
AcDbEntity
  8
1-SUNPO
  6
CONTINUOUS
100
AcDbLine
 10
2037.199999999999
 20
2062.449999999999
 30
0.0
 11
2017.89
 21
2057.279999999999
 31
0.0
  0
LINE
  5
CE5
330
20E
100
AcDbEntity
  8
1-SUNPO
  6
CONTINUOUS
100
AcDbLine
 10
1693.34
 20
2687.45
 30
0.0
 11
2019.699999999999
 21
2687.45
 31
0.0
  0
LINE
  5
CE6
330
20E
100
AcDbEntity
  8
1-SUNPO
  6
CONTINUOUS
100
AcDbLine
 10
1693.34
 20
2362.449999999999
 30
0.0
 11
1693.34
 21
2687.45
 31
0.0
  0
LINE
  5
CE7
330
20E
100
AcDbEntity
  8
1-SUNPO
  6
CONTINUOUS
100
AcDbLine
 10
2019.699999999999
 20
2362.449999999999
 30
0.0
 11
2019.699999999999
 21
2687.45
 31
0.0
  0
LINE
  5
CE8
330
20E
100
AcDbEntity
  8
1-SUNPO
  6
CONTINUOUS
100
AcDbLine
 10
1693.34
 20
2687.45
 30
0.0
 11
1712.66
 21
2692.63
 31
0.0
  0
LINE
  5
CE9
330
20E
100
AcDbEntity
  8
1-SUNPO
  6
CONTINUOUS
100
AcDbLine
 10
1693.34
 20
2687.45
 30
0.0
 11
1712.66
 21
2682.28
 31
0.0
  0
LINE
  5
CEA
330
20E
100
AcDbEntity
  8
1-SUNPO
  6
CONTINUOUS
100
AcDbLine
 10
2019.699999999999
 20
2687.45
 30
0.0
 11
2000.38
 21
2692.63
 31
0.0
  0
LINE
  5
CEB
330
20E
100
AcDbEntity
  8
1-SUNPO
  6
CONTINUOUS
100
AcDbLine
 10
2019.699999999999
 20
2687.45
 30
0.0
 11
2000.38
 21
2682.28
 31
0.0
  0
LINE
  5
CEC
330
20E
100
AcDbEntity
  8
0-3C1
  6
CONTINUOUS
100
AcDbLine
 10
2733.34
 20
2306.769999999999
 30
0.0
 11
4733.34
 21
2306.769999999999
 31
0.0
  0
ARC
  5
CED
330
20E
100
AcDbEntity
  8
0-3C1
  6
CONTINUOUS
100
AcDbCircle
 10
1718.339999999999
 20
2362.449999999999
 30
0.0
 40
25.0
100
AcDbArc
 50
180.0
 51
270.0
  0
ARC
  5
CEE
330
20E
100
AcDbEntity
  8
0-3C1
  6
CONTINUOUS
100
AcDbCircle
 10
1994.699999999999
 20
2362.449999999999
 30
0.0
 40
25.0
100
AcDbArc
 50
270.0
 51
0.0
  0
ARC
  5
CEF
330
20E
100
AcDbEntity
  8
1-SUNPO
  6
CONTINUOUS
100
AcDbCircle
 10
2037.199999999999
 20
2262.449999999999
 30
0.0
 40
64.02
100
AcDbArc
 50
0.0
 51
45.0
  0
ARC
  5
9CEC
330
20E
100
AcDbEntity
  8
1-SUNPO
  6
CONTINUOUS
100
AcDbCircle
 10
2082.47
 20
2307.719999999999
 30
0.0
 40
4.0
100
AcDbArc
 50
180.0
 51
0.0
  0
ARC
  5
9CED
330
20E
100
AcDbEntity
  8
1-SUNPO
  6
CONTINUOUS
100
AcDbCircle
 10
2082.47
 20
2307.719999999999
 30
0.0
 40
4.0
100
AcDbArc
 50
0.0
 51
180.0
  0
ARC
  5
9CEE
330
20E
100
AcDbEntity
  8
1-SUNPO
  6
CONTINUOUS
100
AcDbCircle
 10
2101.23
 20
2262.449999999999
 30
0.0
 40
4.0
100
AcDbArc
 50
180.0
 51
0.0
  0
ARC
  5
9CEF
330
20E
100
AcDbEntity
  8
1-SUNPO
  6
CONTINUOUS
100
AcDbCircle
 10
2101.23
 20
2262.449999999999
 30
0.0
 40
4.0
100
AcDbArc
 50
0.0
 51
180.0
  0
TEXT
  5
9CF0
330
20E
100
AcDbEntity
  8
0
  6
CONTINUOUS
 62
     7
100
AcDbText
 10
516.82
 20
353.5199999999999
 30
0.0
 40
62.4
  1
片肉厚Ｕ字溝（Ｔ－２０）
100
AcDbText
  0
TEXT
  5
9CF1
330
20E
100
AcDbEntity
  8
0
  6
CONTINUOUS
100
AcDbText
 10
1819.02
 20
2697.449999999999
 30
0.0
 40
39.0
  1
320
 41
0.8
100
AcDbText
  0
TEXT
  5
9CF2
330
20E
100
AcDbEntity
  8
0
  6
CONTINUOUS
100
AcDbText
 10
1816.519999999999
 20
2072.449999999999
 30
0.0
 40
39.0
  1
360
 41
0.8
100
AcDbText
  0
TEXT
  5
9CF3
330
20E
100
AcDbEntity
  8
0
  6
CONTINUOUS
100
AcDbText
 10
2031.519999999999
 20
2897.45
 30
0.0
 40
39.0
  1
50
 41
0.8
100
AcDbText
  0
TEXT
  5
9CF4
330
20E
100
AcDbEntity
  8
0
  6
CONTINUOUS
100
AcDbText
 10
1819.02
 20
2897.45
 30
0.0
 40
39.0
  1
350
 41
0.8
100
AcDbText
  0
TEXT
  5
9CF5
330
20E
100
AcDbEntity
  8
0
  6
CONTINUOUS
100
AcDbText
 10
1411.52
 20
2474.949999999999
 30
0.0
 40
39.0
  1
350
 50
90.0
 41
0.8
100
AcDbText
  0
TEXT
  5
9CF6
330
20E
100
AcDbEntity
  8
0
  6
CONTINUOUS
100
AcDbText
 10
1411.52
 20
2274.95
 30
0.0
 40
39.0
  1
75
 50
90.0
 41
0.8
100
AcDbText
  0
TEXT
  5
9CF7
330
20E
100
AcDbEntity
  8
0
  6
CONTINUOUS
100
AcDbText
 10
1626.52
 20
2897.45
 30
0.0
 40
39.0
  1
60
 41
0.8
100
AcDbText
  0
TEXT
  5
9CF8
330
20E
100
AcDbEntity
  8
0
  6
CONTINUOUS
 62
     7
100
AcDbText
 10
2409.21
 20
375.7099999999999
 30
0.0
 40
62.4
  1
350×350×2000
100
AcDbText
  0
TEXT
  5
9CF9
330
20E
100
AcDbEntity
  8
0
  6
CONTINUOUS
100
AcDbText
 10
3683.34
 20
2907.45
 30
0.0
 40
39.0
  1
2000
 41
0.8
100
AcDbText
  0
TEXT
  5
9CFA
330
20E
100
AcDbEntity
  8
0
  6
CONTINUOUS
100
AcDbText
 10
1735.109999999999
 20
2409.09
 30
0.0
 40
39.0
  1
R50
 41
0.7
100
AcDbText
  0
TEXT
  5
9CFB
330
20E
100
AcDbEntity
  8
0
  6
CONTINUOUS
100
AcDbText
 10
2091.239999999999
 20
2325.42
 30
0.0
 40
39.0
  1
45ﾟ
 50
292.0248459339692
 41
0.8
100
AcDbText
  0
TEXT
  5
9CFC
330
20E
100
AcDbEntity
  8
0
  6
CONTINUOUS
 62
     7
100
AcDbText
 10
3237.55
 20
376.17
 30
0.0
 40
62.4
  1
１／２０
100
AcDbText
  0
TEXT
  5
9CFD
330
20E
100
AcDbEntity
  8
0
  6
CONTINUOUS
100
AcDbText
 10
2373.19
 20
505.86
 30
0.0
 40
31.2
  1
型式
100
AcDbText
  0
TEXT
  5
9CFE
330
20E
100
AcDbEntity
  8
0
  6
CONTINUOUS
100
AcDbText
 10
373.72
 20
505.86
 30
0.0
 40
31.2
  1
製品名
100
AcDbText
  0
TEXT
  5
9CFF
330
20E
100
AcDbEntity
  8
0
  6
CONTINUOUS
100
AcDbText
 10
3173.61
 20
506.92
 30
0.0
 40
31.2
  1
縮尺
100
AcDbText
  0
TEXT
  5
9D00
330
20E
100
AcDbEntity
  8
0
  6
CONTINUOUS
100
AcDbText
 10
3809.85
 20
363.73
 30
0.0
 40
78.0
  1
千葉県コンクリート製品協同組合
100
AcDbText
  0
ENDSEC
  0
SECTION
  2
OBJECTS
  0
DICTIONARY
  5
D09
330
0
100
AcDbDictionary
  3
ACAD_GROUP
350
D0A
  3
ACAD_MLINESTYLE
350
D0B
  3
ACAD_LAYOUT
350
9CB6
  3
ACAD_PLOTSETTINGS
350
9CB7
1001
ACAD
1000
TREAT_AS_HARD
1070
     0
  0
DICTIONARY
  5
9D02
330
20E
100
AcDbDictionary
  3
ACAD_LAYOUTSELFREF
350
9D03
  0
DICTIONARY
  5
9D04
330
20F
100
AcDbDictionary
  3
ACAD_LAYOUTSELFREF
350
9D05
  0
DICTIONARY
  5
D0A
102
{ACAD_REACTORS
330
D09
102
}
330
D09
100
AcDbDictionary
1001
ACAD
1000
TREAT_AS_HARD
1070
     0
  0
DICTIONARY
  5
D0B
102
{ACAD_REACTORS
330
D09
102
}
330
D09
100
AcDbDictionary
1001
ACAD
1000
TREAT_AS_HARD
1070
     0
  0
DICTIONARY
  5
9CB6
102
{ACAD_REACTORS
330
D09
102
}
330
D09
100
AcDbDictionary
1001
ACAD
1000
TREAT_AS_HARD
1070
     0
  0
DICTIONARY
  5
9CB7
102
{ACAD_REACTORS
330
D09
102
}
330
D09
100
AcDbDictionary
1001
ACAD
1000
TREAT_AS_HARD
1070
     0
  0
XRECORD
  5
9D03
102
{ACAD_REACTORS
330
9D02
102
}
330
9D02
100
AcDbXrecord
340
20E
  0
XRECORD
  5
9D05
102
{ACAD_REACTORS
330
9D04
102
}
330
9D04
100
AcDbXrecord
340
20F
  0
ENDSEC
  0
EOF
