  0
SECTION
  2
HEADER
  9
$ACADVER
  1
AC1012
  9
$DWGCODEPAGE
  3
dos932
  9
$INSBASE
 10
0.0
 20
0.0
 30
0.0
  9
$EXTMIN
 10
-0.2718908761999046
 20
-0.1922558694768668
 30
-0.0015258207003583
  9
$EXTMAX
 10
5940.317247512655
 20
4200.438327852546
 30
0.0000000349246037
  9
$LIMMIN
 10
0.0
 20
0.0
  9
$LIMMAX
 10
5940.0
 20
4200.0
  9
$ORTHOMODE
 70
     0
  9
$REGENMODE
 70
     1
  9
$FILLMODE
 70
     1
  9
$QTEXTMODE
 70
     0
  9
$MIRRTEXT
 70
     1
  9
$DRAGMODE
 70
     2
  9
$LTSCALE
 40
20.0
  9
$OSMODE
 70
    37
  9
$ATTMODE
 70
     1
  9
$TEXTSIZE
 40
0.0
  9
$TRACEWID
 40
0.05
  9
$TEXTSTYLE
  7
STANDARD
  9
$CLAYER
  8
0
  9
$CELTYPE
  6
CONTINUOUS
  9
$CECOLOR
 62
   256
  9
$CELTSCALE
 40
1.0
  9
$DELOBJ
 70
     1
  9
$DISPSILH
 70
     0
  9
$DIMSCALE
 40
20.0
  9
$DIMASZ
 40
0.18
  9
$DIMEXO
 40
0.0625
  9
$DIMDLI
 40
0.38
  9
$DIMRND
 40
0.0
  9
$DIMDLE
 40
0.0
  9
$DIMEXE
 40
0.18
  9
$DIMTP
 40
0.0
  9
$DIMTM
 40
0.0
  9
$DIMTXT
 40
0.18
  9
$DIMCEN
 40
0.09
  9
$DIMTSZ
 40
0.0
  9
$DIMTOL
 70
     0
  9
$DIMLIM
 70
     0
  9
$DIMTIH
 70
     1
  9
$DIMTOH
 70
     1
  9
$DIMSE1
 70
     0
  9
$DIMSE2
 70
     0
  9
$DIMTAD
 70
     0
  9
$DIMZIN
 70
     0
  9
$DIMBLK
  1

  9
$DIMASO
 70
     1
  9
$DIMSHO
 70
     1
  9
$DIMPOST
  1

  9
$DIMAPOST
  1

  9
$DIMALT
 70
     0
  9
$DIMALTD
 70
     2
  9
$DIMALTF
 40
25.4
  9
$DIMLFAC
 40
1.0
  9
$DIMTOFL
 70
     0
  9
$DIMTVP
 40
0.0
  9
$DIMTIX
 70
     0
  9
$DIMSOXD
 70
     0
  9
$DIMSAH
 70
     0
  9
$DIMBLK1
  1

  9
$DIMBLK2
  1

  9
$DIMSTYLE
  2
STANDARD
  9
$DIMCLRD
 70
     0
  9
$DIMCLRE
 70
     0
  9
$DIMCLRT
 70
     0
  9
$DIMTFAC
 40
1.0
  9
$DIMGAP
 40
0.09
  9
$DIMJUST
 70
     0
  9
$DIMSD1
 70
     0
  9
$DIMSD2
 70
     0
  9
$DIMTOLJ
 70
     1
  9
$DIMTZIN
 70
     0
  9
$DIMALTZ
 70
     0
  9
$DIMALTTZ
 70
     0
  9
$DIMFIT
 70
     3
  9
$DIMUPT
 70
     0
  9
$DIMUNIT
 70
     2
  9
$DIMDEC
 70
     4
  9
$DIMTDEC
 70
     4
  9
$DIMALTU
 70
     2
  9
$DIMALTTD
 70
     2
  9
$DIMTXSTY
  7
STANDARD
  9
$DIMAUNIT
 70
     0
  9
$LUNITS
 70
     2
  9
$LUPREC
 70
     4
  9
$SKETCHINC
 40
0.1
  9
$FILLETRAD
 40
0.0
  9
$AUNITS
 70
     0
  9
$AUPREC
 70
     0
  9
$MENU
  1
.
  9
$ELEVATION
 40
0.0
  9
$PELEVATION
 40
0.0
  9
$THICKNESS
 40
0.0
  9
$LIMCHECK
 70
     0
  9
$BLIPMODE
 70
     0
  9
$CHAMFERA
 40
0.0
  9
$CHAMFERB
 40
0.0
  9
$CHAMFERC
 40
0.0
  9
$CHAMFERD
 40
0.0
  9
$SKPOLY
 70
     0
  9
$TDCREATE
 40
2451893.555050705
  9
$TDUPDATE
 40
2451893.563342847
  9
$TDINDWG
 40
0.0082935301
  9
$TDUSRTIMER
 40
0.0082935301
  9
$USRTIMER
 70
     1
  9
$ANGBASE
 50
0.0
  9
$ANGDIR
 70
     0
  9
$PDMODE
 70
     0
  9
$PDSIZE
 40
40.0
  9
$PLINEWID
 40
0.0
  9
$COORDS
 70
     1
  9
$SPLFRAME
 70
     0
  9
$SPLINETYPE
 70
     6
  9
$SPLINESEGS
 70
     8
  9
$ATTDIA
 70
     0
  9
$ATTREQ
 70
     1
  9
$HANDLING
 70
 10241
  9
$HANDSEED
  5
9D43
  9
$SURFTAB1
 70
     6
  9
$SURFTAB2
 70
     6
  9
$SURFTYPE
 70
     6
  9
$SURFU
 70
     6
  9
$SURFV
 70
     6
  9
$UCSNAME
  2

  9
$UCSORG
 10
0.0
 20
0.0
 30
0.0
  9
$UCSXDIR
 10
1.0
 20
0.0
 30
0.0
  9
$UCSYDIR
 10
0.0
 20
1.0
 30
0.0
  9
$PUCSNAME
  2

  9
$PUCSORG
 10
0.0
 20
0.0
 30
0.0
  9
$PUCSXDIR
 10
1.0
 20
0.0
 30
0.0
  9
$PUCSYDIR
 10
0.0
 20
1.0
 30
0.0
  9
$USERI1
 70
     0
  9
$USERI2
 70
     0
  9
$USERI3
 70
     0
  9
$USERI4
 70
     0
  9
$USERI5
 70
     0
  9
$USERR1
 40
0.0
  9
$USERR2
 40
0.0
  9
$USERR3
 40
0.0
  9
$USERR4
 40
0.0
  9
$USERR5
 40
0.0
  9
$WORLDVIEW
 70
     1
  9
$SHADEDGE
 70
     3
  9
$SHADEDIF
 70
    70
  9
$TILEMODE
 70
     1
  9
$MAXACTVP
 70
    64
  9
$PINSBASE
 10
0.0
 20
0.0
 30
0.0
  9
$PLIMCHECK
 70
     0
  9
$PEXTMIN
 10
1.000000000000000E+20
 20
1.000000000000000E+20
 30
1.000000000000000E+20
  9
$PEXTMAX
 10
-1.000000000000000E+20
 20
-1.000000000000000E+20
 30
-1.000000000000000E+20
  9
$PLIMMIN
 10
0.0
 20
0.0
  9
$PLIMMAX
 10
12.0
 20
9.0
  9
$UNITMODE
 70
     0
  9
$VISRETAIN
 70
     1
  9
$PLINEGEN
 70
     0
  9
$PSLTSCALE
 70
     1
  9
$TREEDEPTH
 70
  3020
  9
$PICKSTYLE
 70
     1
  9
$CMLSTYLE
  2
STANDARD
  9
$CMLJUST
 70
     0
  9
$CMLSCALE
 40
1.0
  9
$SAVEIMAGES
 70
     1
  0
ENDSEC
  0
SECTION
  2
CLASSES
  0
CLASS
  1
ACDBDICTIONARYWDFLT
  2
AcDbDictionaryWithDefault
  3
AutoCAD 2000
 90
    32768
280
     0
281
     0
  0
CLASS
  1
ACDBPLACEHOLDER
  2
AcDbPlaceHolder
  3
AutoCAD 2000
 90
    32768
280
     0
281
     0
  0
CLASS
  1
LAYOUT
  2
AcDbLayout
  3
AutoCAD 2000
 90
    32768
280
     0
281
     0
  0
CLASS
  1
DICTIONARYVAR
  2
AcDbDictionaryVar
  3
AutoCAD 2000
 90
    32768
280
     0
281
     0
  0
CLASS
  1
LONG_TRANSACTION
  2
AcDbLongTransaction
  3
AutoCAD 2000
 90
    32768
280
     0
281
     0
  0
CLASS
  1
LWPOLYLINE
  2
AcDbPolyline
  3
AutoCAD 2000
 90
    32768
280
     0
281
     1
  0
CLASS
  1
HATCH
  2
AcDbHatch
  3
AutoCAD 2000
 90
    32768
280
     0
281
     1
  0
CLASS
  1
XRECORD
  2
AcDbXrecord
  3
AutoCAD 2000
 90
    32768
280
     0
281
     0
  0
ENDSEC
  0
SECTION
  2
TABLES
  0
TABLE
  2
VPORT
  5
1F4
330
0
100
AcDbSymbolTable
 70
     5
  0
VPORT
  5
9D3E
330
1F4
100
AcDbSymbolTableRecord
100
AcDbViewportTableRecord
  2
*ACTIVE
 70
     0
 10
0.0
 20
0.0
 11
1.0
 21
1.0
 12
2970.022678318228
 22
2100.123035991535
 13
0.0
 23
0.0
 14
1.0
 24
1.0
 15
0.0
 25
0.0
 16
0.0
 26
0.0
 36
1.0
 17
0.0
 27
0.0
 37
0.0
 40
4233.793456751407
 41
1.571805006587615
 42
50.0
 43
0.0
 44
0.0
 50
0.0
 51
0.0
 71
     0
 72
   100
 73
     1
 74
     1
 75
     0
 76
     0
 77
     0
 78
     0
  0
ENDTAB
  0
TABLE
  2
LTYPE
  5
1F6
330
0
100
AcDbSymbolTable
 70
     9
  0
LTYPE
  5
1F7
330
1F6
100
AcDbSymbolTableRecord
100
AcDbLinetypeTableRecord
  2
BYBLOCK
 70
     0
  3

 72
    65
 73
     0
 40
0.0
  0
LTYPE
  5
1F8
330
1F6
100
AcDbSymbolTableRecord
100
AcDbLinetypeTableRecord
  2
BYLAYER
 70
     0
  3

 72
    65
 73
     0
 40
0.0
  0
LTYPE
  5
1F9
330
1F6
100
AcDbSymbolTableRecord
100
AcDbLinetypeTableRecord
  2
CONTINUOUS
 70
     0
  3
実線
 72
    65
 73
     0
 40
0.0
  0
LTYPE
  5
1FA
330
1F6
100
AcDbSymbolTableRecord
100
AcDbLinetypeTableRecord
  2
DOT
 70
     0
  3
--  --  --  --  --  --  --  --     
 72
    65
 73
     2
 40
10.0
 49
4.0
 74
     0
 49
-6.0
 74
     0
  0
LTYPE
  5
1FB
330
1F6
100
AcDbSymbolTableRecord
100
AcDbLinetypeTableRecord
  2
DASHED
 70
     0
  3
----    ----    ----    ----    
 72
    65
 73
     2
 40
10.0
 49
6.0
 74
     0
 49
-4.0
 74
     0
  0
LTYPE
  5
1FC
330
1F6
100
AcDbSymbolTableRecord
100
AcDbLinetypeTableRecord
  2
DASHED2
 70
     0
  3
------  ------  ------  ------ 
 72
    65
 73
     2
 40
15.0
 49
10.0
 74
     0
 49
-5.0
 74
     0
  0
LTYPE
  5
1FD
330
1F6
100
AcDbSymbolTableRecord
100
AcDbLinetypeTableRecord
  2
CENTER
 70
     0
  3
----- - ----- - ----- - ----- - 
 72
    65
 73
     4
 40
9.0
 49
6.0
 74
     0
 49
-1.0
 74
     0
 49
1.0
 74
     0
 49
-1.0
 74
     0
  0
LTYPE
  5
1FE
330
1F6
100
AcDbSymbolTableRecord
100
AcDbLinetypeTableRecord
  2
CENTER2
 70
     0
  3
----------  --  ----------  --  
 72
    65
 73
     4
 40
18.0
 49
12.0
 74
     0
 49
-2.0
 74
     0
 49
2.0
 74
     0
 49
-2.0
 74
     0
  0
LTYPE
  5
1FF
330
1F6
100
AcDbSymbolTableRecord
100
AcDbLinetypeTableRecord
  2
PHANTOM
 70
     0
  3
--- - - --- - - --- - - --- - - 
 72
    65
 73
     6
 40
10.0
 49
5.0
 74
     0
 49
-1.0
 74
     0
 49
1.0
 74
     0
 49
-1.0
 74
     0
 49
1.0
 74
     0
 49
-1.0
 74
     0
  0
LTYPE
  5
200
330
1F6
100
AcDbSymbolTableRecord
100
AcDbLinetypeTableRecord
  2
PHANTOM2
 70
     0
  3
--------  -  -  --------  -  - 
 72
    65
 73
     6
 40
16.0
 49
6.0
 74
     0
 49
-2.0
 74
     0
 49
2.0
 74
     0
 49
-2.0
 74
     0
 49
2.0
 74
     0
 49
-2.0
 74
     0
  0
LTYPE
  5
201
330
1F6
100
AcDbSymbolTableRecord
100
AcDbLinetypeTableRecord
  2
HIDDEN
 70
     0
  3
-   -   -   -   -   -   -   -   
 72
    65
 73
     2
 40
2.5
 49
0.5
 74
     0
 49
-2.0
 74
     0
  0
ENDTAB
  0
TABLE
  2
LAYER
  5
3E8
330
0
100
AcDbSymbolTable
 70
     8
  0
LAYER
  5
3E9
330
3E8
100
AcDbSymbolTableRecord
100
AcDbLayerTableRecord
  2
0
 70
     0
 62
     7
  6
CONTINUOUS
  0
LAYER
  5
3EA
330
3E8
100
AcDbSymbolTableRecord
100
AcDbLayerTableRecord
  2
0-3C1
 70
     0
 62
     7
  6
CONTINUOUS
  0
LAYER
  5
3EB
330
3E8
100
AcDbSymbolTableRecord
100
AcDbLayerTableRecord
  2
0-ADD
 70
     0
 62
    -7
  6
CONTINUOUS
  0
LAYER
  5
3EC
330
3E8
100
AcDbSymbolTableRecord
100
AcDbLayerTableRecord
  2
1-HOJO
 70
     0
 62
     7
  6
CONTINUOUS
  0
LAYER
  5
3ED
330
3E8
100
AcDbSymbolTableRecord
100
AcDbLayerTableRecord
  2
1-KIJUN
 70
     0
 62
     7
  6
CONTINUOUS
  0
LAYER
  5
3EE
330
3E8
100
AcDbSymbolTableRecord
100
AcDbLayerTableRecord
  2
1-SUNPO
 70
     0
 62
     7
  6
CONTINUOUS
  0
LAYER
  5
3EF
330
3E8
100
AcDbSymbolTableRecord
100
AcDbLayerTableRecord
  2
1-ADD
 70
     0
 62
    -7
  6
CONTINUOUS
  0
LAYER
  5
9CF3
330
3E8
100
AcDbSymbolTableRecord
100
AcDbLayerTableRecord
  2
MOJI
 70
     0
 62
     7
  6
CONTINUOUS
  0
ENDTAB
  0
TABLE
  2
STYLE
  5
202
330
0
100
AcDbSymbolTable
 70
     4
  0
STYLE
  5
203
330
202
100
AcDbSymbolTableRecord
100
AcDbTextStyleTableRecord
  2
STANDARD
 70
     0
 40
0.0
 41
1.0
 50
0.0
 71
     0
 42
0.0
  3
txt.shx
  4
extfont.shx
  0
STYLE
  5
204
330
202
100
AcDbSymbolTableRecord
100
AcDbTextStyleTableRecord
  2
TATEGAKI
 70
     4
 40
0.0
 41
1.0
 50
0.0
 71
     0
 42
0.0
  3
txt.shx
  4
extfont.shx
  0
STYLE
  5
205
330
202
100
AcDbSymbolTableRecord
100
AcDbTextStyleTableRecord
  2
MT
 70
     0
 40
0.0
 41
1.0
 50
0.0
 71
     0
 42
0.0
  3
MS Gothic
  4

  0
STYLE
  5
206
330
202
100
AcDbSymbolTableRecord
100
AcDbTextStyleTableRecord
  2
TMT
 70
     4
 40
0.0
 41
1.0
 50
0.0
 71
     0
 42
0.0
  3
@MS Gothic
  4

  0
ENDTAB
  0
TABLE
  2
VIEW
  5
207
330
0
100
AcDbSymbolTable
 70
     0
  0
ENDTAB
  0
TABLE
  2
UCS
  5
208
330
0
100
AcDbSymbolTable
 70
     0
  0
ENDTAB
  0
TABLE
  2
APPID
  5
209
330
0
100
AcDbSymbolTable
 70
     1
  0
APPID
  5
20A
330
209
100
AcDbSymbolTableRecord
100
AcDbRegAppTableRecord
  2
ACAD
 70
     0
  0
ENDTAB
  0
TABLE
  2
DIMSTYLE
  5
20B
330
0
100
AcDbSymbolTable
 70
     1
  0
DIMSTYLE
105
20C
330
20B
100
AcDbSymbolTableRecord
100
AcDbDimStyleTableRecord
  2
STANDARD
 70
     0
  3

  4

  5

  6

  7

 40
1.0
 41
0.18
 42
0.0625
 43
0.38
 44
0.18
 45
0.0
 46
0.0
 47
0.0
 48
0.0
140
0.18
141
0.09
142
0.0
143
25.4
144
1.0
145
0.0
146
1.0
147
0.09
 71
     0
 72
     0
 73
     1
 74
     1
 75
     0
 76
     0
 77
     0
 78
     0
170
     0
171
     2
172
     0
173
     0
174
     0
175
     0
176
     0
177
     0
178
     0
270
     2
271
     4
272
     4
273
     2
274
     2
340
0
275
     0
280
     0
281
     0
282
     0
283
     1
284
     0
285
     0
286
     0
287
     3
288
     0
  0
ENDTAB
  0
TABLE
  2
BLOCK_RECORD
  5
20D
330
0
100
AcDbSymbolTable
 70
     1
  0
BLOCK_RECORD
  5
20E
102
{ACAD_XDICTIONARY
360
9D3F
102
}
330
20D
100
AcDbSymbolTableRecord
100
AcDbBlockTableRecord
  2
*MODEL_SPACE
  0
BLOCK_RECORD
  5
20F
102
{ACAD_XDICTIONARY
360
9D41
102
}
330
20D
100
AcDbSymbolTableRecord
100
AcDbBlockTableRecord
  2
*PAPER_SPACE
  0
BLOCK_RECORD
  5
210
330
20D
100
AcDbSymbolTableRecord
100
AcDbBlockTableRecord
  2
REVDATE
  0
ENDTAB
  0
ENDSEC
  0
SECTION
  2
BLOCKS
  0
BLOCK
  5
3F0
330
20E
100
AcDbEntity
  8
0
100
AcDbBlockBegin
  2
*MODEL_SPACE
 70
     0
 10
0.0
 20
0.0
 30
0.0
  3
*MODEL_SPACE
  1

  0
ENDBLK
  5
3F1
330
20E
100
AcDbEntity
  8
0
100
AcDbBlockEnd
  0
BLOCK
  5
3F2
330
20F
100
AcDbEntity
 67
     1
  8
0
100
AcDbBlockBegin
  2
*PAPER_SPACE
 70
     0
 10
0.0
 20
0.0
 30
0.0
  3
*PAPER_SPACE
  1

  0
ENDBLK
  5
3F3
330
20F
100
AcDbEntity
 67
     1
  8
0
100
AcDbBlockEnd
  0
BLOCK
  5
3F4
330
210
100
AcDbEntity
  8
0
100
AcDbBlockBegin
  2
REVDATE
 70
     2
 10
0.0
 20
0.0
 30
0.0
  3
REVDATE
  1
REVDATE
  0
ATTDEF
  5
3F5
330
210
100
AcDbEntity
  8
0
 62
     0
100
AcDbText
 10
0.0
 20
0.0
 30
0.0
 40
1.0
  1

100
AcDbAttributeDefinition
  3

  2
USER
 70
     8
  0
ATTDEF
  5
3F6
330
210
100
AcDbEntity
  8
0
 62
     0
100
AcDbText
 10
0.0
 20
0.0
 30
0.0
 40
1.0
  1

100
AcDbAttributeDefinition
  3

  2
REVDATE
 70
     8
  0
ATTDEF
  5
3F7
330
210
100
AcDbEntity
  8
0
 62
     0
100
AcDbText
 10
0.0
 20
0.0
 30
0.0
 40
1.0
  1

100
AcDbAttributeDefinition
  3

  2
FNAME
 70
     8
  0
ENDBLK
  5
3F8
330
210
100
AcDbEntity
  8
0
100
AcDbBlockEnd
  0
ENDSEC
  0
SECTION
  2
ENTITIES
  0
LINE
  5
3F9
330
20E
100
AcDbEntity
  8
1-HOJO
  6
CONTINUOUS
 62
     5
100
AcDbLine
 10
0.0
 20
0.0
 30
0.0
 11
5940.0
 21
0.0
 31
0.0
  0
LINE
  5
3FA
330
20E
100
AcDbEntity
  8
1-HOJO
  6
CONTINUOUS
 62
     5
100
AcDbLine
 10
5940.0
 20
0.0
 30
0.0
 11
5940.0
 21
4200.0
 31
0.0
  0
LINE
  5
3FB
330
20E
100
AcDbEntity
  8
1-HOJO
  6
CONTINUOUS
 62
     5
100
AcDbLine
 10
5940.0
 20
4200.0
 30
0.0
 11
0.0
 21
4200.0
 31
0.0
  0
LINE
  5
3FC
330
20E
100
AcDbEntity
  8
1-HOJO
  6
CONTINUOUS
 62
     5
100
AcDbLine
 10
0.0
 20
4200.0
 30
0.0
 11
0.0
 21
0.0
 31
0.0
  0
LINE
  5
3FD
330
20E
100
AcDbEntity
  8
1-HOJO
  6
CONTINUOUS
 62
     5
100
AcDbLine
 10
360.0
 20
260.0
 30
0.0
 11
5580.0
 21
260.0
 31
0.0
  0
LINE
  5
3FE
330
20E
100
AcDbEntity
  8
1-HOJO
  6
CONTINUOUS
 62
     5
100
AcDbLine
 10
5580.0
 20
260.0
 30
0.0
 11
5580.0
 21
3940.0
 31
0.0
  0
LINE
  5
3FF
330
20E
100
AcDbEntity
  8
1-HOJO
  6
CONTINUOUS
 62
     5
100
AcDbLine
 10
5580.0
 20
3940.0
 30
0.0
 11
360.0
 21
3940.0
 31
0.0
  0
LINE
  5
400
330
20E
100
AcDbEntity
  8
1-HOJO
  6
CONTINUOUS
 62
     5
100
AcDbLine
 10
360.0
 20
3940.0
 30
0.0
 11
360.0
 21
260.0
 31
0.0
  0
LINE
  5
401
330
20E
100
AcDbEntity
  8
1-HOJO
  6
CONTINUOUS
 62
     5
100
AcDbLine
 10
360.0
 20
260.0
 30
0.0
 11
5580.0
 21
260.0
 31
0.0
  0
LINE
  5
402
330
20E
100
AcDbEntity
  8
1-HOJO
  6
CONTINUOUS
 62
     5
100
AcDbLine
 10
360.0
 20
560.0
 30
0.0
 11
5580.0
 21
560.0
 31
0.0
  0
LINE
  5
403
330
20E
100
AcDbEntity
  8
1-HOJO
  6
CONTINUOUS
 62
     5
100
AcDbLine
 10
360.0
 20
260.0
 30
0.0
 11
360.0
 21
560.0
 31
0.0
  0
LINE
  5
404
330
20E
100
AcDbEntity
  8
1-HOJO
  6
CONTINUOUS
 62
     5
100
AcDbLine
 10
2360.0
 20
260.0
 30
0.0
 11
2360.0
 21
560.0
 31
0.0
  0
LINE
  5
405
330
20E
100
AcDbEntity
  8
1-HOJO
  6
CONTINUOUS
 62
     5
100
AcDbLine
 10
3160.0
 20
260.0
 30
0.0
 11
3160.0
 21
560.0
 31
0.0
  0
LINE
  5
406
330
20E
100
AcDbEntity
  8
1-HOJO
  6
CONTINUOUS
 62
     5
100
AcDbLine
 10
3660.0
 20
260.0
 30
0.0
 11
3660.0
 21
560.0
 31
0.0
  0
LINE
  5
407
330
20E
100
AcDbEntity
  8
1-ADD
  6
HIDDEN
 62
     7
100
AcDbLine
 10
2006.26
 20
2775.49
 30
0.0
 11
2006.26
 21
2820.489999999999
 31
0.0
  0
LINE
  5
408
330
20E
100
AcDbEntity
  8
1-ADD
  6
HIDDEN
 62
     7
100
AcDbLine
 10
2006.26
 20
2820.489999999999
 30
0.0
 11
2351.26
 21
2820.489999999999
 31
0.0
  0
LINE
  5
409
330
20E
100
AcDbEntity
  8
1-ADD
  6
HIDDEN
 62
     7
100
AcDbLine
 10
2351.26
 20
2775.49
 30
0.0
 11
2006.26
 21
2775.49
 31
0.0
  0
LINE
  5
40A
330
20E
100
AcDbEntity
  8
1-ADD
  6
HIDDEN
 62
     7
100
AcDbLine
 10
2351.26
 20
2820.489999999999
 30
0.0
 11
4152.56
 21
2820.489999999999
 31
0.0
  0
LINE
  5
40B
330
20E
100
AcDbEntity
  8
1-ADD
  6
HIDDEN
 62
     7
100
AcDbLine
 10
2818.12
 20
2954.03
 30
0.0
 11
2818.12
 21
1794.089999999999
 31
0.0
  0
LINE
  5
40C
330
20E
100
AcDbEntity
  8
1-ADD
  6
HIDDEN
 62
     7
100
AcDbLine
 10
2006.26
 20
1458.79
 30
0.0
 11
2006.26
 21
2458.79
 31
0.0
  0
LINE
  5
40D
330
20E
100
AcDbEntity
  8
1-ADD
  6
HIDDEN
 62
     7
100
AcDbLine
 10
2006.26
 20
2458.79
 30
0.0
 11
2351.26
 21
2458.79
 31
0.0
  0
LINE
  5
40E
330
20E
100
AcDbEntity
  8
1-ADD
  6
HIDDEN
 62
     7
100
AcDbLine
 10
2351.26
 20
1458.79
 30
0.0
 11
2006.26
 21
1458.79
 31
0.0
  0
LINE
  5
40F
330
20E
100
AcDbEntity
  8
1-ADD
  6
HIDDEN
 62
     7
100
AcDbLine
 10
2818.12
 20
2775.49
 30
0.0
 11
2818.12
 21
2820.489999999999
 31
0.0
  0
LINE
  5
410
330
20E
100
AcDbEntity
  8
1-ADD
  6
HIDDEN
 62
     7
100
AcDbLine
 10
2818.12
 20
2820.489999999999
 30
0.0
 11
3818.12
 21
2820.489999999999
 31
0.0
  0
LINE
  5
411
330
20E
100
AcDbEntity
  8
1-ADD
  6
HIDDEN
 62
     7
100
AcDbLine
 10
3818.12
 20
2820.489999999999
 30
0.0
 11
3818.12
 21
2775.49
 31
0.0
  0
LINE
  5
412
330
20E
100
AcDbEntity
  8
1-ADD
  6
HIDDEN
 62
     7
100
AcDbLine
 10
3818.12
 20
2775.49
 30
0.0
 11
2818.12
 21
2775.49
 31
0.0
  0
LINE
  5
413
330
20E
100
AcDbEntity
  8
1-ADD
  6
HIDDEN
 62
     7
100
AcDbLine
 10
2351.26
 20
2780.49
 30
0.0
 11
2006.26
 21
2780.49
 31
0.0
  0
LINE
  5
414
330
20E
100
AcDbEntity
  8
1-ADD
  6
HIDDEN
 62
     7
100
AcDbLine
 10
2296.26
 20
2820.489999999999
 30
0.0
 11
2296.26
 21
2775.49
 31
0.0
  0
LINE
  5
415
330
20E
100
AcDbEntity
  8
1-ADD
  6
HIDDEN
 62
     7
100
AcDbLine
 10
2061.26
 20
2775.49
 30
0.0
 11
2061.26
 21
2820.489999999999
 31
0.0
  0
LINE
  5
416
330
20E
100
AcDbEntity
  8
0-3C1
  6
CONTINUOUS
100
AcDbLine
 10
2061.26
 20
2775.49
 30
0.0
 11
2296.26
 21
2775.49
 31
0.0
  0
LINE
  5
417
330
20E
100
AcDbEntity
  8
0-3C1
  6
CONTINUOUS
100
AcDbLine
 10
2006.26
 20
2820.489999999999
 30
0.0
 11
2006.26
 21
2780.49
 31
0.0
  0
LINE
  5
418
330
20E
100
AcDbEntity
  8
0-3C1
  6
CONTINUOUS
100
AcDbLine
 10
2006.26
 20
2780.49
 30
0.0
 11
2061.26
 21
2780.49
 31
0.0
  0
LINE
  5
419
330
20E
100
AcDbEntity
  8
0-3C1
  6
CONTINUOUS
100
AcDbLine
 10
2061.26
 20
2780.49
 30
0.0
 11
2061.26
 21
2775.49
 31
0.0
  0
LINE
  5
41A
330
20E
100
AcDbEntity
  8
0-3C1
  6
CONTINUOUS
100
AcDbLine
 10
2296.26
 20
2775.49
 30
0.0
 11
2296.26
 21
2780.49
 31
0.0
  0
LINE
  5
41B
330
20E
100
AcDbEntity
  8
0-3C1
  6
CONTINUOUS
100
AcDbLine
 10
2006.26
 20
2458.79
 30
0.0
 11
2006.26
 21
1458.79
 31
0.0
  0
LINE
  5
41C
330
20E
100
AcDbEntity
  8
0-3C1
  6
CONTINUOUS
100
AcDbLine
 10
2818.12
 20
2820.489999999999
 30
0.0
 11
2818.12
 21
2775.49
 31
0.0
  0
LINE
  5
41D
330
20E
100
AcDbEntity
  8
0-3C1
  6
CONTINUOUS
100
AcDbLine
 10
2818.12
 20
2775.49
 30
0.0
 11
3818.12
 21
2775.49
 31
0.0
  0
LINE
  5
41E
330
20E
100
AcDbEntity
  8
0-3C1
  6
CONTINUOUS
100
AcDbLine
 10
3818.12
 20
2775.49
 30
0.0
 11
3818.12
 21
2820.489999999999
 31
0.0
  0
LINE
  5
41F
330
20E
100
AcDbEntity
  8
0-3C1
  6
CONTINUOUS
100
AcDbLine
 10
3818.12
 20
2820.489999999999
 30
0.0
 11
2818.12
 21
2820.489999999999
 31
0.0
  0
LINE
  5
420
330
20E
100
AcDbEntity
  8
0-3C1
  6
CONTINUOUS
100
AcDbLine
 10
2006.26
 20
2820.489999999999
 30
0.0
 11
2346.26
 21
2820.489999999999
 31
0.0
  0
LINE
  5
421
330
20E
100
AcDbEntity
  8
0-3C1
  6
CONTINUOUS
100
AcDbLine
 10
2296.26
 20
2780.49
 30
0.0
 11
2346.26
 21
2780.49
 31
0.0
  0
LINE
  5
422
330
20E
100
AcDbEntity
  8
0-3C1
  6
CONTINUOUS
100
AcDbLine
 10
2346.26
 20
1458.79
 30
0.0
 11
2346.26
 21
2458.79
 31
0.0
  0
LINE
  5
423
330
20E
100
AcDbEntity
  8
1-ADD
  6
HIDDEN
 62
     7
100
AcDbLine
 10
2131.26
 20
1458.79
 30
0.0
 11
2131.26
 21
2458.79
 31
0.0
  0
LINE
  5
424
330
20E
100
AcDbEntity
  8
1-ADD
  6
HIDDEN
 62
     7
100
AcDbLine
 10
2221.26
 20
1458.79
 30
0.0
 11
2221.26
 21
2458.79
 31
0.0
  0
LINE
  5
425
330
20E
100
AcDbEntity
  8
1-ADD
  6
HIDDEN
 62
     7
100
AcDbLine
 10
1863.9
 20
2840.489999999999
 30
0.0
 11
4152.56
 21
2840.489999999999
 31
0.0
  0
LINE
  5
426
330
20E
100
AcDbEntity
  8
1-ADD
  6
HIDDEN
 62
     7
100
AcDbLine
 10
2006.26
 20
3227.91
 30
0.0
 11
2006.26
 21
2255.86
 31
0.0
  0
LINE
  5
427
330
20E
100
AcDbEntity
  8
1-ADD
  6
HIDDEN
 62
     7
100
AcDbLine
 10
1870.429999999999
 20
2458.79
 30
0.0
 11
2488.02
 21
2458.79
 31
0.0
  0
LINE
  5
428
330
20E
100
AcDbEntity
  8
1-ADD
  6
HIDDEN
 62
     7
100
AcDbLine
 10
2488.02
 20
2458.79
 30
0.0
 11
2675.33
 21
2458.79
 31
0.0
  0
LINE
  5
429
330
20E
100
AcDbEntity
  8
1-ADD
  6
HIDDEN
 62
     7
100
AcDbLine
 10
1920.64
 20
2478.79
 30
0.0
 11
2675.33
 21
2478.79
 31
0.0
  0
LINE
  5
42A
330
20E
100
AcDbEntity
  8
1-ADD
  6
HIDDEN
 62
     7
100
AcDbLine
 10
2351.26
 20
1438.79
 30
0.0
 11
2006.26
 21
1438.79
 31
0.0
  0
LINE
  5
42B
330
20E
100
AcDbEntity
  8
1-ADD
  6
HIDDEN
 62
     7
100
AcDbLine
 10
1986.26
 20
3227.91
 30
0.0
 11
1986.26
 21
2255.86
 31
0.0
  0
LINE
  5
42C
330
20E
100
AcDbEntity
  8
0-3C1
  6
CONTINUOUS
100
AcDbLine
 10
2346.26
 20
2780.49
 30
0.0
 11
2346.26
 21
2820.489999999999
 31
0.0
  0
LINE
  5
42D
330
20E
100
AcDbEntity
  8
1-ADD
  6
HIDDEN
 62
     7
100
AcDbLine
 10
2366.26
 20
2780.49
 30
0.0
 11
2366.26
 21
2820.489999999999
 31
0.0
  0
LINE
  5
42E
330
20E
100
AcDbEntity
  8
1-ADD
  6
HIDDEN
 62
     7
100
AcDbLine
 10
1863.9
 20
2900.489999999999
 30
0.0
 11
4152.56
 21
2900.489999999999
 31
0.0
  0
LINE
  5
42F
330
20E
100
AcDbEntity
  8
1-ADD
  6
HIDDEN
 62
     7
100
AcDbLine
 10
1920.64
 20
2538.79
 30
0.0
 11
2675.33
 21
2538.79
 31
0.0
  0
LINE
  5
430
330
20E
100
AcDbEntity
  8
1-ADD
  6
HIDDEN
 62
     7
100
AcDbLine
 10
2351.26
 20
1378.79
 30
0.0
 11
2006.26
 21
1378.79
 31
0.0
  0
LINE
  5
431
330
20E
100
AcDbEntity
  8
1-ADD
  6
HIDDEN
 62
     7
100
AcDbLine
 10
2426.26
 20
2780.49
 30
0.0
 11
2426.26
 21
2820.489999999999
 31
0.0
  0
LINE
  5
432
330
20E
100
AcDbEntity
  8
1-ADD
  6
HIDDEN
 62
     7
100
AcDbLine
 10
2351.26
 20
2780.49
 30
0.0
 11
2464.679999999999
 21
2780.49
 31
0.0
  0
LINE
  5
433
330
20E
100
AcDbEntity
  8
1-ADD
  6
HIDDEN
 62
     7
100
AcDbLine
 10
2351.26
 20
2775.49
 30
0.0
 11
2470.59
 21
2775.49
 31
0.0
  0
LINE
  5
434
330
20E
100
AcDbEntity
  8
1-ADD
  6
HIDDEN
 62
     7
100
AcDbLine
 10
2006.26
 20
2820.489999999999
 30
0.0
 11
1919.83
 21
2820.489999999999
 31
0.0
  0
LINE
  5
435
330
20E
100
AcDbEntity
  8
1-ADD
  6
HIDDEN
 62
     7
100
AcDbLine
 10
2006.26
 20
2780.49
 30
0.0
 11
1909.19
 21
2780.49
 31
0.0
  0
LINE
  5
436
330
20E
100
AcDbEntity
  8
1-ADD
  6
HIDDEN
 62
     7
100
AcDbLine
 10
2006.26
 20
2775.49
 30
0.0
 11
1904.46
 21
2775.49
 31
0.0
  0
LINE
  5
437
330
20E
100
AcDbEntity
  8
1-SUNPO
  6
CONTINUOUS
 62
     7
100
AcDbLine
 10
2006.26
 20
2900.489999999999
 30
0.0
 11
2346.26
 21
2900.489999999999
 31
0.0
  0
LINE
  5
438
330
20E
100
AcDbEntity
  8
1-SUNPO
  6
CONTINUOUS
 62
     7
100
AcDbLine
 10
2006.26
 20
2840.489999999999
 30
0.0
 11
2006.26
 21
2900.489999999999
 31
0.0
  0
LINE
  5
439
330
20E
100
AcDbEntity
  8
1-SUNPO
  6
CONTINUOUS
 62
     7
100
AcDbLine
 10
2346.26
 20
2840.489999999999
 30
0.0
 11
2346.26
 21
2900.489999999999
 31
0.0
  0
LINE
  5
43A
330
20E
100
AcDbEntity
  8
1-SUNPO
  6
CONTINUOUS
 62
     7
100
AcDbLine
 10
2006.26
 20
2900.489999999999
 30
0.0
 11
2035.239999999999
 21
2908.26
 31
0.0
  0
LINE
  5
43B
330
20E
100
AcDbEntity
  8
1-SUNPO
  6
CONTINUOUS
 62
     7
100
AcDbLine
 10
2006.26
 20
2900.489999999999
 30
0.0
 11
2035.239999999999
 21
2892.73
 31
0.0
  0
LINE
  5
43C
330
20E
100
AcDbEntity
  8
1-SUNPO
  6
CONTINUOUS
 62
     7
100
AcDbLine
 10
2346.26
 20
2900.489999999999
 30
0.0
 11
2317.289999999999
 21
2908.26
 31
0.0
  0
LINE
  5
43D
330
20E
100
AcDbEntity
  8
1-SUNPO
  6
CONTINUOUS
 62
     7
100
AcDbLine
 10
2346.26
 20
2900.489999999999
 30
0.0
 11
2317.289999999999
 21
2892.73
 31
0.0
  0
LINE
  5
43E
330
20E
100
AcDbEntity
  8
1-SUNPO
  6
CONTINUOUS
 62
     7
100
AcDbLine
 10
2818.12
 20
2900.489999999999
 30
0.0
 11
3818.12
 21
2900.489999999999
 31
0.0
  0
LINE
  5
43F
330
20E
100
AcDbEntity
  8
1-SUNPO
  6
CONTINUOUS
 62
     7
100
AcDbLine
 10
2818.12
 20
2840.489999999999
 30
0.0
 11
2818.12
 21
2900.489999999999
 31
0.0
  0
LINE
  5
440
330
20E
100
AcDbEntity
  8
1-SUNPO
  6
CONTINUOUS
 62
     7
100
AcDbLine
 10
3818.12
 20
2840.489999999999
 30
0.0
 11
3818.12
 21
2900.489999999999
 31
0.0
  0
LINE
  5
441
330
20E
100
AcDbEntity
  8
1-SUNPO
  6
CONTINUOUS
 62
     7
100
AcDbLine
 10
2818.12
 20
2900.489999999999
 30
0.0
 11
2847.1
 21
2908.26
 31
0.0
  0
LINE
  5
442
330
20E
100
AcDbEntity
  8
1-SUNPO
  6
CONTINUOUS
 62
     7
100
AcDbLine
 10
2818.12
 20
2900.489999999999
 30
0.0
 11
2847.1
 21
2892.73
 31
0.0
  0
LINE
  5
443
330
20E
100
AcDbEntity
  8
1-SUNPO
  6
CONTINUOUS
 62
     7
100
AcDbLine
 10
3818.12
 20
2900.489999999999
 30
0.0
 11
3789.139999999999
 21
2908.26
 31
0.0
  0
LINE
  5
444
330
20E
100
AcDbEntity
  8
1-SUNPO
  6
CONTINUOUS
 62
     7
100
AcDbLine
 10
3818.12
 20
2900.489999999999
 30
0.0
 11
3789.139999999999
 21
2892.73
 31
0.0
  0
LINE
  5
445
330
20E
100
AcDbEntity
  8
1-ADD
  6
HIDDEN
 62
     7
100
AcDbLine
 10
1926.26
 20
3227.91
 30
0.0
 11
1926.26
 21
2255.86
 31
0.0
  0
LINE
  5
446
330
20E
100
AcDbEntity
  8
1-SUNPO
  6
CONTINUOUS
 62
     7
100
AcDbLine
 10
1926.26
 20
2780.49
 30
0.0
 11
1926.26
 21
2775.49
 31
0.0
  0
LINE
  5
447
330
20E
100
AcDbEntity
  8
1-SUNPO
  6
CONTINUOUS
 62
     7
100
AcDbLine
 10
1986.26
 20
2780.49
 30
0.0
 11
1926.26
 21
2780.49
 31
0.0
  0
LINE
  5
448
330
20E
100
AcDbEntity
  8
1-SUNPO
  6
CONTINUOUS
 62
     7
100
AcDbLine
 10
1986.26
 20
2775.49
 30
0.0
 11
1926.26
 21
2775.49
 31
0.0
  0
LINE
  5
449
330
20E
100
AcDbEntity
  8
1-SUNPO
  6
CONTINUOUS
 62
     7
100
AcDbLine
 10
1926.26
 20
2780.49
 30
0.0
 11
1918.499999999999
 21
2809.47
 31
0.0
  0
LINE
  5
44A
330
20E
100
AcDbEntity
  8
1-SUNPO
  6
CONTINUOUS
 62
     7
100
AcDbLine
 10
1926.26
 20
2780.49
 30
0.0
 11
1934.029999999999
 21
2809.47
 31
0.0
  0
LINE
  5
44B
330
20E
100
AcDbEntity
  8
1-SUNPO
  6
CONTINUOUS
 62
     7
100
AcDbLine
 10
1926.26
 20
2775.49
 30
0.0
 11
1918.499999999999
 21
2746.51
 31
0.0
  0
LINE
  5
44C
330
20E
100
AcDbEntity
  8
1-SUNPO
  6
CONTINUOUS
 62
     7
100
AcDbLine
 10
1926.26
 20
2775.49
 30
0.0
 11
1934.029999999999
 21
2746.51
 31
0.0
  0
LINE
  5
44D
330
20E
100
AcDbEntity
  8
0-3C1
  6
CONTINUOUS
100
AcDbLine
 10
2006.26
 20
2458.79
 30
0.0
 11
2131.26
 21
2458.79
 31
0.0
  0
LINE
  5
44E
330
20E
100
AcDbEntity
  8
0-3C1
  6
CONTINUOUS
100
AcDbLine
 10
2221.26
 20
2458.79
 30
0.0
 11
2346.26
 21
2458.79
 31
0.0
  0
LINE
  5
44F
330
20E
100
AcDbEntity
  8
0-3C1
  6
CONTINUOUS
100
AcDbLine
 10
2006.26
 20
1458.79
 30
0.0
 11
2131.26
 21
1458.79
 31
0.0
  0
LINE
  5
450
330
20E
100
AcDbEntity
  8
0-3C1
  6
CONTINUOUS
100
AcDbLine
 10
2221.26
 20
1458.79
 30
0.0
 11
2346.26
 21
1458.79
 31
0.0
  0
LINE
  5
451
330
20E
100
AcDbEntity
  8
1-SUNPO
  6
CONTINUOUS
 62
     7
100
AcDbLine
 10
2366.26
 20
2820.489999999999
 30
0.0
 11
2426.26
 21
2820.489999999999
 31
0.0
  0
LINE
  5
452
330
20E
100
AcDbEntity
  8
1-SUNPO
  6
CONTINUOUS
 62
     7
100
AcDbLine
 10
2366.26
 20
2775.49
 30
0.0
 11
2426.26
 21
2775.49
 31
0.0
  0
LINE
  5
453
330
20E
100
AcDbEntity
  8
1-SUNPO
  6
CONTINUOUS
 62
     7
100
AcDbLine
 10
2426.26
 20
2820.489999999999
 30
0.0
 11
2418.5
 21
2849.47
 31
0.0
  0
LINE
  5
454
330
20E
100
AcDbEntity
  8
1-SUNPO
  6
CONTINUOUS
 62
     7
100
AcDbLine
 10
2426.26
 20
2820.489999999999
 30
0.0
 11
2434.03
 21
2849.47
 31
0.0
  0
LINE
  5
455
330
20E
100
AcDbEntity
  8
1-SUNPO
  6
CONTINUOUS
 62
     7
100
AcDbLine
 10
2426.26
 20
2775.49
 30
0.0
 11
2418.5
 21
2746.51
 31
0.0
  0
LINE
  5
456
330
20E
100
AcDbEntity
  8
1-SUNPO
  6
CONTINUOUS
 62
     7
100
AcDbLine
 10
2426.26
 20
2775.49
 30
0.0
 11
2434.03
 21
2746.51
 31
0.0
  0
LINE
  5
457
330
20E
100
AcDbEntity
  8
1-SUNPO
  6
CONTINUOUS
 62
     7
100
AcDbLine
 10
2426.26
 20
2820.489999999999
 30
0.0
 11
2426.26
 21
2870.49
 31
0.0
  0
LINE
  5
458
330
20E
100
AcDbEntity
  8
1-SUNPO
  6
CONTINUOUS
 62
     7
100
AcDbLine
 10
2426.26
 20
2775.49
 30
0.0
 11
2426.26
 21
2725.49
 31
0.0
  0
LINE
  5
459
330
20E
100
AcDbEntity
  8
1-SUNPO
  6
CONTINUOUS
 62
     7
100
AcDbLine
 10
2426.26
 20
2820.489999999999
 30
0.0
 11
2426.26
 21
2775.49
 31
0.0
  0
LINE
  5
45A
330
20E
100
AcDbEntity
  8
1-ADD
  6
HIDDEN
 62
     7
100
AcDbLine
 10
2351.26
 20
2755.489999999999
 30
0.0
 11
2006.26
 21
2755.489999999999
 31
0.0
  0
LINE
  5
45B
330
20E
100
AcDbEntity
  8
1-ADD
  6
HIDDEN
 62
     7
100
AcDbLine
 10
2351.26
 20
2695.489999999999
 30
0.0
 11
2006.26
 21
2695.489999999999
 31
0.0
  0
LINE
  5
45C
330
20E
100
AcDbEntity
  8
1-SUNPO
  6
CONTINUOUS
 62
     7
100
AcDbLine
 10
2061.26
 20
2755.489999999999
 30
0.0
 11
2061.26
 21
2695.489999999999
 31
0.0
  0
LINE
  5
45D
330
20E
100
AcDbEntity
  8
1-SUNPO
  6
CONTINUOUS
 62
     7
100
AcDbLine
 10
2006.26
 20
2755.489999999999
 30
0.0
 11
2006.26
 21
2695.489999999999
 31
0.0
  0
LINE
  5
45E
330
20E
100
AcDbEntity
  8
1-SUNPO
  6
CONTINUOUS
 62
     7
100
AcDbLine
 10
2061.26
 20
2695.489999999999
 30
0.0
 11
2090.239999999999
 21
2703.26
 31
0.0
  0
LINE
  5
45F
330
20E
100
AcDbEntity
  8
1-SUNPO
  6
CONTINUOUS
 62
     7
100
AcDbLine
 10
2061.26
 20
2695.489999999999
 30
0.0
 11
2090.239999999999
 21
2687.73
 31
0.0
  0
LINE
  5
460
330
20E
100
AcDbEntity
  8
1-SUNPO
  6
CONTINUOUS
 62
     7
100
AcDbLine
 10
2006.26
 20
2695.489999999999
 30
0.0
 11
1977.289999999999
 21
2703.26
 31
0.0
  0
LINE
  5
461
330
20E
100
AcDbEntity
  8
1-SUNPO
  6
CONTINUOUS
 62
     7
100
AcDbLine
 10
2006.26
 20
2695.489999999999
 30
0.0
 11
1977.289999999999
 21
2687.73
 31
0.0
  0
LINE
  5
462
330
20E
100
AcDbEntity
  8
1-SUNPO
  6
CONTINUOUS
 62
     7
100
AcDbLine
 10
2346.26
 20
2755.489999999999
 30
0.0
 11
2346.26
 21
2695.489999999999
 31
0.0
  0
LINE
  5
463
330
20E
100
AcDbEntity
  8
1-SUNPO
  6
CONTINUOUS
 62
     7
100
AcDbLine
 10
2296.26
 20
2755.489999999999
 30
0.0
 11
2296.26
 21
2695.489999999999
 31
0.0
  0
LINE
  5
464
330
20E
100
AcDbEntity
  8
1-SUNPO
  6
CONTINUOUS
 62
     7
100
AcDbLine
 10
2346.26
 20
2695.489999999999
 30
0.0
 11
2375.239999999999
 21
2703.26
 31
0.0
  0
LINE
  5
465
330
20E
100
AcDbEntity
  8
1-SUNPO
  6
CONTINUOUS
 62
     7
100
AcDbLine
 10
2346.26
 20
2695.489999999999
 30
0.0
 11
2375.239999999999
 21
2687.73
 31
0.0
  0
LINE
  5
466
330
20E
100
AcDbEntity
  8
1-SUNPO
  6
CONTINUOUS
 62
     7
100
AcDbLine
 10
2296.26
 20
2695.489999999999
 30
0.0
 11
2267.29
 21
2703.26
 31
0.0
  0
LINE
  5
467
330
20E
100
AcDbEntity
  8
1-SUNPO
  6
CONTINUOUS
 62
     7
100
AcDbLine
 10
2296.26
 20
2695.489999999999
 30
0.0
 11
2267.29
 21
2687.73
 31
0.0
  0
LINE
  5
468
330
20E
100
AcDbEntity
  8
1-SUNPO
  6
CONTINUOUS
 62
     7
100
AcDbLine
 10
2006.26
 20
2695.489999999999
 30
0.0
 11
1956.26
 21
2695.489999999999
 31
0.0
  0
LINE
  5
469
330
20E
100
AcDbEntity
  8
1-SUNPO
  6
CONTINUOUS
 62
     7
100
AcDbLine
 10
2061.26
 20
2695.489999999999
 30
0.0
 11
2111.26
 21
2695.489999999999
 31
0.0
  0
LINE
  5
46A
330
20E
100
AcDbEntity
  8
1-SUNPO
  6
CONTINUOUS
 62
     7
100
AcDbLine
 10
2296.26
 20
2695.489999999999
 30
0.0
 11
2246.26
 21
2695.489999999999
 31
0.0
  0
LINE
  5
46B
330
20E
100
AcDbEntity
  8
1-SUNPO
  6
CONTINUOUS
 62
     7
100
AcDbLine
 10
2346.26
 20
2695.489999999999
 30
0.0
 11
2396.26
 21
2695.489999999999
 31
0.0
  0
LINE
  5
46C
330
20E
100
AcDbEntity
  8
1-SUNPO
  6
CONTINUOUS
 62
     7
100
AcDbLine
 10
2006.26
 20
2695.489999999999
 30
0.0
 11
2061.26
 21
2695.489999999999
 31
0.0
  0
LINE
  5
46D
330
20E
100
AcDbEntity
  8
1-SUNPO
  6
CONTINUOUS
 62
     7
100
AcDbLine
 10
2296.26
 20
2695.489999999999
 30
0.0
 11
2346.26
 21
2695.489999999999
 31
0.0
  0
LINE
  5
46E
330
20E
100
AcDbEntity
  8
0-3C1
  6
CONTINUOUS
100
AcDbLine
 10
2206.26
 20
2443.789999999999
 30
0.0
 11
2146.26
 21
2443.789999999999
 31
0.0
  0
LINE
  5
46F
330
20E
100
AcDbEntity
  8
0-3C1
  6
CONTINUOUS
100
AcDbLine
 10
2206.26
 20
1473.79
 30
0.0
 11
2146.26
 21
1473.79
 31
0.0
  0
LINE
  5
470
330
20E
100
AcDbEntity
  8
1-SUNPO
  6
CONTINUOUS
 62
     7
100
AcDbLine
 10
2131.26
 20
2538.79
 30
0.0
 11
2221.26
 21
2538.79
 31
0.0
  0
LINE
  5
471
330
20E
100
AcDbEntity
  8
1-SUNPO
  6
CONTINUOUS
 62
     7
100
AcDbLine
 10
2131.26
 20
2478.79
 30
0.0
 11
2131.26
 21
2538.79
 31
0.0
  0
LINE
  5
472
330
20E
100
AcDbEntity
  8
1-SUNPO
  6
CONTINUOUS
 62
     7
100
AcDbLine
 10
2221.26
 20
2478.79
 30
0.0
 11
2221.26
 21
2538.79
 31
0.0
  0
LINE
  5
473
330
20E
100
AcDbEntity
  8
1-SUNPO
  6
CONTINUOUS
 62
     7
100
AcDbLine
 10
2131.26
 20
2538.79
 30
0.0
 11
2160.239999999999
 21
2546.559999999999
 31
0.0
  0
LINE
  5
474
330
20E
100
AcDbEntity
  8
1-SUNPO
  6
CONTINUOUS
 62
     7
100
AcDbLine
 10
2131.26
 20
2538.79
 30
0.0
 11
2160.239999999999
 21
2531.03
 31
0.0
  0
LINE
  5
475
330
20E
100
AcDbEntity
  8
1-SUNPO
  6
CONTINUOUS
 62
     7
100
AcDbLine
 10
2221.26
 20
2538.79
 30
0.0
 11
2192.289999999999
 21
2546.559999999999
 31
0.0
  0
LINE
  5
476
330
20E
100
AcDbEntity
  8
1-SUNPO
  6
CONTINUOUS
 62
     7
100
AcDbLine
 10
2221.26
 20
2538.79
 30
0.0
 11
2192.289999999999
 21
2531.03
 31
0.0
  0
LINE
  5
477
330
20E
100
AcDbEntity
  8
1-ADD
  6
HIDDEN
 62
     7
100
AcDbLine
 10
2351.26
 20
1318.789999999999
 30
0.0
 11
2006.26
 21
1318.789999999999
 31
0.0
  0
LINE
  5
478
330
20E
100
AcDbEntity
  8
1-SUNPO
  6
CONTINUOUS
 62
     7
100
AcDbLine
 10
2131.26
 20
1378.79
 30
0.0
 11
2221.26
 21
1378.79
 31
0.0
  0
LINE
  5
479
330
20E
100
AcDbEntity
  8
1-SUNPO
  6
CONTINUOUS
 62
     7
100
AcDbLine
 10
2131.26
 20
1438.79
 30
0.0
 11
2131.26
 21
1378.79
 31
0.0
  0
LINE
  5
47A
330
20E
100
AcDbEntity
  8
1-SUNPO
  6
CONTINUOUS
 62
     7
100
AcDbLine
 10
2221.26
 20
1438.79
 30
0.0
 11
2221.26
 21
1378.79
 31
0.0
  0
LINE
  5
47B
330
20E
100
AcDbEntity
  8
1-SUNPO
  6
CONTINUOUS
 62
     7
100
AcDbLine
 10
2131.26
 20
1378.79
 30
0.0
 11
2160.239999999999
 21
1386.56
 31
0.0
  0
LINE
  5
47C
330
20E
100
AcDbEntity
  8
1-SUNPO
  6
CONTINUOUS
 62
     7
100
AcDbLine
 10
2131.26
 20
1378.79
 30
0.0
 11
2160.239999999999
 21
1371.03
 31
0.0
  0
LINE
  5
47D
330
20E
100
AcDbEntity
  8
1-SUNPO
  6
CONTINUOUS
 62
     7
100
AcDbLine
 10
2221.26
 20
1378.79
 30
0.0
 11
2192.289999999999
 21
1386.56
 31
0.0
  0
LINE
  5
47E
330
20E
100
AcDbEntity
  8
1-SUNPO
  6
CONTINUOUS
 62
     7
100
AcDbLine
 10
2221.26
 20
1378.79
 30
0.0
 11
2192.289999999999
 21
1371.03
 31
0.0
  0
LINE
  5
47F
330
20E
100
AcDbEntity
  8
1-SUNPO
  6
CONTINUOUS
 62
     7
100
AcDbLine
 10
2006.26
 20
1318.789999999999
 30
0.0
 11
2346.26
 21
1318.789999999999
 31
0.0
  0
LINE
  5
480
330
20E
100
AcDbEntity
  8
1-SUNPO
  6
CONTINUOUS
 62
     7
100
AcDbLine
 10
2006.26
 20
1438.79
 30
0.0
 11
2006.26
 21
1318.789999999999
 31
0.0
  0
LINE
  5
481
330
20E
100
AcDbEntity
  8
1-SUNPO
  6
CONTINUOUS
 62
     7
100
AcDbLine
 10
2346.26
 20
1438.79
 30
0.0
 11
2346.26
 21
1318.789999999999
 31
0.0
  0
LINE
  5
482
330
20E
100
AcDbEntity
  8
1-SUNPO
  6
CONTINUOUS
 62
     7
100
AcDbLine
 10
2006.26
 20
1318.789999999999
 30
0.0
 11
2035.239999999999
 21
1326.559999999999
 31
0.0
  0
LINE
  5
483
330
20E
100
AcDbEntity
  8
1-SUNPO
  6
CONTINUOUS
 62
     7
100
AcDbLine
 10
2006.26
 20
1318.789999999999
 30
0.0
 11
2035.239999999999
 21
1311.03
 31
0.0
  0
LINE
  5
484
330
20E
100
AcDbEntity
  8
1-SUNPO
  6
CONTINUOUS
 62
     7
100
AcDbLine
 10
2346.26
 20
1318.789999999999
 30
0.0
 11
2317.289999999999
 21
1326.559999999999
 31
0.0
  0
LINE
  5
485
330
20E
100
AcDbEntity
  8
1-SUNPO
  6
CONTINUOUS
 62
     7
100
AcDbLine
 10
2346.26
 20
1318.789999999999
 30
0.0
 11
2317.289999999999
 21
1311.03
 31
0.0
  0
LINE
  5
486
330
20E
100
AcDbEntity
  8
1-SUNPO
  6
CONTINUOUS
 62
     7
100
AcDbLine
 10
2469.64
 20
1657.65
 30
0.0
 11
3006.73
 21
1657.65
 31
0.0
  0
LINE
  5
487
330
20E
100
AcDbEntity
  8
1-SUNPO
  6
CONTINUOUS
 62
     7
100
AcDbLine
 10
2215.65
 20
1470.49
 30
0.0
 11
2469.64
 21
1657.65
 31
0.0
  0
LINE
  5
488
330
20E
100
AcDbEntity
  8
1-SUNPO
  6
CONTINUOUS
 62
     7
100
AcDbLine
 10
2215.65
 20
1470.49
 30
0.0
 11
2234.369999999999
 21
1493.93
 31
0.0
  0
LINE
  5
489
330
20E
100
AcDbEntity
  8
1-SUNPO
  6
CONTINUOUS
 62
     7
100
AcDbLine
 10
2215.65
 20
1470.49
 30
0.0
 11
2243.58
 21
1481.43
 31
0.0
  0
LINE
  5
48A
330
20E
100
AcDbEntity
  8
1-SUNPO
  6
CONTINUOUS
 62
     7
100
AcDbLine
 10
2271.1
 20
2506.66
 30
0.0
 11
2404.9
 21
2506.66
 31
0.0
  0
LINE
  5
48B
330
20E
100
AcDbEntity
  8
1-SUNPO
  6
CONTINUOUS
 62
     7
100
AcDbLine
 10
2135.46
 20
2448.38
 30
0.0
 11
2271.1
 21
2506.66
 31
0.0
  0
LINE
  5
48C
330
20E
100
AcDbEntity
  8
1-SUNPO
  6
CONTINUOUS
 62
     7
100
AcDbLine
 10
2135.46
 20
2448.38
 30
0.0
 11
2159.019999999999
 21
2466.96
 31
0.0
  0
LINE
  5
48D
330
20E
100
AcDbEntity
  8
1-SUNPO
  6
CONTINUOUS
 62
     7
100
AcDbLine
 10
2135.46
 20
2448.38
 30
0.0
 11
2165.15
 21
2452.69
 31
0.0
  0
LINE
  5
48E
330
20E
100
AcDbEntity
  8
1-KIJUN
  6
CENTER
 62
     7
100
AcDbLine
 10
2176.26
 20
1458.79
 30
0.0
 11
2176.26
 21
2458.79
 31
0.0
  0
LINE
  5
48F
330
20E
100
AcDbEntity
  8
0-3C1
  6
CONTINUOUS
 62
     7
100
AcDbLine
 10
2818.12
 20
2780.49
 30
0.0
 11
3818.12
 21
2780.49
 31
0.0
  0
LINE
  5
490
330
20E
100
AcDbEntity
  8
0-3C1
  6
CONTINUOUS
 62
     7
100
AcDbLine
 10
2833.12
 20
2820.489999999999
 30
0.0
 11
2833.12
 21
2775.49
 31
0.0
  0
LINE
  5
491
330
20E
100
AcDbEntity
  8
0-3C1
  6
CONTINUOUS
 62
     7
100
AcDbLine
 10
3803.119999999999
 20
2775.49
 30
0.0
 11
3803.119999999999
 21
2820.489999999999
 31
0.0
  0
ARC
  5
492
330
20E
100
AcDbEntity
  8
0-3C1
  6
CONTINUOUS
100
AcDbCircle
 10
2146.26
 20
2458.79
 30
0.0
 40
15.0
100
AcDbArc
 50
180.0
 51
270.0
  0
ARC
  5
493
330
20E
100
AcDbEntity
  8
0-3C1
  6
CONTINUOUS
100
AcDbCircle
 10
2206.26
 20
2458.79
 30
0.0
 40
15.0
100
AcDbArc
 50
270.0
 51
0.0
  0
ARC
  5
494
330
20E
100
AcDbEntity
  8
0-3C1
  6
CONTINUOUS
100
AcDbCircle
 10
2146.26
 20
1458.79
 30
0.0
 40
15.0
100
AcDbArc
 50
90.0
 51
180.0
  0
ARC
  5
495
330
20E
100
AcDbEntity
  8
0-3C1
  6
CONTINUOUS
100
AcDbCircle
 10
2206.26
 20
1458.79
 30
0.0
 40
15.0
100
AcDbArc
 50
0.0
 51
90.0
  0
TEXT
  5
9D2C
330
20E
100
AcDbEntity
  8
0
  6
CONTINUOUS
 62
     7
100
AcDbText
 10
3250.62
 20
2910.489999999999
 30
0.0
 40
46.79999999999999
  1
1000
 41
0.8
100
AcDbText
  0
TEXT
  5
9D2D
330
20E
100
AcDbEntity
  8
0
  6
CONTINUOUS
 62
     7
100
AcDbText
 10
2511.019582547359
 20
368.7643841846658
 30
0.0
 40
46.79999999999999
  1
250用1種蓋
100
AcDbText
  0
TEXT
  5
9D2E
330
20E
100
AcDbEntity
  8
0
  6
CONTINUOUS
 62
     7
100
AcDbText
 10
560.9365358707141
 20
377.8946501786033
 30
0.0
 40
46.79999999999999
  1
片肉厚Ｕ字溝
100
AcDbText
  0
TEXT
  5
9D2F
330
20E
100
AcDbEntity
  8
0
  6
CONTINUOUS
 62
     7
100
AcDbText
 10
2127.45
 20
1250.29
 30
0.0
 40
46.79999999999999
  1
345
 41
0.8
100
AcDbText
  0
TEXT
  5
9D30
330
20E
100
AcDbEntity
  8
0
  6
CONTINUOUS
 62
     7
100
AcDbText
 10
2289.739999999999
 20
2508.86
 30
0.0
 40
46.79999999999999
  1
15r
 41
0.7
100
AcDbText
  0
TEXT
  5
9D31
330
20E
100
AcDbEntity
  8
0
  6
CONTINUOUS
 62
     7
100
AcDbText
 10
2505.43
 20
1673.13
 30
0.0
 40
46.79999999999999
  1
水抜き用切欠き
100
AcDbText
  0
TEXT
  5
9D32
330
20E
100
AcDbEntity
  8
0
  6
CONTINUOUS
 62
     7
100
AcDbText
 10
2143.76
 20
1388.79
 30
0.0
 40
46.79999999999999
  1
90
 41
0.8
100
AcDbText
  0
TEXT
  5
9D33
330
20E
100
AcDbEntity
  8
0
  6
CONTINUOUS
 62
     7
100
AcDbText
 10
2143.76
 20
2548.79
 30
0.0
 40
46.79999999999999
  1
90
 41
0.8
100
AcDbText
  0
TEXT
  5
9D34
330
20E
100
AcDbEntity
  8
0
  6
CONTINUOUS
 62
     7
100
AcDbText
 10
2126.26
 20
2910.489999999999
 30
0.0
 40
46.79999999999999
  1
345
 41
0.8
100
AcDbText
  0
TEXT
  5
9D35
330
20E
100
AcDbEntity
  8
0
  6
CONTINUOUS
 62
     7
100
AcDbText
 10
2291.12
 20
2625.51
 30
0.0
 40
46.79999999999999
  1
50
 41
0.8
100
AcDbText
  0
TEXT
  5
9D36
330
20E
100
AcDbEntity
  8
0
  6
CONTINUOUS
 62
     7
100
AcDbText
 10
2002.86
 20
2623.86
 30
0.0
 40
46.79999999999999
  1
55
 41
0.8
100
AcDbText
  0
TEXT
  5
9D37
330
20E
100
AcDbEntity
  8
0
  6
CONTINUOUS
 62
     7
100
AcDbText
 10
2500.939999999999
 20
2765.489999999999
 30
0.0
 40
46.79999999999999
  1
45
 50
90.0
 41
0.8
100
AcDbText
  0
TEXT
  5
9D38
330
20E
100
AcDbEntity
  8
0
  6
CONTINUOUS
 62
     7
100
AcDbText
 10
1916.26
 20
2762.99
 30
0.0
 40
46.79999999999999
  1
5
 50
90.0
 41
0.8
100
AcDbText
  0
TEXT
  5
9D39
330
20E
100
AcDbEntity
  8
0
  6
CONTINUOUS
 62
     7
100
AcDbText
 10
3237.55
 20
376.17
 30
0.0
 40
62.4
  1
１／２０
100
AcDbText
  0
TEXT
  5
9D3A
330
20E
100
AcDbEntity
  8
0
  6
CONTINUOUS
100
AcDbText
 10
2373.19
 20
505.86
 30
0.0
 40
31.2
  1
型式
100
AcDbText
  0
TEXT
  5
9D3B
330
20E
100
AcDbEntity
  8
0
  6
CONTINUOUS
100
AcDbText
 10
373.72
 20
505.86
 30
0.0
 40
31.2
  1
製品名
100
AcDbText
  0
TEXT
  5
9D3C
330
20E
100
AcDbEntity
  8
0
  6
CONTINUOUS
100
AcDbText
 10
3173.61
 20
506.92
 30
0.0
 40
31.2
  1
縮尺
100
AcDbText
  0
TEXT
  5
9D3D
330
20E
100
AcDbEntity
  8
0
  6
CONTINUOUS
100
AcDbText
 10
3809.85
 20
363.73
 30
0.0
 40
78.0
  1
千葉県コンクリート製品協同組合
100
AcDbText
  0
ENDSEC
  0
SECTION
  2
OBJECTS
  0
DICTIONARY
  5
4A8
330
0
100
AcDbDictionary
  3
ACAD_GROUP
350
4A9
  3
ACAD_MLINESTYLE
350
4AA
  3
ACAD_LAYOUT
350
9CF6
  3
ACAD_PLOTSETTINGS
350
9CF7
1001
ACAD
1000
TREAT_AS_HARD
1070
     0
  0
DICTIONARY
  5
9D3F
330
20E
100
AcDbDictionary
  3
ACAD_LAYOUTSELFREF
350
9D40
  0
DICTIONARY
  5
9D41
330
20F
100
AcDbDictionary
  3
ACAD_LAYOUTSELFREF
350
9D42
  0
DICTIONARY
  5
4A9
102
{ACAD_REACTORS
330
4A8
102
}
330
4A8
100
AcDbDictionary
1001
ACAD
1000
TREAT_AS_HARD
1070
     0
  0
DICTIONARY
  5
4AA
102
{ACAD_REACTORS
330
4A8
102
}
330
4A8
100
AcDbDictionary
1001
ACAD
1000
TREAT_AS_HARD
1070
     0
  0
DICTIONARY
  5
9CF6
102
{ACAD_REACTORS
330
4A8
102
}
330
4A8
100
AcDbDictionary
1001
ACAD
1000
TREAT_AS_HARD
1070
     0
  0
DICTIONARY
  5
9CF7
102
{ACAD_REACTORS
330
4A8
102
}
330
4A8
100
AcDbDictionary
1001
ACAD
1000
TREAT_AS_HARD
1070
     0
  0
XRECORD
  5
9D40
102
{ACAD_REACTORS
330
9D3F
102
}
330
9D3F
100
AcDbXrecord
340
20E
  0
XRECORD
  5
9D42
102
{ACAD_REACTORS
330
9D41
102
}
330
9D41
100
AcDbXrecord
340
20F
  0
ENDSEC
  0
EOF
