  0
SECTION
  2
HEADER
  9
$ACADVER
  1
AC1012
  9
$DWGCODEPAGE
  3
dos932
  9
$INSBASE
 10
0.0
 20
0.0
 30
0.0
  9
$EXTMIN
 10
0.0
 20
0.0
 30
0.0
  9
$EXTMAX
 10
5940.0
 20
4200.0
 30
0.0
  9
$LIMMIN
 10
0.0
 20
0.0
  9
$LIMMAX
 10
5940.0
 20
4200.0
  9
$ORTHOMODE
 70
     1
  9
$REGENMODE
 70
     1
  9
$FILLMODE
 70
     1
  9
$QTEXTMODE
 70
     0
  9
$MIRRTEXT
 70
     0
  9
$DRAGMODE
 70
     2
  9
$LTSCALE
 40
10.0
  9
$OSMODE
 70
    39
  9
$ATTMODE
 70
     1
  9
$TEXTSIZE
 40
50.0
  9
$TRACEWID
 40
1.0
  9
$TEXTSTYLE
  7
ADD
  9
$CLAYER
  8
SUNPO
  9
$CELTYPE
  6
BYLAYER
  9
$CECOLOR
 62
   256
  9
$CELTSCALE
 40
1.0
  9
$DELOBJ
 70
     1
  9
$DISPSILH
 70
     0
  9
$DIMSCALE
 40
20.0
  9
$DIMASZ
 40
1.1
  9
$DIMEXO
 40
1.0
  9
$DIMDLI
 40
7.0
  9
$DIMRND
 40
0.0
  9
$DIMDLE
 40
0.0
  9
$DIMEXE
 40
0.5
  9
$DIMTP
 40
0.0
  9
$DIMTM
 40
0.0
  9
$DIMTXT
 40
1.8
  9
$DIMCEN
 40
1.1
  9
$DIMTSZ
 40
0.0
  9
$DIMTOL
 70
     0
  9
$DIMLIM
 70
     0
  9
$DIMTIH
 70
     0
  9
$DIMTOH
 70
     0
  9
$DIMSE1
 70
     0
  9
$DIMSE2
 70
     0
  9
$DIMTAD
 70
     1
  9
$DIMZIN
 70
     8
  9
$DIMBLK
  1

  9
$DIMASO
 70
     1
  9
$DIMSHO
 70
     1
  9
$DIMPOST
  1

  9
$DIMAPOST
  1

  9
$DIMALT
 70
     0
  9
$DIMALTD
 70
     3
  9
$DIMALTF
 40
0.03937007874016
  9
$DIMLFAC
 40
1.0
  9
$DIMTOFL
 70
     1
  9
$DIMTVP
 40
0.7
  9
$DIMTIX
 70
     1
  9
$DIMSOXD
 70
     0
  9
$DIMSAH
 70
     0
  9
$DIMBLK1
  1

  9
$DIMBLK2
  1

  9
$DIMSTYLE
  2
ADD
  9
$DIMCLRD
 70
   144
  9
$DIMCLRE
 70
   144
  9
$DIMCLRT
 70
     7
  9
$DIMTFAC
 40
1.0
  9
$DIMGAP
 40
0.625
  9
$DIMJUST
 70
     0
  9
$DIMSD1
 70
     0
  9
$DIMSD2
 70
     0
  9
$DIMTOLJ
 70
     2
  9
$DIMTZIN
 70
     8
  9
$DIMALTZ
 70
     0
  9
$DIMALTTZ
 70
     0
  9
$DIMFIT
 70
     5
  9
$DIMUPT
 70
     0
  9
$DIMUNIT
 70
     2
  9
$DIMDEC
 70
     1
  9
$DIMTDEC
 70
     1
  9
$DIMALTU
 70
     2
  9
$DIMALTTD
 70
     3
  9
$DIMTXSTY
  7
ADD
  9
$DIMAUNIT
 70
     0
  9
$LUNITS
 70
     2
  9
$LUPREC
 70
     4
  9
$SKETCHINC
 40
1.0
  9
$FILLETRAD
 40
30.0
  9
$AUNITS
 70
     0
  9
$AUPREC
 70
     1
  9
$MENU
  1
.
  9
$ELEVATION
 40
0.0
  9
$PELEVATION
 40
0.0
  9
$THICKNESS
 40
0.0
  9
$LIMCHECK
 70
     0
  9
$BLIPMODE
 70
     0
  9
$CHAMFERA
 40
30.0
  9
$CHAMFERB
 40
30.0
  9
$CHAMFERC
 40
20.0
  9
$CHAMFERD
 40
0.0
  9
$SKPOLY
 70
     0
  9
$TDCREATE
 40
2451801.142532870
  9
$TDUPDATE
 40
2451862.503837037
  9
$TDINDWG
 40
0.4614429282
  9
$TDUSRTIMER
 40
0.4614429282
  9
$USRTIMER
 70
     1
  9
$ANGBASE
 50
0.0
  9
$ANGDIR
 70
     0
  9
$PDMODE
 70
     0
  9
$PDSIZE
 40
0.0
  9
$PLINEWID
 40
0.0
  9
$COORDS
 70
     2
  9
$SPLFRAME
 70
     0
  9
$SPLINETYPE
 70
     6
  9
$SPLINESEGS
 70
     8
  9
$ATTDIA
 70
     0
  9
$ATTREQ
 70
     1
  9
$HANDLING
 70
 10241
  9
$HANDSEED
  5
212B
  9
$SURFTAB1
 70
     6
  9
$SURFTAB2
 70
     6
  9
$SURFTYPE
 70
     6
  9
$SURFU
 70
     6
  9
$SURFV
 70
     6
  9
$UCSNAME
  2

  9
$UCSORG
 10
0.0
 20
0.0
 30
0.0
  9
$UCSXDIR
 10
1.0
 20
0.0
 30
0.0
  9
$UCSYDIR
 10
0.0
 20
1.0
 30
0.0
  9
$PUCSNAME
  2

  9
$PUCSORG
 10
0.0
 20
0.0
 30
0.0
  9
$PUCSXDIR
 10
1.0
 20
0.0
 30
0.0
  9
$PUCSYDIR
 10
0.0
 20
1.0
 30
0.0
  9
$USERI1
 70
     0
  9
$USERI2
 70
     0
  9
$USERI3
 70
     0
  9
$USERI4
 70
     0
  9
$USERI5
 70
     0
  9
$USERR1
 40
841.0
  9
$USERR2
 40
594.0
  9
$USERR3
 40
1.0
  9
$USERR4
 40
0.0
  9
$USERR5
 40
0.0
  9
$WORLDVIEW
 70
     1
  9
$SHADEDGE
 70
     3
  9
$SHADEDIF
 70
    70
  9
$TILEMODE
 70
     1
  9
$MAXACTVP
 70
    48
  9
$PINSBASE
 10
0.0
 20
0.0
 30
0.0
  9
$PLIMCHECK
 70
     0
  9
$PEXTMIN
 10
-5.639720244523232
 20
-6.296546991387913
 30
0.0
  9
$PEXTMAX
 10
834.3956480283654
 20
560.9320000029947
 30
0.0
  9
$PLIMMIN
 10
-7.500000000000001
 20
-20.0
  9
$PLIMMAX
 10
833.5000000000002
 20
574.0000000000001
  9
$UNITMODE
 70
     0
  9
$VISRETAIN
 70
     1
  9
$PLINEGEN
 70
     0
  9
$PSLTSCALE
 70
     1
  9
$TREEDEPTH
 70
  3020
  9
$PICKSTYLE
 70
     1
  9
$CMLSTYLE
  2
STANDARD
  9
$CMLJUST
 70
     0
  9
$CMLSCALE
 40
20.0
  9
$SAVEIMAGES
 70
     1
  0
ENDSEC
  0
SECTION
  2
CLASSES
  0
CLASS
  1
ACDBDICTIONARYWDFLT
  2
AcDbDictionaryWithDefault
  3
AutoCAD 2000
 90
    32768
280
     0
281
     0
  0
CLASS
  1
ACDBPLACEHOLDER
  2
AcDbPlaceHolder
  3
AutoCAD 2000
 90
    32768
280
     0
281
     0
  0
CLASS
  1
LAYOUT
  2
AcDbLayout
  3
AutoCAD 2000
 90
    32768
280
     0
281
     0
  0
CLASS
  1
RTEXT
  2
RText
  3
RText|AutoCAD Express Tool|expresstools@autodesk.com
 90
    32768
280
     0
281
     1
  0
CLASS
  1
DICTIONARYVAR
  2
AcDbDictionaryVar
  3
AutoCAD 2000
 90
    32768
280
     0
281
     0
  0
CLASS
  1
LONG_TRANSACTION
  2
AcDbLongTransaction
  3
AutoCAD 2000
 90
    32768
280
     0
281
     0
  0
CLASS
  1
LWPOLYLINE
  2
AcDbPolyline
  3
AutoCAD 2000
 90
    32768
280
     0
281
     1
  0
CLASS
  1
HATCH
  2
AcDbHatch
  3
AutoCAD 2000
 90
    32768
280
     0
281
     1
  0
CLASS
  1
XRECORD
  2
AcDbXrecord
  3
AutoCAD 2000
 90
    32768
280
     0
281
     0
  0
CLASS
  1
LONG_TRANSACTION
  2
AcDbLongTransaction
  3
AutoCAD 2000
 90
    32768
280
     0
281
     0
  0
CLASS
  1
LWPOLYLINE
  2
AcDbPolyline
  3
AutoCAD 2000
 90
    32768
280
     0
281
     1
  0
CLASS
  1
HATCH
  2
AcDbHatch
  3
AutoCAD 2000
 90
    32768
280
     0
281
     1
  0
CLASS
  1
XRECORD
  2
AcDbXrecord
  3
AutoCAD 2000
 90
    32768
280
     0
281
     0
  0
CLASS
  1
LONG_TRANSACTION
  2
AcDbLongTransaction
  3
AutoCAD 2000
 90
    32768
280
     0
281
     0
  0
CLASS
  1
LWPOLYLINE
  2
AcDbPolyline
  3
AutoCAD 2000
 90
    32768
280
     0
281
     1
  0
CLASS
  1
HATCH
  2
AcDbHatch
  3
AutoCAD 2000
 90
    32768
280
     0
281
     1
  0
CLASS
  1
XRECORD
  2
AcDbXrecord
  3
AutoCAD 2000
 90
    32768
280
     0
281
     0
  0
CLASS
  1
LONG_TRANSACTION
  2
AcDbLongTransaction
  3
AutoCAD 2000
 90
    32768
280
     0
281
     0
  0
CLASS
  1
LWPOLYLINE
  2
AcDbPolyline
  3
AutoCAD 2000
 90
    32768
280
     0
281
     1
  0
CLASS
  1
HATCH
  2
AcDbHatch
  3
AutoCAD 2000
 90
    32768
280
     0
281
     1
  0
CLASS
  1
XRECORD
  2
AcDbXrecord
  3
AutoCAD 2000
 90
    32768
280
     0
281
     0
  0
CLASS
  1
LONG_TRANSACTION
  2
AcDbLongTransaction
  3
AutoCAD 2000
 90
    32768
280
     0
281
     0
  0
CLASS
  1
LWPOLYLINE
  2
AcDbPolyline
  3
AutoCAD 2000
 90
    32768
280
     0
281
     1
  0
CLASS
  1
HATCH
  2
AcDbHatch
  3
AutoCAD 2000
 90
    32768
280
     0
281
     1
  0
CLASS
  1
XRECORD
  2
AcDbXrecord
  3
AutoCAD 2000
 90
    32768
280
     0
281
     0
  0
CLASS
  1
LONG_TRANSACTION
  2
AcDbLongTransaction
  3
AutoCAD 2000
 90
    32768
280
     0
281
     0
  0
CLASS
  1
LWPOLYLINE
  2
AcDbPolyline
  3
AutoCAD 2000
 90
    32768
280
     0
281
     1
  0
CLASS
  1
HATCH
  2
AcDbHatch
  3
AutoCAD 2000
 90
    32768
280
     0
281
     1
  0
CLASS
  1
XRECORD
  2
AcDbXrecord
  3
AutoCAD 2000
 90
    32768
280
     0
281
     0
  0
CLASS
  1
LONG_TRANSACTION
  2
AcDbLongTransaction
  3
AutoCAD 2000
 90
    32768
280
     0
281
     0
  0
CLASS
  1
LWPOLYLINE
  2
AcDbPolyline
  3
AutoCAD 2000
 90
    32768
280
     0
281
     1
  0
CLASS
  1
HATCH
  2
AcDbHatch
  3
AutoCAD 2000
 90
    32768
280
     0
281
     1
  0
CLASS
  1
XRECORD
  2
AcDbXrecord
  3
AutoCAD 2000
 90
    32768
280
     0
281
     0
  0
ENDSEC
  0
SECTION
  2
TABLES
  0
TABLE
  2
VPORT
  5
8
330
0
100
AcDbSymbolTable
 70
     2
  0
VPORT
  5
211B
330
8
100
AcDbSymbolTableRecord
100
AcDbViewportTableRecord
  2
*ACTIVE
 70
     0
 10
0.0
 20
0.0
 11
1.0
 21
1.0
 12
2970.000013830139
 22
2300.253907735564
 13
0.0
 23
0.0
 14
5.0
 24
5.0
 15
10.0
 25
10.0
 16
0.0
 26
0.0
 36
1.0
 17
0.0
 27
0.0
 37
0.0
 40
4681.798028090608
 41
2.091445427728613
 42
50.0
 43
0.0
 44
0.0
 50
0.0
 51
0.0
 71
     0
 72
   200
 73
     1
 74
     1
 75
     1
 76
     0
 77
     0
 78
     0
  0
ENDTAB
  0
TABLE
  2
LTYPE
  5
5
330
0
100
AcDbSymbolTable
 70
     5
  0
LTYPE
  5
14
330
5
100
AcDbSymbolTableRecord
100
AcDbLinetypeTableRecord
  2
BYBLOCK
 70
     0
  3

 72
    65
 73
     0
 40
0.0
  0
LTYPE
  5
15
330
5
100
AcDbSymbolTableRecord
100
AcDbLinetypeTableRecord
  2
BYLAYER
 70
     0
  3

 72
    65
 73
     0
 40
0.0
  0
LTYPE
  5
16
330
5
100
AcDbSymbolTableRecord
100
AcDbLinetypeTableRecord
  2
CONTINUOUS
 70
     0
  3
Solid line
 72
    65
 73
     0
 40
0.0
  0
LTYPE
  5
555
330
5
100
AcDbSymbolTableRecord
100
AcDbLinetypeTableRecord
  2
CENTER
 70
     0
  3
Center ____ _ ____ _ ____ _ ____ _ ____ _ ____
 72
    65
 73
     4
 40
50.8
 49
31.75
 74
     0
 49
-6.349999999999999
 74
     0
 49
6.349999999999999
 74
     0
 49
-6.349999999999999
 74
     0
  0
LTYPE
  5
556
330
5
100
AcDbSymbolTableRecord
100
AcDbLinetypeTableRecord
  2
HIDDEN
 70
     0
  3
Hidden __ __ __ __ __ __ __ __ __ __ __ __ __ _
 72
    65
 73
     2
 40
9.524999999999998
 49
6.349999999999999
 74
     0
 49
-3.174999999999999
 74
     0
  0
LTYPE
  5
557
330
5
100
AcDbSymbolTableRecord
100
AcDbLinetypeTableRecord
  2
HIDDEN2
 70
     0
  3
Hidden (.5x) _ _ _ _ _ _ _ _ _ _ _ _ _ _ _ _ _
 72
    65
 73
     2
 40
4.762499999999999
 49
3.174999999999999
 74
     0
 49
-1.587499999999999
 74
     0
  0
LTYPE
  5
558
330
5
100
AcDbSymbolTableRecord
100
AcDbLinetypeTableRecord
  2
PHANTOM
 70
     0
  3
Phantom ______  __  __  ______  __  __  ______
 72
    65
 73
     6
 40
63.5
 49
31.75
 74
     0
 49
-6.349999999999999
 74
     0
 49
6.349999999999999
 74
     0
 49
-6.349999999999999
 74
     0
 49
6.349999999999999
 74
     0
 49
-6.349999999999999
 74
     0
  0
ENDTAB
  0
TABLE
  2
LAYER
  5
2
330
0
100
AcDbSymbolTable
 70
    22
  0
LAYER
  5
10
330
2
100
AcDbSymbolTableRecord
100
AcDbLayerTableRecord
  2
0
 70
     0
 62
     7
  6
CONTINUOUS
  0
LAYER
  5
75
330
2
100
AcDbSymbolTableRecord
100
AcDbLayerTableRecord
  2
VIEWPORT
 70
     0
 62
     1
  6
CONTINUOUS
  0
LAYER
  5
504
330
2
100
AcDbSymbolTableRecord
100
AcDbLayerTableRecord
  2
DEFPOINTS
 70
     0
 62
     7
  6
CONTINUOUS
  0
LAYER
  5
505
330
2
100
AcDbSymbolTableRecord
100
AcDbLayerTableRecord
  2
1C1
 70
     0
 62
   254
  6
CONTINUOUS
  0
LAYER
  5
506
330
2
100
AcDbSymbolTableRecord
100
AcDbLayerTableRecord
  2
1C2
 70
     0
 62
   254
  6
CONTINUOUS
  0
LAYER
  5
507
330
2
100
AcDbSymbolTableRecord
100
AcDbLayerTableRecord
  2
2C1
 70
     0
 62
   144
  6
CONTINUOUS
  0
LAYER
  5
508
330
2
100
AcDbSymbolTableRecord
100
AcDbLayerTableRecord
  2
2C2
 70
     0
 62
   144
  6
CONTINUOUS
  0
LAYER
  5
509
330
2
100
AcDbSymbolTableRecord
100
AcDbLayerTableRecord
  2
2H1
 70
     0
 62
   144
  6
HIDDEN
  0
LAYER
  5
50A
330
2
100
AcDbSymbolTableRecord
100
AcDbLayerTableRecord
  2
2H2
 70
     0
 62
   144
  6
HIDDEN2
  0
LAYER
  5
50B
330
2
100
AcDbSymbolTableRecord
100
AcDbLayerTableRecord
  2
2P1
 70
     0
 62
   144
  6
PHANTOM
  0
LAYER
  5
50C
330
2
100
AcDbSymbolTableRecord
100
AcDbLayerTableRecord
  2
3C1
 70
     0
 62
     7
  6
CONTINUOUS
  0
LAYER
  5
50D
330
2
100
AcDbSymbolTableRecord
100
AcDbLayerTableRecord
  2
3C2
 70
     0
 62
     7
  6
CONTINUOUS
  0
LAYER
  5
50E
330
2
100
AcDbSymbolTableRecord
100
AcDbLayerTableRecord
  2
3C3
 70
     0
 62
     7
  6
CONTINUOUS
  0
LAYER
  5
50F
330
2
100
AcDbSymbolTableRecord
100
AcDbLayerTableRecord
  2
4H1
 70
     0
 62
     6
  6
HIDDEN
  0
LAYER
  5
510
330
2
100
AcDbSymbolTableRecord
100
AcDbLayerTableRecord
  2
4H2
 70
     0
 62
     6
  6
HIDDEN2
  0
LAYER
  5
511
330
2
100
AcDbSymbolTableRecord
100
AcDbLayerTableRecord
  2
5C1
 70
     0
 62
    55
  6
CONTINUOUS
  0
LAYER
  5
512
330
2
100
AcDbSymbolTableRecord
100
AcDbLayerTableRecord
  2
5C2
 70
     0
 62
    55
  6
CONTINUOUS
  0
LAYER
  5
513
330
2
100
AcDbSymbolTableRecord
100
AcDbLayerTableRecord
  2
8C1
 70
     0
 62
    92
  6
CONTINUOUS
  0
LAYER
  5
514
330
2
100
AcDbSymbolTableRecord
100
AcDbLayerTableRecord
  2
HOJO
 70
     0
 62
     5
  6
CONTINUOUS
  0
LAYER
  5
515
330
2
100
AcDbSymbolTableRecord
100
AcDbLayerTableRecord
  2
KIJUN
 70
     0
 62
     1
  6
CENTER
  0
LAYER
  5
516
330
2
100
AcDbSymbolTableRecord
100
AcDbLayerTableRecord
  2
MOJI
 70
     0
 62
     7
  6
CONTINUOUS
  0
LAYER
  5
517
330
2
100
AcDbSymbolTableRecord
100
AcDbLayerTableRecord
  2
SUNPO
 70
     0
 62
   144
  6
CONTINUOUS
  0
ENDTAB
  0
TABLE
  2
STYLE
  5
3
330
0
100
AcDbSymbolTable
 70
     6
  0
STYLE
  5
11
330
3
100
AcDbSymbolTableRecord
100
AcDbTextStyleTableRecord
  2
STANDARD
 70
     0
 40
0.0
 41
1.0
 50
0.0
 71
     0
 42
2.5
  3
txt
  4

  0
STYLE
  5
2C
330
3
100
AcDbSymbolTableRecord
100
AcDbTextStyleTableRecord
  2

 70
     1
 40
0.0
 41
1.0
 50
0.0
 71
     0
 42
2.5
  3
ltypeshp.shx
  4

  0
STYLE
  5
18E
330
3
100
AcDbSymbolTableRecord
100
AcDbTextStyleTableRecord
  2
ADD
 70
     0
 40
0.0
 41
1.0
 50
0.0
 71
     0
 42
50.0
  3
romans.shx
  4
bigfont.shx
  0
STYLE
  5
191
330
3
100
AcDbSymbolTableRecord
100
AcDbTextStyleTableRecord
  2
MSG
 70
     0
 40
0.0
 41
1.0
 50
0.0
 71
     0
 42
2.5
  3
MS Gothic.ttf
  4

1001
ACAD
1000
MS Gothic
1071
    32817
  0
STYLE
  5
5C8
330
3
100
AcDbSymbolTableRecord
100
AcDbTextStyleTableRecord
  2
STANDARD15
 70
     0
 40
0.0
 41
1.0
 50
15.0
 71
     0
 42
2.5
  3
ROMANS
  4
bigfont
  0
STYLE
  5
5C9
330
3
100
AcDbSymbolTableRecord
100
AcDbTextStyleTableRecord
  2
ROMANS15
 70
     0
 40
0.0
 41
1.0
 50
15.0
 71
     0
 42
2.5
  3
romans
  4

  0
ENDTAB
  0
TABLE
  2
VIEW
  5
6
330
0
100
AcDbSymbolTable
 70
     1
  0
VIEW
  5
54D
330
6
100
AcDbSymbolTableRecord
100
AcDbViewTableRecord
  2
ALL
 70
     0
 40
594.0
 10
420.5
 20
297.0
 41
865.125
 11
0.0
 21
0.0
 31
1.0
 12
0.0
 22
0.0
 32
0.0
 42
50.0
 43
0.0
 44
0.0
 50
0.0
 71
     0
  0
ENDTAB
  0
TABLE
  2
UCS
  5
7
330
0
100
AcDbSymbolTable
 70
     0
  0
ENDTAB
  0
TABLE
  2
APPID
  5
9
330
0
100
AcDbSymbolTable
 70
     4
  0
APPID
  5
12
330
9
100
AcDbSymbolTableRecord
100
AcDbRegAppTableRecord
  2
ACAD
 70
     0
  0
APPID
  5
5CB
330
9
100
AcDbSymbolTableRecord
100
AcDbRegAppTableRecord
  2
ARAIGUMI_YOHEKI
 70
     0
  0
APPID
  5
5CC
330
9
100
AcDbSymbolTableRecord
100
AcDbRegAppTableRecord
  2
CONTENTTABDATA
 70
     0
  0
APPID
  5
5CD
330
9
100
AcDbSymbolTableRecord
100
AcDbRegAppTableRecord
  2
CONTENTCURRENTTAB
 70
     0
  0
ENDTAB
  0
TABLE
  2
DIMSTYLE
  5
A
330
0
100
AcDbSymbolTable
 70
    10
  0
DIMSTYLE
105
27
330
A
100
AcDbSymbolTableRecord
100
AcDbDimStyleTableRecord
  2
ISO-25
 70
     0
  3

  4

  5

  6

  7

 40
1.0
 41
2.5
 42
0.625
 43
3.75
 44
1.25
 45
0.0
 46
0.0
 47
0.0
 48
0.0
140
2.5
141
2.5
142
0.0
143
0.03937007874016
144
1.0
145
0.0
146
1.0
147
0.625
 71
     0
 72
     0
 73
     0
 74
     0
 75
     0
 76
     0
 77
     1
 78
     8
170
     0
171
     3
172
     1
173
     0
174
     0
175
     0
176
     0
177
     0
178
     0
270
     2
271
     2
272
     2
273
     2
274
     3
340
11
275
     0
280
     0
281
     0
282
     0
283
     0
284
     8
285
     0
286
     0
287
     3
288
     0
  0
DIMSTYLE
105
197
330
A
100
AcDbSymbolTableRecord
100
AcDbDimStyleTableRecord
  2
ADD
 70
     0
  3

  4

  5

  6

  7

 40
1.0
 41
2.5
 42
1.0
 43
7.0
 44
0.5
 45
0.0
 46
0.0
 47
0.0
 48
0.0
140
2.5
141
2.5
142
0.0
143
0.03937007874016
144
1.0
145
0.7
146
1.0
147
0.625
 71
     0
 72
     0
 73
     0
 74
     0
 75
     0
 76
     0
 77
     1
 78
     8
170
     0
171
     3
172
     1
173
     0
174
     1
175
     0
176
   144
177
   144
178
     7
270
     2
271
     1
272
     1
273
     2
274
     3
340
18E
275
     0
280
     0
281
     0
282
     0
283
     2
284
     8
285
     0
286
     0
287
     5
288
     0
  0
DIMSTYLE
105
3E6
330
A
100
AcDbSymbolTableRecord
100
AcDbDimStyleTableRecord
  2
ADD$2
 70
     0
  3

  4

  5

  6

  7

 40
1.0
 41
2.5
 42
1.0
 43
7.0
 44
0.5
 45
0.0
 46
0.0
 47
0.0
 48
0.0
140
2.5
141
2.5
142
0.0
143
0.03937007874016
144
1.0
145
0.7
146
1.0
147
0.625
 71
     0
 72
     0
 73
     0
 74
     0
 75
     0
 76
     0
 77
     1
 78
     8
170
     0
171
     3
172
     1
173
     0
174
     1
175
     0
176
   144
177
   144
178
     7
270
     2
271
     1
272
     1
273
     2
274
     3
340
18E
275
     0
280
     0
281
     0
282
     0
283
     2
284
     8
285
     0
286
     0
287
     5
288
     0
  0
DIMSTYLE
105
3E7
102
{ACAD_REACTORS
330
1D7C
102
}
330
A
100
AcDbSymbolTableRecord
100
AcDbDimStyleTableRecord
  2
ADD$4
 70
     0
  3

  4

  5

  6

  7

 40
1.0
 41
2.5
 42
1.0
 43
7.0
 44
0.5
 45
0.0
 46
0.0
 47
0.0
 48
0.0
140
2.5
141
2.5
142
0.0
143
0.03937007874016
144
1.0
145
0.0
146
1.0
147
0.625
 71
     0
 72
     0
 73
     0
 74
     0
 75
     0
 76
     0
 77
     1
 78
     8
170
     0
171
     3
172
     1
173
     0
174
     1
175
     0
176
   144
177
   144
178
     7
270
     2
271
     1
272
     1
273
     2
274
     3
340
18E
275
     0
280
     0
281
     0
282
     0
283
     2
284
     8
285
     0
286
     0
287
     5
288
     0
  0
DIMSTYLE
105
3E8
330
A
100
AcDbSymbolTableRecord
100
AcDbDimStyleTableRecord
  2
ADD$3
 70
     0
  3

  4

  5

  6

  7

 40
1.0
 41
2.5
 42
1.0
 43
7.0
 44
0.5
 45
0.0
 46
0.0
 47
0.0
 48
0.0
140
2.5
141
2.5
142
0.0
143
0.03937007874016
144
1.0
145
0.0
146
1.0
147
0.625
 71
     0
 72
     0
 73
     0
 74
     0
 75
     0
 76
     0
 77
     1
 78
     8
170
     0
171
     3
172
     1
173
     0
174
     1
175
     0
176
   144
177
   144
178
     7
270
     2
271
     1
272
     1
273
     2
274
     3
340
18E
275
     0
280
     0
281
     0
282
     0
283
     2
284
     8
285
     0
286
     0
287
     5
288
     0
  0
DIMSTYLE
105
3E9
330
A
100
AcDbSymbolTableRecord
100
AcDbDimStyleTableRecord
  2
ADD$6
 70
     0
  3

  4

  5

  6

  7

 40
1.0
 41
2.5
 42
1.0
 43
7.0
 44
0.5
 45
0.0
 46
0.0
 47
0.0
 48
0.0
140
2.5
141
2.5
142
0.0
143
0.03937007874016
144
1.0
145
0.0
146
1.0
147
0.625
 71
     0
 72
     0
 73
     0
 74
     0
 75
     0
 76
     0
 77
     1
 78
     8
170
     0
171
     3
172
     1
173
     0
174
     1
175
     0
176
   144
177
   144
178
     7
270
     2
271
     1
272
     1
273
     2
274
     3
340
18E
275
     0
280
     0
281
     0
282
     0
283
     2
284
     8
285
     0
286
     0
287
     5
288
     0
  0
DIMSTYLE
105
3EA
330
A
100
AcDbSymbolTableRecord
100
AcDbDimStyleTableRecord
  2
ADD$7
 70
     0
  3

  4

  5

  6

  7

 40
1.0
 41
2.5
 42
1.0
 43
7.0
 44
0.5
 45
0.0
 46
0.0
 47
0.0
 48
0.0
140
2.5
141
2.5
142
0.0
143
0.03937007874016
144
1.0
145
0.0
146
1.0
147
0.625
 71
     0
 72
     0
 73
     0
 74
     0
 75
     0
 76
     0
 77
     0
 78
     8
170
     0
171
     3
172
     1
173
     0
174
     1
175
     0
176
   144
177
   144
178
     7
270
     2
271
     1
272
     1
273
     2
274
     3
340
18E
275
     0
280
     0
281
     0
282
     0
283
     2
284
     8
285
     0
286
     0
287
     5
288
     0
  0
DIMSTYLE
105
518
330
A
100
AcDbSymbolTableRecord
100
AcDbDimStyleTableRecord
  2
STANDARD
 70
     0
  3

  4

  5

  6

  7

 40
1.0
 41
0.18
 42
0.0625
 43
0.38
 44
0.18
 45
0.0
 46
0.0
 47
0.0
 48
0.0
140
0.18
141
0.09
142
0.0
143
25.4
144
1.0
145
0.0
146
1.0
147
0.09
 71
     0
 72
     0
 73
     1
 74
     1
 75
     0
 76
     0
 77
     0
 78
     0
170
     0
171
     2
172
     0
173
     0
174
     0
175
     0
176
     0
177
     0
178
     0
270
     2
271
     4
272
     4
273
     2
274
     2
340
11
275
     0
280
     0
281
     0
282
     0
283
     1
284
     0
285
     0
286
     0
287
     3
288
     0
  0
DIMSTYLE
105
550
102
{ACAD_REACTORS
330
1D98
330
1D8B
330
1D52
330
1D38
330
1D2B
330
1935
102
}
330
A
100
AcDbSymbolTableRecord
100
AcDbDimStyleTableRecord
  2
ADD$0
 70
     0
  3

  4

  5

  6

  7

 40
1.0
 41
2.2
 42
1.0
 43
7.0
 44
0.5
 45
0.0
 46
0.0
 47
0.0
 48
0.0
140
2.5
141
2.5
142
0.0
143
0.03937007874016
144
1.0
145
0.7
146
1.0
147
0.625
 71
     0
 72
     0
 73
     0
 74
     0
 75
     0
 76
     0
 77
     1
 78
     8
170
     0
171
     3
172
     1
173
     0
174
     1
175
     0
176
   144
177
   144
178
     7
270
     2
271
     1
272
     1
273
     2
274
     3
340
18E
275
     0
280
     0
281
     0
282
     0
283
     2
284
     8
285
     0
286
     0
287
     5
288
     0
  0
DIMSTYLE
105
59B
330
A
100
AcDbSymbolTableRecord
100
AcDbDimStyleTableRecord
  2
ADD_M
 70
     0
  3

  4

  5

  6

  7

 40
1.0
 41
2.5
 42
1.0
 43
7.0
 44
0.5
 45
0.0
 46
0.0
 47
0.0
 48
0.0
140
2.5
141
2.5
142
0.0
143
0.03937007874016
144
1.0
145
0.7
146
1.0
147
0.625
 71
     0
 72
     0
 73
     0
 74
     0
 75
     0
 76
     0
 77
     1
 78
     8
170
     0
171
     3
172
     1
173
     0
174
     1
175
     0
176
   144
177
   144
178
     7
270
     2
271
     1
272
     1
273
     2
274
     3
340
18E
275
     0
280
     0
281
     0
282
     0
283
     2
284
     8
285
     0
286
     0
287
     5
288
     0
  0
ENDTAB
  0
TABLE
  2
BLOCK_RECORD
  5
1
330
0
100
AcDbSymbolTable
 70
    12
  0
BLOCK_RECORD
  5
1F
102
{ACAD_XDICTIONARY
360
17F6
102
}
330
1
100
AcDbSymbolTableRecord
100
AcDbBlockTableRecord
  2
*MODEL_SPACE
  0
BLOCK_RECORD
  5
1B
102
{ACAD_XDICTIONARY
360
17F8
102
}
330
1
100
AcDbSymbolTableRecord
100
AcDbBlockTableRecord
  2
*PAPER_SPACE
  0
BLOCK_RECORD
  5
192
330
1
100
AcDbSymbolTableRecord
100
AcDbBlockTableRecord
  2
_DOT
  0
BLOCK_RECORD
  5
5CE
330
1
100
AcDbSymbolTableRecord
100
AcDbBlockTableRecord
  2
A4
  0
BLOCK_RECORD
  5
636
330
1
100
AcDbSymbolTableRecord
100
AcDbBlockTableRecord
  2
_OPEN90
  0
BLOCK_RECORD
  5
63C
330
1
100
AcDbSymbolTableRecord
100
AcDbBlockTableRecord
  2
_OPEN30
  0
BLOCK_RECORD
  5
FDC
330
1
100
AcDbSymbolTableRecord
100
AcDbBlockTableRecord
  2
_DATUMFILLED
  0
BLOCK_RECORD
  5
1936
330
1
100
AcDbSymbolTableRecord
100
AcDbBlockTableRecord
  2
*D5
  0
BLOCK_RECORD
  5
1D2C
330
1
100
AcDbSymbolTableRecord
100
AcDbBlockTableRecord
  2
*D6
  0
BLOCK_RECORD
  5
1D39
330
1
100
AcDbSymbolTableRecord
100
AcDbBlockTableRecord
  2
*D7
  0
BLOCK_RECORD
  5
1D53
330
1
100
AcDbSymbolTableRecord
100
AcDbBlockTableRecord
  2
*D8
  0
BLOCK_RECORD
  5
1D7D
330
1
100
AcDbSymbolTableRecord
100
AcDbBlockTableRecord
  2
*D9
  0
BLOCK_RECORD
  5
1D8C
330
1
100
AcDbSymbolTableRecord
100
AcDbBlockTableRecord
  2
*D10
  0
BLOCK_RECORD
  5
1D99
330
1
100
AcDbSymbolTableRecord
100
AcDbBlockTableRecord
  2
*D11
  0
ENDTAB
  0
ENDSEC
  0
SECTION
  2
BLOCKS
  0
BLOCK
  5
20
330
1F
100
AcDbEntity
  8
0
100
AcDbBlockBegin
  2
*MODEL_SPACE
 70
     0
 10
0.0
 20
0.0
 30
0.0
  3
*MODEL_SPACE
  1

  0
ENDBLK
  5
21
330
1F
100
AcDbEntity
  8
0
100
AcDbBlockEnd
  0
BLOCK
  5
1C
330
1B
100
AcDbEntity
 67
     1
  8
0
100
AcDbBlockBegin
  2
*PAPER_SPACE
 70
     0
 10
0.0
 20
0.0
 30
0.0
  3
*PAPER_SPACE
  1

  0
ENDBLK
  5
1D
330
1B
100
AcDbEntity
 67
     1
  8
0
100
AcDbBlockEnd
  0
BLOCK
  5
195
330
192
100
AcDbEntity
  8
0
100
AcDbBlockBegin
  2
_DOT
 70
     0
 10
0.0
 20
0.0
 30
0.0
  3
_DOT
  1

  0
POLYLINE
  5
193
330
192
100
AcDbEntity
  8
0
 62
     0
100
AcDb2dPolyline
 66
     1
 10
0.0
 20
0.0
 30
0.0
 70
     1
 40
0.5
 41
0.5
  0
VERTEX
  5
211E
330
193
100
AcDbEntity
  8
0
 62
     0
100
AcDbVertex
100
AcDb2dVertex
 10
-0.25
 20
0.0
 30
0.0
 42
1.0
  0
VERTEX
  5
211F
330
193
100
AcDbEntity
  8
0
 62
     0
100
AcDbVertex
100
AcDb2dVertex
 10
0.25
 20
0.0
 30
0.0
 42
1.0
  0
SEQEND
  5
2120
330
193
100
AcDbEntity
  8
0
 62
     0
  0
LINE
  5
194
330
192
100
AcDbEntity
  8
0
 62
     0
100
AcDbLine
 10
-0.5
 20
0.0
 30
0.0
 11
-1.0
 21
0.0
 31
0.0
  0
ENDBLK
  5
196
330
192
100
AcDbEntity
  8
0
100
AcDbBlockEnd
  0
BLOCK
  5
5D1
330
5CE
100
AcDbEntity
  8
0
100
AcDbBlockBegin
  2
A4
 70
     0
 10
0.0
 20
0.0
 30
0.0
  3
A4
  1

  0
POLYLINE
  5
5CF
330
5CE
100
AcDbEntity
  8
HOJO
100
AcDb2dPolyline
 66
     1
 10
0.0
 20
0.0
 30
0.0
 70
     1
  0
VERTEX
  5
2121
330
5CF
100
AcDbEntity
  8
HOJO
100
AcDbVertex
100
AcDb2dVertex
 10
0.0
 20
0.0
 30
0.0
  0
VERTEX
  5
2122
330
5CF
100
AcDbEntity
  8
HOJO
100
AcDbVertex
100
AcDb2dVertex
 10
297.0
 20
0.0
 30
0.0
  0
VERTEX
  5
2123
330
5CF
100
AcDbEntity
  8
HOJO
100
AcDbVertex
100
AcDb2dVertex
 10
297.0
 20
210.0
 30
0.0
  0
VERTEX
  5
2124
330
5CF
100
AcDbEntity
  8
HOJO
100
AcDbVertex
100
AcDb2dVertex
 10
0.0
 20
210.0
 30
0.0
  0
SEQEND
  5
2125
330
5CF
100
AcDbEntity
  8
HOJO
  0
POLYLINE
  5
5D0
330
5CE
100
AcDbEntity
  8
HOJO
100
AcDb2dPolyline
 66
     1
 10
0.0
 20
0.0
 30
0.0
 70
     1
  0
VERTEX
  5
2126
330
5D0
100
AcDbEntity
  8
HOJO
100
AcDbVertex
100
AcDb2dVertex
 10
18.0
 20
13.0
 30
0.0
  0
VERTEX
  5
2127
330
5D0
100
AcDbEntity
  8
HOJO
100
AcDbVertex
100
AcDb2dVertex
 10
279.0
 20
13.0
 30
0.0
  0
VERTEX
  5
2128
330
5D0
100
AcDbEntity
  8
HOJO
100
AcDbVertex
100
AcDb2dVertex
 10
279.0
 20
197.0
 30
0.0
  0
VERTEX
  5
2129
330
5D0
100
AcDbEntity
  8
HOJO
100
AcDbVertex
100
AcDb2dVertex
 10
18.0
 20
197.0
 30
0.0
  0
SEQEND
  5
212A
330
5D0
100
AcDbEntity
  8
HOJO
  0
ENDBLK
  5
5D2
330
5CE
100
AcDbEntity
  8
0
100
AcDbBlockEnd
  0
BLOCK
  5
63A
330
636
100
AcDbEntity
  8
0
100
AcDbBlockBegin
  2
_OPEN90
 70
     0
 10
0.0
 20
0.0
 30
0.0
  3
_OPEN90
  1

  0
LINE
  5
637
330
636
100
AcDbEntity
  8
SUNPO
 62
     0
100
AcDbLine
 10
-0.5
 20
0.5
 30
0.0
 11
0.0
 21
0.0
 31
0.0
  0
LINE
  5
638
330
636
100
AcDbEntity
  8
SUNPO
 62
     0
100
AcDbLine
 10
0.0
 20
0.0
 30
0.0
 11
-0.5
 21
-0.5
 31
0.0
  0
LINE
  5
639
330
636
100
AcDbEntity
  8
SUNPO
 62
     0
100
AcDbLine
 10
0.0
 20
0.0
 30
0.0
 11
-1.0
 21
0.0
 31
0.0
  0
ENDBLK
  5
63B
330
636
100
AcDbEntity
  8
0
100
AcDbBlockEnd
  0
BLOCK
  5
640
330
63C
100
AcDbEntity
  8
0
100
AcDbBlockBegin
  2
_OPEN30
 70
     0
 10
0.0
 20
0.0
 30
0.0
  3
_OPEN30
  1

  0
LINE
  5
63D
330
63C
100
AcDbEntity
  8
SUNPO
 62
     0
100
AcDbLine
 10
-1.0
 20
0.26794919
 30
0.0
 11
0.0
 21
0.0
 31
0.0
  0
LINE
  5
63E
330
63C
100
AcDbEntity
  8
SUNPO
 62
     0
100
AcDbLine
 10
0.0
 20
0.0
 30
0.0
 11
-1.0
 21
-0.26794919
 31
0.0
  0
LINE
  5
63F
330
63C
100
AcDbEntity
  8
SUNPO
 62
     0
100
AcDbLine
 10
0.0
 20
0.0
 30
0.0
 11
-1.0
 21
0.0
 31
0.0
  0
ENDBLK
  5
641
330
63C
100
AcDbEntity
  8
0
100
AcDbBlockEnd
  0
BLOCK
  5
FDE
330
FDC
100
AcDbEntity
  8
0
100
AcDbBlockBegin
  2
_DATUMFILLED
 70
     0
 10
0.0
 20
0.0
 30
0.0
  3
_DATUMFILLED
  1

  0
SOLID
  5
FDD
330
FDC
100
AcDbEntity
  8
MOJI
 62
     0
100
AcDbTrace
 10
0.0
 20
0.5773502700000001
 30
0.0
 11
-1.0
 21
0.0
 31
0.0
 12
0.0
 22
-0.5773502700000001
 32
0.0
 13
0.0
 23
-0.5773502700000001
 33
0.0
  0
ENDBLK
  5
FDF
330
FDC
100
AcDbEntity
  8
0
100
AcDbBlockEnd
  0
BLOCK
  5
1940
330
1936
100
AcDbEntity
  8
0
100
AcDbBlockBegin
  2
*D5
 70
     1
 10
0.0
 20
0.0
 30
0.0
  3
*D5
  1

  0
LINE
  5
1958
330
1936
100
AcDbEntity
  8
SUNPO
 62
   144
100
AcDbLine
 10
2244.999999999999
 20
2129.999999999998
 30
0.0
 11
2244.999999999999
 21
1990.0
 31
0.0
  0
LINE
  5
1959
330
1936
100
AcDbEntity
  8
SUNPO
 62
   144
100
AcDbLine
 10
2450.0
 20
2130.0
 30
0.0
 11
2450.0
 21
1990.0
 31
0.0
  0
LINE
  5
195A
330
1936
100
AcDbEntity
  8
SUNPO
 62
   144
100
AcDbLine
 10
2272.999999999999
 20
2000.0
 30
0.0
 11
2422.0
 21
2000.0
 31
0.0
  0
SOLID
  5
195B
330
1936
100
AcDbEntity
  8
SUNPO
 62
   144
100
AcDbTrace
 10
2272.999999999999
 20
2004.666666666666
 30
0.0
 11
2272.999999999999
 21
1995.333333333333
 31
0.0
 12
2244.999999999999
 22
2000.0
 32
0.0
 13
2244.999999999999
 23
2000.0
 33
0.0
  0
SOLID
  5
195C
330
1936
100
AcDbEntity
  8
SUNPO
 62
   144
100
AcDbTrace
 10
2422.0
 20
2004.666666666666
 30
0.0
 11
2422.0
 21
1995.333333333333
 31
0.0
 12
2450.0
 22
2000.0
 32
0.0
 13
2450.0
 23
2000.0
 33
0.0
  0
MTEXT
  5
195D
330
1936
100
AcDbEntity
  8
SUNPO
 62
     7
100
AcDbMText
 10
2347.5
 20
2030.499999999999
 30
0.0
 40
36.0
 41
0.0
 71
     5
 72
     1
  1
\A2;205
  7
ADD
1001
ACAD
1000
MTEXTBEGIN
1070
    73
1070
     1
1070
    44
1040
1.0
1070
    74
1070
     0
1000
MTEXTEND
1000
MTEXTBEGIN
1070
    73
1070
     1
1070
    44
1040
1.0
1070
    74
1070
     0
1000
MTEXTEND
1000
MTEXTBEGIN
1070
    73
1070
     1
1070
    44
1040
1.0
1070
    74
1070
     0
1000
MTEXTEND
1000
MTEXTBEGIN
1070
    73
1070
     1
1070
    44
1040
1.0
1070
    74
1070
     0
1000
MTEXTEND
1000
MTEXTBEGIN
1070
    73
1070
     1
1070
    44
1040
1.0
1070
    74
1070
     0
1000
MTEXTEND
1000
MTEXTBEGIN
1070
    73
1070
     1
1070
    44
1040
1.0
1070
    74
1070
     0
1000
MTEXTEND
  0
POINT
  5
195E
330
1936
100
AcDbEntity
  8
DEFPOINTS
 62
     0
100
AcDbPoint
 10
2244.999999999999
 20
2149.999999999998
 30
0.0
  0
POINT
  5
195F
330
1936
100
AcDbEntity
  8
DEFPOINTS
 62
     0
100
AcDbPoint
 10
2450.0
 20
2150.0
 30
0.0
  0
POINT
  5
1960
330
1936
100
AcDbEntity
  8
DEFPOINTS
 62
     0
100
AcDbPoint
 10
2450.0
 20
2000.0
 30
0.0
  0
ENDBLK
  5
1941
330
1936
100
AcDbEntity
  8
0
100
AcDbBlockEnd
  0
BLOCK
  5
1D36
330
1D2C
100
AcDbEntity
  8
0
100
AcDbBlockBegin
  2
*D6
 70
     1
 10
0.0
 20
0.0
 30
0.0
  3
*D6
  1

  0
LINE
  5
1D2D
330
1D2C
100
AcDbEntity
  8
SUNPO
 62
   144
100
AcDbLine
 10
2250.0
 20
2320.0
 30
0.0
 11
2250.0
 21
2460.0
 31
0.0
  0
LINE
  5
1D2E
330
1D2C
100
AcDbEntity
  8
SUNPO
 62
   144
100
AcDbLine
 10
2410.0
 20
2320.0
 30
0.0
 11
2410.0
 21
2460.0
 31
0.0
  0
LINE
  5
1D2F
330
1D2C
100
AcDbEntity
  8
SUNPO
 62
   144
100
AcDbLine
 10
2272.0
 20
2450.0
 30
0.0
 11
2388.0
 21
2450.0
 31
0.0
  0
SOLID
  5
1D30
330
1D2C
100
AcDbEntity
  8
SUNPO
 62
   144
100
AcDbTrace
 10
2272.0
 20
2453.666666666666
 30
0.0
 11
2272.0
 21
2446.333333333333
 31
0.0
 12
2250.0
 22
2450.0
 32
0.0
 13
2250.0
 23
2450.0
 33
0.0
  0
SOLID
  5
1D31
330
1D2C
100
AcDbEntity
  8
SUNPO
 62
   144
100
AcDbTrace
 10
2388.0
 20
2453.666666666666
 30
0.0
 11
2388.0
 21
2446.333333333333
 31
0.0
 12
2410.0
 22
2450.0
 32
0.0
 13
2410.0
 23
2450.0
 33
0.0
  0
MTEXT
  5
1D32
330
1D2C
100
AcDbEntity
  8
SUNPO
 62
     7
100
AcDbMText
 10
2330.0
 20
2480.5
 30
0.0
 40
36.0
 41
0.0
 71
     5
 72
     1
  1
\A2;160
  7
ADD
1001
ACAD
1000
MTEXTBEGIN
1070
    73
1070
     1
1070
    44
1040
1.0
1070
    74
1070
     0
1000
MTEXTEND
1000
MTEXTBEGIN
1070
    73
1070
     1
1070
    44
1040
1.0
1070
    74
1070
     0
1000
MTEXTEND
1000
MTEXTBEGIN
1070
    73
1070
     1
1070
    44
1040
1.0
1070
    74
1070
     0
1000
MTEXTEND
1000
MTEXTBEGIN
1070
    73
1070
     1
1070
    44
1040
1.0
1070
    74
1070
     0
1000
MTEXTEND
  0
POINT
  5
1D33
330
1D2C
100
AcDbEntity
  8
DEFPOINTS
 62
     0
100
AcDbPoint
 10
2250.0
 20
2300.0
 30
0.0
  0
POINT
  5
1D34
330
1D2C
100
AcDbEntity
  8
DEFPOINTS
 62
     0
100
AcDbPoint
 10
2410.0
 20
2300.0
 30
0.0
  0
POINT
  5
1D35
330
1D2C
100
AcDbEntity
  8
DEFPOINTS
 62
     0
100
AcDbPoint
 10
2410.0
 20
2450.0
 30
0.0
  0
ENDBLK
  5
1D37
330
1D2C
100
AcDbEntity
  8
0
100
AcDbBlockEnd
  0
BLOCK
  5
1D45
330
1D39
100
AcDbEntity
  8
0
100
AcDbBlockBegin
  2
*D7
 70
     1
 10
0.0
 20
0.0
 30
0.0
  3
*D7
  1

  0
LINE
  5
1D47
330
1D39
100
AcDbEntity
  8
SUNPO
 62
   144
100
AcDbLine
 10
2410.0
 20
2320.0
 30
0.0
 11
2410.0
 21
2460.0
 31
0.0
  0
LINE
  5
1D48
330
1D39
100
AcDbEntity
  8
SUNPO
 62
   144
100
AcDbLine
 10
2450.0
 20
2320.0
 30
0.0
 11
2450.0
 21
2460.0
 31
0.0
  0
LINE
  5
1D49
330
1D39
100
AcDbEntity
  8
SUNPO
 62
   144
100
AcDbLine
 10
2388.0
 20
2450.0
 30
0.0
 11
2366.0
 21
2450.0
 31
0.0
  0
LINE
  5
1D4A
330
1D39
100
AcDbEntity
  8
SUNPO
 62
   144
100
AcDbLine
 10
2472.0
 20
2450.0
 30
0.0
 11
2494.0
 21
2450.0
 31
0.0
  0
MTEXT
  5
1D4B
330
1D39
100
AcDbEntity
  8
SUNPO
 62
     7
100
AcDbMText
 10
2500.0
 20
2480.0
 30
0.0
 40
36.0
 41
0.0
 71
     5
 72
     1
  1
\A2;40
  7
ADD
1001
ACAD
1000
MTEXTBEGIN
1070
    73
1070
     1
1070
    44
1040
1.0
1070
    74
1070
     0
1000
MTEXTEND
1000
MTEXTBEGIN
1070
    73
1070
     1
1070
    44
1040
1.0
1070
    74
1070
     0
1000
MTEXTEND
1000
MTEXTBEGIN
1070
    73
1070
     1
1070
    44
1040
1.0
1070
    74
1070
     0
1000
MTEXTEND
1000
MTEXTBEGIN
1070
    73
1070
     1
1070
    44
1040
1.0
1070
    74
1070
     0
1000
MTEXTEND
  0
LINE
  5
1D4C
330
1D39
100
AcDbEntity
  8
SUNPO
 62
   144
100
AcDbLine
 10
2410.0
 20
2450.0
 30
0.0
 11
2450.0
 21
2450.0
 31
0.0
  0
SOLID
  5
1D4D
330
1D39
100
AcDbEntity
  8
SUNPO
 62
   144
100
AcDbTrace
 10
2388.0
 20
2453.666666666666
 30
0.0
 11
2388.0
 21
2446.333333333333
 31
0.0
 12
2410.0
 22
2450.0
 32
0.0
 13
2410.0
 23
2450.0
 33
0.0
  0
SOLID
  5
1D4E
330
1D39
100
AcDbEntity
  8
SUNPO
 62
   144
100
AcDbTrace
 10
2472.0
 20
2453.666666666666
 30
0.0
 11
2472.0
 21
2446.333333333333
 31
0.0
 12
2450.0
 22
2450.0
 32
0.0
 13
2450.0
 23
2450.0
 33
0.0
  0
POINT
  5
1D4F
330
1D39
100
AcDbEntity
  8
DEFPOINTS
 62
     0
100
AcDbPoint
 10
2410.0
 20
2300.0
 30
0.0
  0
POINT
  5
1D50
330
1D39
100
AcDbEntity
  8
DEFPOINTS
 62
     0
100
AcDbPoint
 10
2450.0
 20
2300.0
 30
0.0
  0
POINT
  5
1D51
330
1D39
100
AcDbEntity
  8
DEFPOINTS
 62
     0
100
AcDbPoint
 10
2450.0
 20
2450.0
 30
0.0
  0
ENDBLK
  5
1D46
330
1D39
100
AcDbEntity
  8
0
100
AcDbBlockEnd
  0
BLOCK
  5
1D5D
330
1D53
100
AcDbEntity
  8
0
100
AcDbBlockBegin
  2
*D8
 70
     1
 10
0.0
 20
0.0
 30
0.0
  3
*D8
  1

  0
LINE
  5
1D54
330
1D53
100
AcDbEntity
  8
SUNPO
 62
   144
100
AcDbLine
 10
2470.0
 20
2300.0
 30
0.0
 11
2610.0
 21
2300.0
 31
0.0
  0
LINE
  5
1D55
330
1D53
100
AcDbEntity
  8
SUNPO
 62
   144
100
AcDbLine
 10
2470.0
 20
2150.0
 30
0.0
 11
2610.0
 21
2150.0
 31
0.0
  0
LINE
  5
1D56
330
1D53
100
AcDbEntity
  8
SUNPO
 62
   144
100
AcDbLine
 10
2600.0
 20
2278.0
 30
0.0
 11
2600.0
 21
2172.0
 31
0.0
  0
SOLID
  5
1D57
330
1D53
100
AcDbEntity
  8
SUNPO
 62
   144
100
AcDbTrace
 10
2596.333333333333
 20
2278.0
 30
0.0
 11
2603.666666666666
 21
2278.0
 31
0.0
 12
2600.0
 22
2300.0
 32
0.0
 13
2600.0
 23
2300.0
 33
0.0
  0
SOLID
  5
1D58
330
1D53
100
AcDbEntity
  8
SUNPO
 62
   144
100
AcDbTrace
 10
2596.333333333333
 20
2172.0
 30
0.0
 11
2603.666666666666
 21
2172.0
 31
0.0
 12
2600.0
 22
2150.0
 32
0.0
 13
2600.0
 23
2150.0
 33
0.0
  0
MTEXT
  5
1D59
330
1D53
100
AcDbEntity
  8
SUNPO
 62
     7
100
AcDbMText
 10
2569.499999999999
 20
2225.0
 30
0.0
 40
36.0
 41
0.0
 71
     5
 72
     1
  1
\A2;150
  7
ADD
 11
0.0000000000000001
 21
1.0
 31
0.0
1001
ACAD
1000
MTEXTBEGIN
1070
    73
1070
     1
1070
    44
1040
1.0
1070
    74
1070
     0
1000
MTEXTEND
1000
MTEXTBEGIN
1070
    73
1070
     1
1070
    44
1040
1.0
1070
    74
1070
     0
1000
MTEXTEND
1000
MTEXTBEGIN
1070
    73
1070
     1
1070
    44
1040
1.0
1070
    74
1070
     0
1000
MTEXTEND
1000
MTEXTBEGIN
1070
    73
1070
     1
1070
    44
1040
1.0
1070
    74
1070
     0
1000
MTEXTEND
  0
POINT
  5
1D5A
330
1D53
100
AcDbEntity
  8
DEFPOINTS
 62
     0
100
AcDbPoint
 10
2450.0
 20
2300.0
 30
0.0
  0
POINT
  5
1D5B
330
1D53
100
AcDbEntity
  8
DEFPOINTS
 62
     0
100
AcDbPoint
 10
2450.0
 20
2150.0
 30
0.0
  0
POINT
  5
1D5C
330
1D53
100
AcDbEntity
  8
DEFPOINTS
 62
     0
100
AcDbPoint
 10
2600.0
 20
2150.0
 30
0.0
  0
ENDBLK
  5
1D5E
330
1D53
100
AcDbEntity
  8
0
100
AcDbBlockEnd
  0
BLOCK
  5
1D84
330
1D7D
100
AcDbEntity
  8
0
100
AcDbBlockBegin
  2
*D9
 70
     1
 10
0.0
 20
0.0
 30
0.0
  3
*D9
  1

  0
LINE
  5
1D7E
330
1D7D
100
AcDbEntity
  8
SUNPO
 62
   144
100
AcDbLine
 10
2119.76053388416
 20
2307.751129310474
 30
0.0
 11
2235.561860481133
 21
2229.839407266544
 31
0.0
  0
MTEXT
  5
1D7F
330
1D7D
100
AcDbEntity
  8
SUNPO
 62
     7
100
AcDbMText
 10
2185.560327692792
 20
2300.24131314607
 30
0.0
 40
36.0
 41
0.0
 71
     5
 72
     1
  1
\A2;R30
  7
ADD
 11
0.8296922069383917
 21
-0.5582211405399306
 31
0.0
1001
ACAD
1000
MTEXTBEGIN
1070
    73
1070
     1
1070
    44
1040
1.0
1070
    74
1070
     0
1000
MTEXTEND
1000
MTEXTBEGIN
1070
    73
1070
     1
1070
    44
1040
1.0
1070
    74
1070
     0
1000
MTEXTEND
1000
MTEXTBEGIN
1070
    73
1070
     1
1070
    44
1040
1.0
1070
    74
1070
     0
1000
MTEXTEND
1000
MTEXTBEGIN
1070
    73
1070
     1
1070
    44
1040
1.0
1070
    74
1070
     0
1000
MTEXTEND
  0
LINE
  5
1D80
330
1D7D
100
AcDbEntity
  8
SUNPO
 62
   144
100
AcDbLine
 10
2278.70585524193
 20
2200.811907958466
 30
0.0
 11
2253.815089033777
 21
2217.558542174665
 31
0.0
  0
SOLID
  5
1D81
330
1D7D
100
AcDbEntity
  8
SUNPO
 62
   144
100
AcDbTrace
 10
2237.608671329779
 20
2232.881612025318
 30
0.0
 11
2233.515049632486
 21
2226.79720250777
 31
0.0
 12
2253.815089033777
 22
2217.558542174665
 32
0.0
 13
2253.815089033777
 23
2217.558542174665
 33
0.0
  0
POINT
  5
1D82
330
1D7D
100
AcDbEntity
  8
DEFPOINTS
 62
     0
100
AcDbPoint
 10
2253.815089033777
 20
2217.558542174665
 30
0.0
  0
POINT
  5
1D83
330
1D7D
100
AcDbEntity
  8
DEFPOINTS
 62
     0
100
AcDbPoint
 10
2278.70585524193
 20
2200.811907958466
 30
0.0
  0
ENDBLK
  5
1D85
330
1D7D
100
AcDbEntity
  8
0
100
AcDbBlockEnd
  0
BLOCK
  5
1D96
330
1D8C
100
AcDbEntity
  8
0
100
AcDbBlockBegin
  2
*D10
 70
     1
 10
0.0
 20
0.0
 30
0.0
  3
*D10
  1

  0
LINE
  5
1D8D
330
1D8C
100
AcDbEntity
  8
SUNPO
 62
   144
100
AcDbLine
 10
3150.0
 20
2130.0
 30
0.0
 11
3150.0
 21
1990.0
 31
0.0
  0
LINE
  5
1D8E
330
1D8C
100
AcDbEntity
  8
SUNPO
 62
   144
100
AcDbLine
 10
3750.0
 20
2130.0
 30
0.0
 11
3750.0
 21
1990.0
 31
0.0
  0
LINE
  5
1D8F
330
1D8C
100
AcDbEntity
  8
SUNPO
 62
   144
100
AcDbLine
 10
3172.0
 20
2000.0
 30
0.0
 11
3728.0
 21
2000.0
 31
0.0
  0
SOLID
  5
1D90
330
1D8C
100
AcDbEntity
  8
SUNPO
 62
   144
100
AcDbTrace
 10
3172.0
 20
2003.666666666667
 30
0.0
 11
3172.0
 21
1996.333333333333
 31
0.0
 12
3150.0
 22
2000.0
 32
0.0
 13
3150.0
 23
2000.0
 33
0.0
  0
SOLID
  5
1D91
330
1D8C
100
AcDbEntity
  8
SUNPO
 62
   144
100
AcDbTrace
 10
3728.0
 20
2003.666666666667
 30
0.0
 11
3728.0
 21
1996.333333333333
 31
0.0
 12
3750.0
 22
2000.0
 32
0.0
 13
3750.0
 23
2000.0
 33
0.0
  0
MTEXT
  5
1D92
330
1D8C
100
AcDbEntity
  8
SUNPO
 62
     7
100
AcDbMText
 10
3450.0
 20
2030.499999999999
 30
0.0
 40
36.0
 41
0.0
 71
     5
 72
     1
  1
\A2;600
  7
ADD
1001
ACAD
1000
MTEXTBEGIN
1070
    73
1070
     1
1070
    44
1040
1.0
1070
    74
1070
     0
1000
MTEXTEND
1000
MTEXTBEGIN
1070
    73
1070
     1
1070
    44
1040
1.0
1070
    74
1070
     0
1000
MTEXTEND
1000
MTEXTBEGIN
1070
    73
1070
     1
1070
    44
1040
1.0
1070
    74
1070
     0
1000
MTEXTEND
1000
MTEXTBEGIN
1070
    73
1070
     1
1070
    44
1040
1.0
1070
    74
1070
     0
1000
MTEXTEND
  0
POINT
  5
1D93
330
1D8C
100
AcDbEntity
  8
DEFPOINTS
 62
     0
100
AcDbPoint
 10
3150.0
 20
2150.0
 30
0.0
  0
POINT
  5
1D94
330
1D8C
100
AcDbEntity
  8
DEFPOINTS
 62
     0
100
AcDbPoint
 10
3750.0
 20
2150.0
 30
0.0
  0
POINT
  5
1D95
330
1D8C
100
AcDbEntity
  8
DEFPOINTS
 62
     0
100
AcDbPoint
 10
3750.0
 20
2000.0
 30
0.0
  0
ENDBLK
  5
1D97
330
1D8C
100
AcDbEntity
  8
0
100
AcDbBlockEnd
  0
BLOCK
  5
1DA3
330
1D99
100
AcDbEntity
  8
0
100
AcDbBlockBegin
  2
*D11
 70
     1
 10
0.0
 20
0.0
 30
0.0
  3
*D11
  1

  0
LINE
  5
1D9A
330
1D99
100
AcDbEntity
  8
SUNPO
 62
   144
100
AcDbLine
 10
3202.0
 20
2320.0
 30
0.0
 11
3202.0
 21
2460.0
 31
0.0
  0
LINE
  5
1D9B
330
1D99
100
AcDbEntity
  8
SUNPO
 62
   144
100
AcDbLine
 10
3698.0
 20
2320.0
 30
0.0
 11
3698.0
 21
2460.0
 31
0.0
  0
LINE
  5
1D9C
330
1D99
100
AcDbEntity
  8
SUNPO
 62
   144
100
AcDbLine
 10
3224.0
 20
2450.0
 30
0.0
 11
3676.0
 21
2450.0
 31
0.0
  0
SOLID
  5
1D9D
330
1D99
100
AcDbEntity
  8
SUNPO
 62
   144
100
AcDbTrace
 10
3224.0
 20
2453.666666666666
 30
0.0
 11
3224.0
 21
2446.333333333333
 31
0.0
 12
3202.0
 22
2450.0
 32
0.0
 13
3202.0
 23
2450.0
 33
0.0
  0
SOLID
  5
1D9E
330
1D99
100
AcDbEntity
  8
SUNPO
 62
   144
100
AcDbTrace
 10
3676.0
 20
2453.666666666666
 30
0.0
 11
3676.0
 21
2446.333333333333
 31
0.0
 12
3698.0
 22
2450.0
 32
0.0
 13
3698.0
 23
2450.0
 33
0.0
  0
MTEXT
  5
1D9F
330
1D99
100
AcDbEntity
  8
SUNPO
 62
     7
100
AcDbMText
 10
3450.0
 20
2480.5
 30
0.0
 40
36.0
 41
0.0
 71
     5
 72
     1
  1
\A2;496
  7
ADD
1001
ACAD
1000
MTEXTBEGIN
1070
    73
1070
     1
1070
    44
1040
1.0
1070
    74
1070
     0
1000
MTEXTEND
1000
MTEXTBEGIN
1070
    73
1070
     1
1070
    44
1040
1.0
1070
    74
1070
     0
1000
MTEXTEND
1000
MTEXTBEGIN
1070
    73
1070
     1
1070
    44
1040
1.0
1070
    74
1070
     0
1000
MTEXTEND
1000
MTEXTBEGIN
1070
    73
1070
     1
1070
    44
1040
1.0
1070
    74
1070
     0
1000
MTEXTEND
  0
POINT
  5
1DA0
330
1D99
100
AcDbEntity
  8
DEFPOINTS
 62
     0
100
AcDbPoint
 10
3202.0
 20
2300.0
 30
0.0
  0
POINT
  5
1DA1
330
1D99
100
AcDbEntity
  8
DEFPOINTS
 62
     0
100
AcDbPoint
 10
3698.0
 20
2300.0
 30
0.0
  0
POINT
  5
1DA2
330
1D99
100
AcDbEntity
  8
DEFPOINTS
 62
     0
100
AcDbPoint
 10
3698.0
 20
2450.0
 30
0.0
  0
ENDBLK
  5
1DA4
330
1D99
100
AcDbEntity
  8
0
100
AcDbBlockEnd
  0
ENDSEC
  0
SECTION
  2
ENTITIES
  0
LINE
  5
60B
330
1F
100
AcDbEntity
  8
3C1
100
AcDbLine
 10
360.0
 20
560.0
 30
0.0
 11
5580.0
 21
560.0
 31
0.0
  0
LINE
  5
60D
330
1F
100
AcDbEntity
  8
3C1
100
AcDbLine
 10
2360.0
 20
260.0
 30
0.0
 11
2360.0
 21
560.0
 31
0.0
  0
LINE
  5
60F
330
1F
100
AcDbEntity
  8
3C1
100
AcDbLine
 10
3160.0
 20
260.0
 30
0.0
 11
3160.0
 21
560.0
 31
0.0
  0
LINE
  5
610
330
1F
100
AcDbEntity
  8
3C1
100
AcDbLine
 10
3660.0
 20
260.0
 30
0.0
 11
3660.0
 21
560.0
 31
0.0
  0
LINE
  5
1912
330
1F
100
AcDbEntity
  8
3C1
100
AcDbLine
 10
3150.0
 20
2300.0
 30
0.0
 11
3150.0
 21
2150.0
 31
0.0
  0
LINE
  5
1913
330
1F
100
AcDbEntity
  8
3C1
100
AcDbLine
 10
3150.0
 20
2150.0
 30
0.0
 11
3750.0
 21
2150.0
 31
0.0
  0
LINE
  5
1914
330
1F
100
AcDbEntity
  8
3C1
100
AcDbLine
 10
3750.0
 20
2150.0
 30
0.0
 11
3750.0
 21
2300.0
 31
0.0
  0
LINE
  5
1915
330
1F
100
AcDbEntity
  8
3C1
100
AcDbLine
 10
3750.0
 20
2300.0
 30
0.0
 11
3150.0
 21
2300.0
 31
0.0
  0
LINE
  5
1918
330
1F
100
AcDbEntity
  8
3C1
100
AcDbLine
 10
2450.0
 20
2150.0
 30
0.0
 11
2245.0
 21
2150.0
 31
0.0
  0
LINE
  5
1B9E
330
1F
100
AcDbEntity
  8
3C1
100
AcDbLine
 10
2450.0
 20
2300.0
 30
0.0
 11
2410.0
 21
2300.0
 31
0.0
  0
LINE
  5
1BA1
330
1F
100
AcDbEntity
  8
3C1
100
AcDbLine
 10
2450.0
 20
2300.0
 30
0.0
 11
2450.0
 21
2150.0
 31
0.0
  0
LINE
  5
1BA3
330
1F
100
AcDbEntity
  8
SUNPO
100
AcDbLine
 10
2470.0
 20
2150.0
 30
0.0
 11
2610.0
 21
2150.0
 31
0.0
  0
LINE
  5
1BD6
330
1F
100
AcDbEntity
  8
SUNPO
100
AcDbLine
 10
2225.0
 20
2150.0
 30
0.0
 11
2090.0
 21
2150.0
 31
0.0
  0
LINE
  5
1D5F
330
1F
100
AcDbEntity
  8
SUNPO
100
AcDbLine
 10
2225.0
 20
2300.0
 30
0.0
 11
2090.0
 21
2300.0
 31
0.0
  0
LINE
  5
1D64
330
1F
100
AcDbEntity
  8
SUNPO
100
AcDbLine
 10
2225.0
 20
2220.0
 30
0.0
 11
2090.0
 21
2220.0
 31
0.0
  0
LINE
  5
1D86
330
1F
100
AcDbEntity
  8
3C1
100
AcDbLine
 10
3150.0
 20
2220.0
 30
0.0
 11
3750.0
 21
2220.0
 31
0.0
  0
LINE
  5
1DA6
330
1F
100
AcDbEntity
  8
SUNPO
100
AcDbLine
 10
3175.0
 20
2320.0
 30
0.0
 11
3175.0
 21
2460.0
 31
0.0
  0
LINE
  5
1DA7
330
1F
100
AcDbEntity
  8
SUNPO
100
AcDbLine
 10
3150.0
 20
2320.0
 30
0.0
 11
3150.0
 21
2460.0
 31
0.0
  0
LINE
  5
1DA8
330
1F
100
AcDbEntity
  8
SUNPO
100
AcDbLine
 10
3750.0
 20
2320.0
 30
0.0
 11
3750.0
 21
2460.0
 31
0.0
  0
LINE
  5
1DA9
330
1F
100
AcDbEntity
  8
SUNPO
100
AcDbLine
 10
3725.0
 20
2320.0
 30
0.0
 11
3725.0
 21
2460.0
 31
0.0
  0
LINE
  5
1DAA
330
1F
100
AcDbEntity
  8
SUNPO
100
AcDbLine
 10
3202.0
 20
2450.0
 30
0.0
 11
3150.0
 21
2450.0
 31
0.0
  0
LINE
  5
1DAB
330
1F
100
AcDbEntity
  8
SUNPO
100
AcDbLine
 10
3698.0
 20
2450.0
 30
0.0
 11
3750.0
 21
2450.0
 31
0.0
  0
LINE
  5
1DB7
330
1F
100
AcDbEntity
  8
3C1
100
AcDbLine
 10
3175.0
 20
2288.0
 30
0.0
 11
3175.0
 21
2232.0
 31
0.0
  0
LINE
  5
1DB9
330
1F
100
AcDbEntity
  8
3C1
100
AcDbLine
 10
3175.0
 20
2232.0
 30
0.0
 11
3725.0
 21
2232.0
 31
0.0
  0
LINE
  5
1DBA
330
1F
100
AcDbEntity
  8
3C1
100
AcDbLine
 10
3175.0
 20
2288.0
 30
0.0
 11
3725.0
 21
2288.0
 31
0.0
  0
LINE
  5
1DBD
330
1F
100
AcDbEntity
  8
3C1
100
AcDbLine
 10
3725.0
 20
2288.0
 30
0.0
 11
3725.0
 21
2232.0
 31
0.0
  0
LINE
  5
1DBE
330
1F
100
AcDbEntity
  8
3C1
100
AcDbLine
 10
3202.0
 20
2278.0
 30
0.0
 11
3202.0
 21
2267.0
 31
0.0
  0
LINE
  5
1DBF
330
1F
100
AcDbEntity
  8
3C1
100
AcDbLine
 10
3202.0
 20
2267.0
 30
0.0
 11
3698.0
 21
2267.0
 31
0.0
  0
LINE
  5
1DC0
330
1F
100
AcDbEntity
  8
3C1
100
AcDbLine
 10
3698.0
 20
2267.0
 30
0.0
 11
3698.0
 21
2278.0
 31
0.0
  0
LINE
  5
1DC1
330
1F
100
AcDbEntity
  8
3C1
100
AcDbLine
 10
3698.0
 20
2278.0
 30
0.0
 11
3202.0
 21
2278.0
 31
0.0
  0
LINE
  5
1DC2
330
1F
100
AcDbEntity
  8
3C1
100
AcDbLine
 10
3202.0
 20
2253.0
 30
0.0
 11
3202.0
 21
2242.0
 31
0.0
  0
LINE
  5
1DC3
330
1F
100
AcDbEntity
  8
3C1
100
AcDbLine
 10
3202.0
 20
2242.0
 30
0.0
 11
3698.0
 21
2242.0
 31
0.0
  0
LINE
  5
1DC4
330
1F
100
AcDbEntity
  8
3C1
100
AcDbLine
 10
3698.0
 20
2242.0
 30
0.0
 11
3698.0
 21
2253.0
 31
0.0
  0
LINE
  5
1DC5
330
1F
100
AcDbEntity
  8
3C1
100
AcDbLine
 10
3698.0
 20
2253.0
 30
0.0
 11
3202.0
 21
2253.0
 31
0.0
  0
LINE
  5
1DF9
330
1F
100
AcDbEntity
  8
3C1
100
AcDbLine
 10
2273.194401763576
 20
2231.492859560668
 30
0.0
 11
2265.381165903455
 21
2227.621389911652
 31
0.0
  0
LINE
  5
1DFA
330
1F
100
AcDbEntity
  8
3C1
100
AcDbLine
 10
2281.695004738322
 20
2225.684266868307
 30
0.0
 11
2273.194401763576
 21
2231.492859560668
 31
0.0
  0
LINE
  5
1DFB
330
1F
100
AcDbEntity
  8
3C1
100
AcDbLine
 10
2295.107318290912
 20
2232.400653185889
 30
0.0
 11
2281.695004738322
 21
2225.684266868307
 31
0.0
  0
LINE
  5
1DFC
330
1F
100
AcDbEntity
  8
3C1
100
AcDbLine
 10
2295.54825768456
 20
2242.686836756637
 30
0.0
 11
2295.107318290912
 21
2232.400653185889
 31
0.0
  0
LINE
  5
1DFD
330
1F
100
AcDbEntity
  8
3C1
100
AcDbLine
 10
2317.902113605545
 20
2253.880813952606
 30
0.0
 11
2295.54825768456
 21
2242.686836756637
 31
0.0
  0
LINE
  5
1DFE
330
1F
100
AcDbEntity
  8
3C1
100
AcDbLine
 10
2326.40271658029
 20
2248.072221260245
 30
0.0
 11
2317.902113605545
 21
2253.880813952606
 31
0.0
  0
LINE
  5
1DFF
330
1F
100
AcDbEntity
  8
3C1
100
AcDbLine
 10
2339.815030132881
 20
2254.788607577828
 30
0.0
 11
2326.40271658029
 21
2248.072221260245
 31
0.0
  0
LINE
  5
1E00
330
1F
100
AcDbEntity
  8
3C1
100
AcDbLine
 10
2340.255969526529
 20
2265.074791148575
 30
0.0
 11
2339.815030132881
 21
2254.788607577828
 31
0.0
  0
LINE
  5
1E01
330
1F
100
AcDbEntity
  8
3C1
100
AcDbLine
 10
2362.609825447513
 20
2276.268768344545
 30
0.0
 11
2340.255969526529
 21
2265.074791148575
 31
0.0
  0
LINE
  5
1E02
330
1F
100
AcDbEntity
  8
3C1
100
AcDbLine
 10
2371.110428422259
 20
2270.460175652184
 30
0.0
 11
2362.609825447513
 21
2276.268768344545
 31
0.0
  0
LINE
  5
1E03
330
1F
100
AcDbEntity
  8
3C1
100
AcDbLine
 10
2384.52274197485
 20
2277.176561969766
 30
0.0
 11
2371.110428422259
 21
2270.460175652184
 31
0.0
  0
LINE
  5
1E04
330
1F
100
AcDbEntity
  8
3C1
100
AcDbLine
 10
2384.963681368497
 20
2287.462745540514
 30
0.0
 11
2384.52274197485
 21
2277.176561969766
 31
0.0
  0
LINE
  5
1E05
330
1F
100
AcDbEntity
  8
3C1
100
AcDbLine
 10
2410.0
 20
2300.0
 30
0.0
 11
2384.963681368497
 21
2287.462745540514
 31
0.0
  0
LINE
  5
1E06
330
1F
100
AcDbEntity
  8
3C1
100
AcDbLine
 10
2245.0
 20
2150.0
 30
0.0
 11
2248.776984983894
 21
2202.877789774522
 31
0.0
  0
ARC
  5
1E07
330
1F
100
AcDbEntity
  8
3C1
100
AcDbCircle
 10
2278.700745978816
 20
2200.740378274885
 30
0.0
 40
30.0
100
AcDbArc
 50
116.3584817349644
 51
175.9143832200251
  0
LINE
  5
1E1E
330
1F
100
AcDbEntity
  8
3C1
100
AcDbLine
 10
2167.985048774766
 20
1132.403004928344
 30
0.0
 11
2114.335794564405
 21
1105.537459658018
 31
0.0
  0
LINE
  5
1E1F
330
1F
100
AcDbEntity
  8
3C1
100
AcDbLine
 10
2201.987460673749
 20
1109.168634158902
 30
0.0
 11
2167.985048774766
 21
1132.403004928344
 31
0.0
  0
LINE
  5
1E20
330
1F
100
AcDbEntity
  8
3C1
100
AcDbLine
 10
2255.636714884111
 20
1136.034179429228
 30
0.0
 11
2201.987460673749
 21
1109.168634158902
 31
0.0
  0
LINE
  5
1E21
330
1F
100
AcDbEntity
  8
3C1
100
AcDbLine
 10
2257.400472458703
 20
1177.178913712221
 30
0.0
 11
2255.636714884111
 21
1136.034179429228
 31
0.0
  0
LINE
  5
1E22
330
1F
100
AcDbEntity
  8
3C1
100
AcDbLine
 10
2346.81589614264
 20
1221.954822496098
 30
0.0
 11
2257.400472458703
 21
1177.178913712221
 31
0.0
  0
LINE
  5
1E23
330
1F
100
AcDbEntity
  8
3C1
100
AcDbLine
 10
2380.818308041623
 20
1198.720451726656
 30
0.0
 11
2346.81589614264
 21
1221.954822496098
 31
0.0
  0
LINE
  5
1E24
330
1F
100
AcDbEntity
  8
3C1
100
AcDbLine
 10
2434.467562251985
 20
1225.585996996982
 30
0.0
 11
2380.818308041623
 21
1198.720451726656
 31
0.0
  0
LINE
  5
1E25
330
1F
100
AcDbEntity
  8
3C1
100
AcDbLine
 10
2436.231319826577
 20
1266.730731279975
 30
0.0
 11
2434.467562251985
 21
1225.585996996982
 31
0.0
  0
LINE
  5
1E26
330
1F
100
AcDbEntity
  8
3C1
100
AcDbLine
 10
2525.646743510513
 20
1311.506640063852
 30
0.0
 11
2436.231319826577
 21
1266.730731279975
 31
0.0
  0
LINE
  5
1E27
330
1F
100
AcDbEntity
  8
3C1
100
AcDbLine
 10
2559.649155409497
 20
1288.27226929441
 30
0.0
 11
2525.646743510513
 21
1311.506640063852
 31
0.0
  0
LINE
  5
1E28
330
1F
100
AcDbEntity
  8
3C1
100
AcDbLine
 10
2613.298409619858
 20
1315.137814564736
 30
0.0
 11
2559.649155409497
 21
1288.27226929441
 31
0.0
  0
LINE
  5
1E29
330
1F
100
AcDbEntity
  8
3C1
100
AcDbLine
 10
2615.06216719445
 20
1356.282548847729
 30
0.0
 11
2613.298409619858
 21
1315.137814564736
 31
0.0
  0
LINE
  5
1E2A
330
1F
100
AcDbEntity
  8
3C1
100
AcDbLine
 10
2704.477590878387
 20
1401.058457631606
 30
0.0
 11
2615.06216719445
 21
1356.282548847729
 31
0.0
  0
LINE
  5
1E6A
330
1F
100
AcDbEntity
  8
SUNPO
100
AcDbLine
 10
2543.420713140247
 20
1499.347226742028
 30
0.0
 11
2606.106985437675
 21
1374.165633584516
 31
0.0
  0
LINE
  5
1E6B
330
1F
100
AcDbEntity
  8
SUNPO
100
AcDbLine
 10
2454.00528945631
 20
1454.571317958151
 30
0.0
 11
2516.691561753738
 21
1329.389724800639
 31
0.0
  0
LINE
  5
1E6C
330
1F
100
AcDbEntity
  8
SUNPO
100
AcDbLine
 10
2364.589865772373
 20
1409.795409174274
 30
0.0
 11
2427.276138069801
 21
1284.613816016763
 31
0.0
  0
LINE
  5
1E6D
330
1F
100
AcDbEntity
  8
SUNPO
100
AcDbLine
 10
2275.174442088437
 20
1365.019500390397
 30
0.0
 11
2337.860714385864
 21
1239.837907232885
 31
0.0
  0
LINE
  5
1E6E
330
1F
100
AcDbEntity
  8
SUNPO
100
AcDbLine
 10
2185.7590184045
 20
1320.24359160652
 30
0.0
 11
2248.445290701928
 21
1195.061998449008
 31
0.0
  0
LINE
  5
1E6F
330
1F
100
AcDbEntity
  8
SUNPO
100
AcDbLine
 10
2096.343594720563
 20
1275.467682822643
 30
0.0
 11
2159.029867017991
 21
1150.286089665131
 31
0.0
  0
LINE
  5
1E70
330
1F
100
AcDbEntity
  8
SUNPO
100
AcDbLine
 10
2114.22667945735
 20
1284.422864579418
 30
0.0
 11
2176.912951754778
 21
1159.241271421907
 31
0.0
  0
LINE
  5
1E71
330
1F
100
AcDbEntity
  8
SUNPO
100
AcDbLine
 10
2167.875933667713
 20
1311.288409849744
 30
0.0
 11
2230.56220596514
 21
1186.106816692233
 31
0.0
  0
LINE
  5
1E72
330
1F
100
AcDbEntity
  8
SUNPO
100
AcDbLine
 10
2293.057526825225
 20
1373.974682147172
 30
0.0
 11
2355.743799122652
 21
1248.793088989661
 31
0.0
  0
LINE
  5
1E74
330
1F
100
AcDbEntity
  8
SUNPO
100
AcDbLine
 10
2346.706781035587
 20
1400.840227417498
 30
0.0
 11
2409.393053333014
 21
1275.658634259987
 31
0.0
  0
LINE
  5
1E75
330
1F
100
AcDbEntity
  8
SUNPO
100
AcDbLine
 10
2471.888374193099
 20
1463.526499714926
 30
0.0
 11
2534.574646490526
 21
1338.344906557415
 31
0.0
  0
LINE
  5
1E76
330
1F
100
AcDbEntity
  8
SUNPO
100
AcDbLine
 10
2525.53762840346
 20
1490.392044985252
 30
0.0
 11
2588.223900700888
 21
1365.210451827741
 31
0.0
  0
LINE
  5
1E77
330
1F
100
AcDbEntity
  8
SUNPO
100
AcDbLine
 10
2100.821185598951
 20
1266.526140454249
 30
0.0
 11
2547.898304018635
 21
1490.405684373634
 31
0.0
  0
TEXT
  5
2092
330
1F
100
AcDbEntity
  8
SUNPO
100
AcDbText
 10
2155.0
 20
1654.0
 30
0.0
 40
36.0
  1
（凹部詳細図）
  7
ADD
100
AcDbText
1001
ACAD
1000
MTEXTBEGIN
1070
    73
1070
     1
1070
    44
1040
1.0
1070
    74
1070
     0
1000
MTEXTEND
1000
MTEXTBEGIN
1070
    73
1070
     1
1070
    44
1040
1.0
1070
    74
1070
     0
1000
MTEXTEND
1000
MTEXTBEGIN
1070
    73
1070
     1
1070
    44
1040
1.0
1070
    74
1070
     0
1000
MTEXTEND
  0
SOLID
  5
2093
330
1F
100
AcDbEntity
  8
SUNPO
100
AcDbTrace
 10
2569.211480551176
 20
1496.977818771009
 30
0.0
 11
2547.898304018635
 21
1490.405684373634
 31
0.0
 12
2565.927913907026
 22
1503.534949841164
 32
0.0
 13
2565.927913907026
 23
1503.534949841164
 33
0.0
1001
ACAD
1000
DSTYLE
1002
{
1070
     5
1000

1070
    40
1040
20.0
1070
    41
1040
1.1
1070
    77
1070
     0
1070
   140
1040
1.8
1070
   141
1040
1.1
1070
   147
1040
0.625
1070
   342
1005
0
1002
}
  0
SOLID
  5
2095
330
1F
100
AcDbEntity
  8
SUNPO
100
AcDbTrace
 10
2079.508009066409
 20
1259.954006056874
 30
0.0
 11
2100.821185598951
 21
1266.526140454249
 31
0.0
 12
2082.79157571056
 22
1253.396874986719
 32
0.0
 13
2082.79157571056
 23
1253.396874986719
 33
0.0
1001
ACAD
1000
DSTYLE
1002
{
1070
     5
1000

1070
    40
1040
20.0
1070
    41
1040
1.1
1070
    77
1070
     0
1070
   140
1040
1.8
1070
   141
1040
1.1
1070
   147
1040
0.625
1070
   342
1005
0
1002
}
  0
TEXT
  5
2097
330
1F
100
AcDbEntity
  8
SUNPO
100
AcDbText
 10
2070.837288671076
 20
1310.197263902875
 30
0.0
 40
35.99999999999999
  1
5
 50
26.6
  7
ADD
100
AcDbText
1001
ACAD
1000
MTEXTBEGIN
1070
    73
1070
     1
1070
    44
1040
1.0
1070
    74
1070
     0
1000
MTEXTEND
1000
MTEXTBEGIN
1070
    73
1070
     1
1070
    44
1040
1.0
1070
    74
1070
     0
1000
MTEXTEND
1000
MTEXTBEGIN
1070
    73
1070
     1
1070
    44
1040
1.0
1070
    74
1070
     0
1000
MTEXTEND
  0
TEXT
  5
2098
330
1F
100
AcDbEntity
  8
SUNPO
100
AcDbText
 10
2500.031322353973
 20
1525.121626065484
 30
0.0
 40
35.99999999999999
  1
5
 50
26.6
  7
ADD
100
AcDbText
1001
ACAD
1000
MTEXTBEGIN
1070
    73
1070
     1
1070
    44
1040
1.0
1070
    74
1070
     0
1000
MTEXTEND
1000
MTEXTBEGIN
1070
    73
1070
     1
1070
    44
1040
1.0
1070
    74
1070
     0
1000
MTEXTEND
1000
MTEXTBEGIN
1070
    73
1070
     1
1070
    44
1040
1.0
1070
    74
1070
     0
1000
MTEXTEND
  0
TEXT
  5
2099
330
1F
100
AcDbEntity
  8
SUNPO
100
AcDbText
 10
2428.498983406823
 20
1489.300899038383
 30
0.0
 40
35.99999999999999
  1
5
 50
26.6
  7
ADD
100
AcDbText
1001
ACAD
1000
MTEXTBEGIN
1070
    73
1070
     1
1070
    44
1040
1.0
1070
    74
1070
     0
1000
MTEXTEND
1000
MTEXTBEGIN
1070
    73
1070
     1
1070
    44
1040
1.0
1070
    74
1070
     0
1000
MTEXTEND
1000
MTEXTBEGIN
1070
    73
1070
     1
1070
    44
1040
1.0
1070
    74
1070
     0
1000
MTEXTEND
  0
TEXT
  5
209A
330
1F
100
AcDbEntity
  8
SUNPO
100
AcDbText
 10
2321.200474986099
 20
1435.56980849773
 30
0.0
 40
35.99999999999999
  1
5
 50
26.6
  7
ADD
100
AcDbText
1001
ACAD
1000
MTEXTBEGIN
1070
    73
1070
     1
1070
    44
1040
1.0
1070
    74
1070
     0
1000
MTEXTEND
1000
MTEXTBEGIN
1070
    73
1070
     1
1070
    44
1040
1.0
1070
    74
1070
     0
1000
MTEXTEND
1000
MTEXTBEGIN
1070
    73
1070
     1
1070
    44
1040
1.0
1070
    74
1070
     0
1000
MTEXTEND
  0
TEXT
  5
209B
330
1F
100
AcDbEntity
  8
SUNPO
100
AcDbText
 10
2249.66813603895
 20
1399.749081470629
 30
0.0
 40
35.99999999999999
  1
5
 50
26.6
  7
ADD
100
AcDbText
1001
ACAD
1000
MTEXTBEGIN
1070
    73
1070
     1
1070
    44
1040
1.0
1070
    74
1070
     0
1000
MTEXTEND
1000
MTEXTBEGIN
1070
    73
1070
     1
1070
    44
1040
1.0
1070
    74
1070
     0
1000
MTEXTEND
1000
MTEXTBEGIN
1070
    73
1070
     1
1070
    44
1040
1.0
1070
    74
1070
     0
1000
MTEXTEND
  0
TEXT
  5
209C
330
1F
100
AcDbEntity
  8
SUNPO
100
AcDbText
 10
2142.369627618225
 20
1346.017990929976
 30
0.0
 40
35.99999999999999
  1
5
 50
26.6
  7
ADD
100
AcDbText
1001
ACAD
1000
MTEXTBEGIN
1070
    73
1070
     1
1070
    44
1040
1.0
1070
    74
1070
     0
1000
MTEXTEND
1000
MTEXTBEGIN
1070
    73
1070
     1
1070
    44
1040
1.0
1070
    74
1070
     0
1000
MTEXTEND
1000
MTEXTBEGIN
1070
    73
1070
     1
1070
    44
1040
1.0
1070
    74
1070
     0
1000
MTEXTEND
  0
TEXT
  5
209D
330
1F
100
AcDbEntity
  8
SUNPO
100
AcDbText
 10
2377.248235848215
 20
1418.901425005352
 30
0.0
 40
35.99999999999999
  1
25
 50
26.6
  7
ADD
100
AcDbText
1001
ACAD
1000
MTEXTBEGIN
1070
    73
1070
     1
1070
    44
1040
1.0
1070
    74
1070
     0
1000
MTEXTEND
1000
MTEXTBEGIN
1070
    73
1070
     1
1070
    44
1040
1.0
1070
    74
1070
     0
1000
MTEXTEND
1000
MTEXTBEGIN
1070
    73
1070
     1
1070
    44
1040
1.0
1070
    74
1070
     0
1000
MTEXTEND
  0
TEXT
  5
209E
330
1F
100
AcDbEntity
  8
SUNPO
100
AcDbText
 10
2283.520452998926
 20
1371.966047612193
 30
0.0
 40
35.99999999999999
  1
15
 50
26.6
  7
ADD
100
AcDbText
1001
ACAD
1000
MTEXTBEGIN
1070
    73
1070
     1
1070
    44
1040
1.0
1070
    74
1070
     0
1000
MTEXTEND
1000
MTEXTBEGIN
1070
    73
1070
     1
1070
    44
1040
1.0
1070
    74
1070
     0
1000
MTEXTEND
1000
MTEXTBEGIN
1070
    73
1070
     1
1070
    44
1040
1.0
1070
    74
1070
     0
1000
MTEXTEND
  0
TEXT
  5
209F
330
1F
100
AcDbEntity
  8
SUNPO
100
AcDbText
 10
2198.657959305699
 20
1329.470076333103
 30
0.0
 40
35.99999999999999
  1
25
 50
26.6
  7
ADD
100
AcDbText
1001
ACAD
1000
MTEXTBEGIN
1070
    73
1070
     1
1070
    44
1040
1.0
1070
    74
1070
     0
1000
MTEXTEND
1000
MTEXTBEGIN
1070
    73
1070
     1
1070
    44
1040
1.0
1070
    74
1070
     0
1000
MTEXTEND
1000
MTEXTBEGIN
1070
    73
1070
     1
1070
    44
1040
1.0
1070
    74
1070
     0
1000
MTEXTEND
  0
TEXT
  5
20A0
330
1F
100
AcDbEntity
  8
SUNPO
100
AcDbText
 10
2104.801670208735
 20
1282.470347804681
 30
0.0
 40
35.99999999999999
  1
15
 50
26.6
  7
ADD
100
AcDbText
1001
ACAD
1000
MTEXTBEGIN
1070
    73
1070
     1
1070
    44
1040
1.0
1070
    74
1070
     0
1000
MTEXTEND
1000
MTEXTBEGIN
1070
    73
1070
     1
1070
    44
1040
1.0
1070
    74
1070
     0
1000
MTEXTEND
1000
MTEXTBEGIN
1070
    73
1070
     1
1070
    44
1040
1.0
1070
    74
1070
     0
1000
MTEXTEND
  0
SOLID
  5
20A1
330
1F
100
AcDbEntity
  8
SUNPO
100
AcDbTrace
 10
2437.169703802156
 20
1439.057641192382
 30
0.0
 11
2458.482880334698
 21
1445.629775589757
 31
0.0
 12
2440.453270446307
 22
1432.500510122227
 32
0.0
 13
2440.453270446307
 23
1432.500510122227
 33
0.0
1001
ACAD
1000
DSTYLE
1002
{
1070
     5
1000

1070
    40
1040
20.0
1070
    41
1040
1.1
1070
    77
1070
     0
1070
   140
1040
1.8
1070
   141
1040
1.1
1070
   147
1040
0.625
1070
   342
1005
0
1002
}
  0
SOLID
  5
20A3
330
1F
100
AcDbEntity
  8
SUNPO
100
AcDbTrace
 10
2329.871195381432
 20
1385.326550651729
 30
0.0
 11
2351.184371913974
 21
1391.898685049104
 31
0.0
 12
2333.154762025583
 22
1378.769419581574
 32
0.0
 13
2333.154762025583
 23
1378.769419581574
 33
0.0
1001
ACAD
1000
DSTYLE
1002
{
1070
     5
1000

1070
    40
1040
20.0
1070
    41
1040
1.1
1070
    77
1070
     0
1070
   140
1040
1.8
1070
   141
1040
1.1
1070
   147
1040
0.625
1070
   342
1005
0
1002
}
  0
SOLID
  5
20A5
330
1F
100
AcDbEntity
  8
SUNPO
100
AcDbTrace
 10
2258.338856434283
 20
1349.505823624628
 30
0.0
 11
2279.652032966824
 21
1356.077958022003
 31
0.0
 12
2261.622423078434
 22
1342.948692554472
 32
0.0
 13
2261.622423078434
 23
1342.948692554472
 33
0.0
1001
ACAD
1000
DSTYLE
1002
{
1070
     5
1000

1070
    40
1040
20.0
1070
    41
1040
1.1
1070
    77
1070
     0
1070
   140
1040
1.8
1070
   141
1040
1.1
1070
   147
1040
0.625
1070
   342
1005
0
1002
}
  0
SOLID
  5
20A7
330
1F
100
AcDbEntity
  8
SUNPO
100
AcDbTrace
 10
2151.040348013559
 20
1295.774733083975
 30
0.0
 11
2172.3535245461
 21
1302.346867481351
 31
0.0
 12
2154.32391465771
 22
1289.21760201382
 32
0.0
 13
2154.32391465771
 23
1289.21760201382
 33
0.0
1001
ACAD
1000
DSTYLE
1002
{
1070
     5
1000

1070
    40
1040
20.0
1070
    41
1040
1.1
1070
    77
1070
     0
1070
   140
1040
1.8
1070
   141
1040
1.1
1070
   147
1040
0.625
1070
   342
1005
0
1002
}
  0
SOLID
  5
20A9
330
1F
100
AcDbEntity
  8
SUNPO
100
AcDbTrace
 10
2508.702042749306
 20
1474.878368219483
 30
0.0
 11
2530.015219281847
 21
1481.450502616858
 31
0.0
 12
2511.985609393457
 22
1468.321237149328
 32
0.0
 13
2511.985609393457
 23
1468.321237149328
 33
0.0
1001
ACAD
1000
DSTYLE
1002
{
1070
     5
1000

1070
    40
1040
20.0
1070
    41
1040
1.1
1070
    77
1070
     0
1070
   140
1040
1.8
1070
   141
1040
1.1
1070
   147
1040
0.625
1070
   342
1005
0
1002
}
  0
SOLID
  5
20AB
330
1F
100
AcDbEntity
  8
SUNPO
100
AcDbTrace
 10
2497.679141604027
 20
1461.157091743908
 30
0.0
 11
2476.365965071486
 21
1454.584957346533
 31
0.0
 12
2494.395574959876
 22
1467.714222814063
 32
0.0
 13
2494.395574959876
 23
1467.714222814063
 33
0.0
1001
ACAD
1000
DSTYLE
1002
{
1070
     5
1000

1070
    40
1040
20.0
1070
    41
1040
1.1
1070
    77
1070
     0
1070
   140
1040
1.8
1070
   141
1040
1.1
1070
   147
1040
0.625
1070
   342
1005
0
1002
}
  0
SOLID
  5
20AD
330
1F
100
AcDbEntity
  8
SUNPO
100
AcDbTrace
 10
2390.380633183303
 20
1407.426001203255
 30
0.0
 11
2369.067456650761
 21
1400.85386680588
 31
0.0
 12
2387.097066539152
 22
1413.983132273411
 32
0.0
 13
2387.097066539152
 23
1413.983132273411
 33
0.0
1001
ACAD
1000
DSTYLE
1002
{
1070
     5
1000

1070
    40
1040
20.0
1070
    41
1040
1.1
1070
    77
1070
     0
1070
   140
1040
1.8
1070
   141
1040
1.1
1070
   147
1040
0.625
1070
   342
1005
0
1002
}
  0
SOLID
  5
20AF
330
1F
100
AcDbEntity
  8
SUNPO
100
AcDbTrace
 10
2318.848294236154
 20
1371.605274176153
 30
0.0
 11
2297.535117703612
 21
1365.033139778778
 31
0.0
 12
2315.564727592003
 22
1378.162405246309
 32
0.0
 13
2315.564727592003
 23
1378.162405246309
 33
0.0
1001
ACAD
1000
DSTYLE
1002
{
1070
     5
1000

1070
    40
1040
20.0
1070
    41
1040
1.1
1070
    77
1070
     0
1070
   140
1040
1.8
1070
   141
1040
1.1
1070
   147
1040
0.625
1070
   342
1005
0
1002
}
  0
SOLID
  5
20B1
330
1F
100
AcDbEntity
  8
SUNPO
100
AcDbTrace
 10
2211.549785815429
 20
1317.874183635501
 30
0.0
 11
2190.236609282888
 21
1311.302049238126
 31
0.0
 12
2208.266219171278
 22
1324.431314705657
 32
0.0
 13
2208.266219171278
 23
1324.431314705657
 33
0.0
1001
ACAD
1000
DSTYLE
1002
{
1070
     5
1000

1070
    40
1040
20.0
1070
    41
1040
1.1
1070
    77
1070
     0
1070
   140
1040
1.8
1070
   141
1040
1.1
1070
   147
1040
0.625
1070
   342
1005
0
1002
}
  0
SOLID
  5
20B3
330
1F
100
AcDbEntity
  8
SUNPO
100
AcDbTrace
 10
2140.017446868279
 20
1282.0534566084
 30
0.0
 11
2118.704270335738
 21
1275.481322211024
 31
0.0
 12
2136.733880224129
 22
1288.610587678555
 32
0.0
 13
2136.733880224129
 23
1288.610587678555
 33
0.0
1001
ACAD
1000
DSTYLE
1002
{
1070
     5
1000

1070
    40
1040
20.0
1070
    41
1040
1.1
1070
    77
1070
     0
1070
   140
1040
1.8
1070
   141
1040
1.1
1070
   147
1040
0.625
1070
   342
1005
0
1002
}
  0
TEXT
  5
20B5
330
1F
100
AcDbEntity
  8
SUNPO
100
AcDbText
 10
2462.320747608137
 20
1461.502565498096
 30
0.0
 40
35.99999999999999
  1
15
 50
26.6
  7
ADD
100
AcDbText
1001
ACAD
1000
MTEXTBEGIN
1070
    73
1070
     1
1070
    44
1040
1.0
1070
    74
1070
     0
1000
MTEXTEND
1000
MTEXTBEGIN
1070
    73
1070
     1
1070
    44
1040
1.0
1070
    74
1070
     0
1000
MTEXTEND
1000
MTEXTBEGIN
1070
    73
1070
     1
1070
    44
1040
1.0
1070
    74
1070
     0
1000
MTEXTEND
  0
TEXT
  5
20B6
330
1F
100
AcDbEntity
  8
SUNPO
100
AcDbText
 10
3766.275521240457
 20
2462.508025425028
 30
0.0
 40
36.0
  1
25
  7
ADD
100
AcDbText
1001
ACAD
1000
MTEXTBEGIN
1070
    73
1070
     1
1070
    44
1040
1.0
1070
    74
1070
     0
1000
MTEXTEND
1000
MTEXTBEGIN
1070
    73
1070
     1
1070
    44
1040
1.0
1070
    74
1070
     0
1000
MTEXTEND
1000
MTEXTBEGIN
1070
    73
1070
     1
1070
    44
1040
1.0
1070
    74
1070
     0
1000
MTEXTEND
  0
TEXT
  5
20B7
330
1F
100
AcDbEntity
  8
SUNPO
100
AcDbText
 10
3676.275521240457
 20
2462.508025425028
 30
0.0
 40
36.0
  1
27
  7
ADD
100
AcDbText
1001
ACAD
1000
MTEXTBEGIN
1070
    73
1070
     1
1070
    44
1040
1.0
1070
    74
1070
     0
1000
MTEXTEND
1000
MTEXTBEGIN
1070
    73
1070
     1
1070
    44
1040
1.0
1070
    74
1070
     0
1000
MTEXTEND
1000
MTEXTBEGIN
1070
    73
1070
     1
1070
    44
1040
1.0
1070
    74
1070
     0
1000
MTEXTEND
  0
TEXT
  5
20B8
330
1F
100
AcDbEntity
  8
SUNPO
100
AcDbText
 10
3064.109714094744
 20
2462.508025425028
 30
0.0
 40
36.0
  1
25
  7
ADD
100
AcDbText
1001
ACAD
1000
MTEXTBEGIN
1070
    73
1070
     1
1070
    44
1040
1.0
1070
    74
1070
     0
1000
MTEXTEND
1000
MTEXTBEGIN
1070
    73
1070
     1
1070
    44
1040
1.0
1070
    74
1070
     0
1000
MTEXTEND
1000
MTEXTBEGIN
1070
    73
1070
     1
1070
    44
1040
1.0
1070
    74
1070
     0
1000
MTEXTEND
  0
TEXT
  5
20B9
330
1F
100
AcDbEntity
  8
SUNPO
100
AcDbText
 10
3154.109714094744
 20
2462.508025425028
 30
0.0
 40
36.0
  1
27
  7
ADD
100
AcDbText
1001
ACAD
1000
MTEXTBEGIN
1070
    73
1070
     1
1070
    44
1040
1.0
1070
    74
1070
     0
1000
MTEXTEND
1000
MTEXTBEGIN
1070
    73
1070
     1
1070
    44
1040
1.0
1070
    74
1070
     0
1000
MTEXTEND
1000
MTEXTBEGIN
1070
    73
1070
     1
1070
    44
1040
1.0
1070
    74
1070
     0
1000
MTEXTEND
  0
SOLID
  5
20BA
330
1F
100
AcDbEntity
  8
SUNPO
100
AcDbTrace
 10
3772.0
 20
2446.333333333333
 30
0.0
 11
3750.0
 21
2450.0
 31
0.0
 12
3772.0
 22
2453.666666666666
 32
0.0
 13
3772.0
 23
2453.666666666666
 33
0.0
1001
ACAD
1000
DSTYLE
1002
{
1070
     5
1000

1070
    40
1040
20.0
1070
    41
1040
1.1
1070
    77
1070
     0
1070
   140
1040
1.8
1070
   141
1040
1.1
1070
   147
1040
0.625
1070
   342
1005
0
1002
}
  0
SOLID
  5
20BC
330
1F
100
AcDbEntity
  8
SUNPO
100
AcDbTrace
 10
3128.0
 20
2453.666666666666
 30
0.0
 11
3150.0
 21
2450.0
 31
0.0
 12
3128.0
 22
2446.333333333333
 32
0.0
 13
3128.0
 23
2446.333333333333
 33
0.0
1001
ACAD
1000
DSTYLE
1002
{
1070
     5
1000

1070
    40
1040
20.0
1070
    41
1040
1.1
1070
    77
1070
     0
1070
   140
1040
1.8
1070
   141
1040
1.1
1070
   147
1040
0.625
1070
   342
1005
0
1002
}
  0
LINE
  5
20BE
330
1F
100
AcDbEntity
  8
SUNPO
 62
   144
100
AcDbLine
 10
3202.0
 20
2320.0
 30
0.0
 11
3202.0
 21
2460.0
 31
0.0
  0
LINE
  5
20BF
330
1F
100
AcDbEntity
  8
SUNPO
 62
   144
100
AcDbLine
 10
3698.0
 20
2320.0
 30
0.0
 11
3698.0
 21
2460.0
 31
0.0
  0
LINE
  5
20C0
330
1F
100
AcDbEntity
  8
SUNPO
 62
   144
100
AcDbLine
 10
3224.0
 20
2450.0
 30
0.0
 11
3676.0
 21
2450.0
 31
0.0
  0
SOLID
  5
20C1
330
1F
100
AcDbEntity
  8
SUNPO
 62
   144
100
AcDbTrace
 10
3224.0
 20
2453.666666666666
 30
0.0
 11
3224.0
 21
2446.333333333333
 31
0.0
 12
3202.0
 22
2450.0
 32
0.0
 13
3202.0
 23
2450.0
 33
0.0
  0
SOLID
  5
20C2
330
1F
100
AcDbEntity
  8
SUNPO
 62
   144
100
AcDbTrace
 10
3676.0
 20
2453.666666666666
 30
0.0
 11
3676.0
 21
2446.333333333333
 31
0.0
 12
3698.0
 22
2450.0
 32
0.0
 13
3698.0
 23
2450.0
 33
0.0
  0
LINE
  5
20C4
330
1F
100
AcDbEntity
  8
SUNPO
 62
   144
100
AcDbLine
 10
3150.0
 20
2130.0
 30
0.0
 11
3150.0
 21
1990.0
 31
0.0
  0
LINE
  5
20C5
330
1F
100
AcDbEntity
  8
SUNPO
 62
   144
100
AcDbLine
 10
3750.0
 20
2130.0
 30
0.0
 11
3750.0
 21
1990.0
 31
0.0
  0
LINE
  5
20C6
330
1F
100
AcDbEntity
  8
SUNPO
 62
   144
100
AcDbLine
 10
3172.0
 20
2000.0
 30
0.0
 11
3728.0
 21
2000.0
 31
0.0
  0
SOLID
  5
20C7
330
1F
100
AcDbEntity
  8
SUNPO
 62
   144
100
AcDbTrace
 10
3172.0
 20
2003.666666666667
 30
0.0
 11
3172.0
 21
1996.333333333333
 31
0.0
 12
3150.0
 22
2000.0
 32
0.0
 13
3150.0
 23
2000.0
 33
0.0
  0
SOLID
  5
20C8
330
1F
100
AcDbEntity
  8
SUNPO
 62
   144
100
AcDbTrace
 10
3728.0
 20
2003.666666666667
 30
0.0
 11
3728.0
 21
1996.333333333333
 31
0.0
 12
3750.0
 22
2000.0
 32
0.0
 13
3750.0
 23
2000.0
 33
0.0
  0
LINE
  5
20CA
330
1F
100
AcDbEntity
  8
SUNPO
 62
   144
100
AcDbLine
 10
2119.76053388416
 20
2307.751129310474
 30
0.0
 11
2235.561860481133
 21
2229.839407266544
 31
0.0
  0
LINE
  5
20CC
330
1F
100
AcDbEntity
  8
SUNPO
 62
   144
100
AcDbLine
 10
2278.70585524193
 20
2200.811907958466
 30
0.0
 11
2253.815089033777
 21
2217.558542174665
 31
0.0
  0
SOLID
  5
20CD
330
1F
100
AcDbEntity
  8
SUNPO
 62
   144
100
AcDbTrace
 10
2237.608671329779
 20
2232.881612025318
 30
0.0
 11
2233.515049632486
 21
2226.79720250777
 31
0.0
 12
2253.815089033777
 22
2217.558542174665
 32
0.0
 13
2253.815089033777
 23
2217.558542174665
 33
0.0
  0
TEXT
  5
20CE
330
1F
100
AcDbEntity
  8
SUNPO
100
AcDbText
 10
2087.570525480267
 20
2226.233761417775
 30
0.0
 40
36.0
  1
80
 50
90.0
  7
ADD
100
AcDbText
1001
ACAD
1000
MTEXTBEGIN
1070
    73
1070
     1
1070
    44
1040
1.0
1070
    74
1070
     0
1000
MTEXTEND
1000
MTEXTBEGIN
1070
    73
1070
     1
1070
    44
1040
1.0
1070
    74
1070
     0
1000
MTEXTEND
1000
MTEXTBEGIN
1070
    73
1070
     1
1070
    44
1040
1.0
1070
    74
1070
     0
1000
MTEXTEND
1000
MTEXTBEGIN
1070
    73
1070
     1
1070
    44
1040
1.0
1070
    74
1070
     0
1000
MTEXTEND
  0
SOLID
  5
20CF
330
1F
100
AcDbEntity
  8
SUNPO
100
AcDbTrace
 10
2096.333333333333
 20
2278.0
 30
0.0
 11
2100.0
 21
2300.0
 31
0.0
 12
2103.666666666666
 22
2278.0
 32
0.0
 13
2103.666666666666
 23
2278.0
 33
0.0
1001
ACAD
1000
DSTYLE
1002
{
1070
     5
1000

1070
    40
1040
20.0
1070
    41
1040
1.1
1070
    77
1070
     0
1070
   140
1040
1.8
1070
   141
1040
1.1
1070
   147
1040
0.625
1070
   342
1005
0
1002
}
  0
SOLID
  5
20D1
330
1F
100
AcDbEntity
  8
SUNPO
100
AcDbTrace
 10
2096.333333333333
 20
2198.0
 30
0.0
 11
2100.0
 21
2220.0
 31
0.0
 12
2103.666666666666
 22
2198.0
 32
0.0
 13
2103.666666666666
 23
2198.0
 33
0.0
1001
ACAD
1000
DSTYLE
1002
{
1070
     5
1000

1070
    40
1040
20.0
1070
    41
1040
1.1
1070
    77
1070
     0
1070
   140
1040
1.8
1070
   141
1040
1.1
1070
   147
1040
0.625
1070
   342
1005
0
1002
}
  0
SOLID
  5
20D3
330
1F
100
AcDbEntity
  8
SUNPO
100
AcDbTrace
 10
2103.666666666666
 20
2242.0
 30
0.0
 11
2100.0
 21
2220.0
 31
0.0
 12
2096.333333333333
 22
2242.0
 32
0.0
 13
2096.333333333333
 23
2242.0
 33
0.0
1001
ACAD
1000
DSTYLE
1002
{
1070
     5
1000

1070
    40
1040
20.0
1070
    41
1040
1.1
1070
    77
1070
     0
1070
   140
1040
1.8
1070
   141
1040
1.1
1070
   147
1040
0.625
1070
   342
1005
0
1002
}
  0
LINE
  5
20D5
330
1F
100
AcDbEntity
  8
SUNPO
 62
   144
100
AcDbLine
 10
2470.0
 20
2300.0
 30
0.0
 11
2610.0
 21
2300.0
 31
0.0
  0
LINE
  5
20D6
330
1F
100
AcDbEntity
  8
SUNPO
 62
   144
100
AcDbLine
 10
2470.0
 20
2150.0
 30
0.0
 11
2610.0
 21
2150.0
 31
0.0
  0
LINE
  5
20D7
330
1F
100
AcDbEntity
  8
SUNPO
 62
   144
100
AcDbLine
 10
2600.0
 20
2278.0
 30
0.0
 11
2600.0
 21
2172.0
 31
0.0
  0
SOLID
  5
20D8
330
1F
100
AcDbEntity
  8
SUNPO
 62
   144
100
AcDbTrace
 10
2596.333333333333
 20
2278.0
 30
0.0
 11
2603.666666666666
 21
2278.0
 31
0.0
 12
2600.0
 22
2300.0
 32
0.0
 13
2600.0
 23
2300.0
 33
0.0
  0
SOLID
  5
20D9
330
1F
100
AcDbEntity
  8
SUNPO
 62
   144
100
AcDbTrace
 10
2596.333333333333
 20
2172.0
 30
0.0
 11
2603.666666666666
 21
2172.0
 31
0.0
 12
2600.0
 22
2150.0
 32
0.0
 13
2600.0
 23
2150.0
 33
0.0
  0
LINE
  5
20DB
330
1F
100
AcDbEntity
  8
SUNPO
 62
   144
100
AcDbLine
 10
2410.0
 20
2320.0
 30
0.0
 11
2410.0
 21
2460.0
 31
0.0
  0
LINE
  5
20DC
330
1F
100
AcDbEntity
  8
SUNPO
 62
   144
100
AcDbLine
 10
2450.0
 20
2320.0
 30
0.0
 11
2450.0
 21
2460.0
 31
0.0
  0
LINE
  5
20DD
330
1F
100
AcDbEntity
  8
SUNPO
 62
   144
100
AcDbLine
 10
2388.0
 20
2450.0
 30
0.0
 11
2366.0
 21
2450.0
 31
0.0
  0
LINE
  5
20DE
330
1F
100
AcDbEntity
  8
SUNPO
 62
   144
100
AcDbLine
 10
2472.0
 20
2450.0
 30
0.0
 11
2494.0
 21
2450.0
 31
0.0
  0
LINE
  5
20E0
330
1F
100
AcDbEntity
  8
SUNPO
 62
   144
100
AcDbLine
 10
2410.0
 20
2450.0
 30
0.0
 11
2450.0
 21
2450.0
 31
0.0
  0
SOLID
  5
20E1
330
1F
100
AcDbEntity
  8
SUNPO
 62
   144
100
AcDbTrace
 10
2388.0
 20
2453.666666666666
 30
0.0
 11
2388.0
 21
2446.333333333333
 31
0.0
 12
2410.0
 22
2450.0
 32
0.0
 13
2410.0
 23
2450.0
 33
0.0
  0
SOLID
  5
20E2
330
1F
100
AcDbEntity
  8
SUNPO
 62
   144
100
AcDbTrace
 10
2472.0
 20
2453.666666666666
 30
0.0
 11
2472.0
 21
2446.333333333333
 31
0.0
 12
2450.0
 22
2450.0
 32
0.0
 13
2450.0
 23
2450.0
 33
0.0
  0
LINE
  5
20E3
330
1F
100
AcDbEntity
  8
SUNPO
 62
   144
100
AcDbLine
 10
2250.0
 20
2320.0
 30
0.0
 11
2250.0
 21
2460.0
 31
0.0
  0
LINE
  5
20E4
330
1F
100
AcDbEntity
  8
SUNPO
 62
   144
100
AcDbLine
 10
2410.0
 20
2320.0
 30
0.0
 11
2410.0
 21
2460.0
 31
0.0
  0
LINE
  5
20E5
330
1F
100
AcDbEntity
  8
SUNPO
 62
   144
100
AcDbLine
 10
2272.0
 20
2450.0
 30
0.0
 11
2388.0
 21
2450.0
 31
0.0
  0
SOLID
  5
20E6
330
1F
100
AcDbEntity
  8
SUNPO
 62
   144
100
AcDbTrace
 10
2272.0
 20
2453.666666666666
 30
0.0
 11
2272.0
 21
2446.333333333333
 31
0.0
 12
2250.0
 22
2450.0
 32
0.0
 13
2250.0
 23
2450.0
 33
0.0
  0
SOLID
  5
20E7
330
1F
100
AcDbEntity
  8
SUNPO
 62
   144
100
AcDbTrace
 10
2388.0
 20
2453.666666666666
 30
0.0
 11
2388.0
 21
2446.333333333333
 31
0.0
 12
2410.0
 22
2450.0
 32
0.0
 13
2410.0
 23
2450.0
 33
0.0
  0
TEXT
  5
20E9
330
1F
100
AcDbEntity
  8
SUNPO
100
AcDbText
 10
2087.570525480267
 20
2151.233761417775
 30
0.0
 40
36.0
  1
70
 50
90.0
  7
ADD
100
AcDbText
1001
ACAD
1000
MTEXTBEGIN
1070
    73
1070
     1
1070
    44
1040
1.0
1070
    74
1070
     0
1000
MTEXTEND
1000
MTEXTBEGIN
1070
    73
1070
     1
1070
    44
1040
1.0
1070
    74
1070
     0
1000
MTEXTEND
1000
MTEXTBEGIN
1070
    73
1070
     1
1070
    44
1040
1.0
1070
    74
1070
     0
1000
MTEXTEND
1000
MTEXTBEGIN
1070
    73
1070
     1
1070
    44
1040
1.0
1070
    74
1070
     0
1000
MTEXTEND
  0
SOLID
  5
20EA
330
1F
100
AcDbEntity
  8
SUNPO
100
AcDbTrace
 10
2103.666666666666
 20
2172.0
 30
0.0
 11
2100.0
 21
2150.0
 31
0.0
 12
2096.333333333333
 22
2172.0
 32
0.0
 13
2096.333333333333
 23
2172.0
 33
0.0
1001
ACAD
1000
DSTYLE
1002
{
1070
     5
1000

1070
    40
1040
20.0
1070
    41
1040
1.1
1070
    77
1070
     0
1070
   140
1040
1.8
1070
   141
1040
1.1
1070
   147
1040
0.625
1070
   342
1005
0
1002
}
  0
LINE
  5
20EC
330
1F
100
AcDbEntity
  8
SUNPO
 62
   144
100
AcDbLine
 10
2244.999999999999
 20
2129.999999999998
 30
0.0
 11
2244.999999999999
 21
1990.0
 31
0.0
  0
LINE
  5
20ED
330
1F
100
AcDbEntity
  8
SUNPO
 62
   144
100
AcDbLine
 10
2450.0
 20
2130.0
 30
0.0
 11
2450.0
 21
1990.0
 31
0.0
  0
LINE
  5
20EE
330
1F
100
AcDbEntity
  8
SUNPO
 62
   144
100
AcDbLine
 10
2272.999999999999
 20
2000.0
 30
0.0
 11
2422.0
 21
2000.0
 31
0.0
  0
SOLID
  5
20EF
330
1F
100
AcDbEntity
  8
SUNPO
 62
   144
100
AcDbTrace
 10
2272.999999999999
 20
2004.666666666666
 30
0.0
 11
2272.999999999999
 21
1995.333333333333
 31
0.0
 12
2244.999999999999
 22
2000.0
 32
0.0
 13
2244.999999999999
 23
2000.0
 33
0.0
  0
SOLID
  5
20F0
330
1F
100
AcDbEntity
  8
SUNPO
 62
   144
100
AcDbTrace
 10
2422.0
 20
2004.666666666666
 30
0.0
 11
2422.0
 21
1995.333333333333
 31
0.0
 12
2450.0
 22
2000.0
 32
0.0
 13
2450.0
 23
2000.0
 33
0.0
  0
TEXT
  5
20F2
330
1F
100
AcDbEntity
  8
SUNPO
100
AcDbText
 10
750.0
 20
310.0
 30
0.0
 40
80.0
  1
　（マウンドアップ用）
  7
ADD
100
AcDbText
1001
ACAD
1000
MTEXTBEGIN
1070
    73
1070
     1
1070
    44
1040
1.0
1070
    74
1070
     0
1000
MTEXTEND
1000
MTEXTBEGIN
1070
    73
1070
     1
1070
    44
1040
1.0
1070
    74
1070
     0
1000
MTEXTEND
1000
MTEXTBEGIN
1070
    73
1070
     1
1070
    44
1040
1.0
1070
    74
1070
     0
1000
MTEXTEND
1000
MTEXTBEGIN
1070
    73
1070
     1
1070
    44
1040
1.0
1070
    74
1070
     0
1000
MTEXTEND
1000
MTEXTBEGIN
1070
    73
1070
     1
1070
    44
1040
1.0
1070
    74
1070
     0
1000
MTEXTEND
1000
MTEXTBEGIN
1070
    73
1070
     1
1070
    44
1040
1.0
1070
    74
1070
     0
1000
MTEXTEND
  0
TEXT
  5
20F3
330
1F
100
AcDbEntity
  8
SUNPO
100
AcDbText
 10
2484.761904761905
 20
370.0
 30
0.0
 40
80.0
  1
MD-B2
  7
ADD
100
AcDbText
1001
ACAD
1000
MTEXTBEGIN
1070
    73
1070
     1
1070
    44
1040
1.0
1070
    74
1070
     0
1000
MTEXTEND
1000
MTEXTBEGIN
1070
    73
1070
     1
1070
    44
1040
1.0
1070
    74
1070
     0
1000
MTEXTEND
1000
MTEXTBEGIN
1070
    73
1070
     1
1070
    44
1040
1.0
1070
    74
1070
     0
1000
MTEXTEND
1000
MTEXTBEGIN
1070
    73
1070
     1
1070
    44
1040
1.0
1070
    74
1070
     0
1000
MTEXTEND
1000
MTEXTBEGIN
1070
    73
1070
     1
1070
    44
1040
1.0
1070
    74
1070
     0
1000
MTEXTEND
1000
MTEXTBEGIN
1070
    73
1070
     1
1070
    44
1040
1.0
1070
    74
1070
     0
1000
MTEXTEND
  0
TEXT
  5
20F4
330
1F
100
AcDbEntity
  8
SUNPO
100
AcDbText
 10
750.0
 20
430.0
 30
0.0
 40
80.0
  1
千葉県型歩車道境界ブロック
  7
ADD
100
AcDbText
1001
ACAD
1000
MTEXTBEGIN
1070
    73
1070
     1
1070
    44
1040
1.0
1070
    74
1070
     0
1000
MTEXTEND
1000
MTEXTBEGIN
1070
    73
1070
     1
1070
    44
1040
1.0
1070
    74
1070
     0
1000
MTEXTEND
1000
MTEXTBEGIN
1070
    73
1070
     1
1070
    44
1040
1.0
1070
    74
1070
     0
1000
MTEXTEND
1000
MTEXTBEGIN
1070
    73
1070
     1
1070
    44
1040
1.0
1070
    74
1070
     0
1000
MTEXTEND
1000
MTEXTBEGIN
1070
    73
1070
     1
1070
    44
1040
1.0
1070
    74
1070
     0
1000
MTEXTEND
1000
MTEXTBEGIN
1070
    73
1070
     1
1070
    44
1040
1.0
1070
    74
1070
     0
1000
MTEXTEND
  0
TEXT
  5
20F5
330
1F
100
AcDbEntity
  8
SUNPO
100
AcDbText
 10
3246.680311730542
 20
359.2274732162223
 30
0.0
 40
70.0
  1
１／２０
  7
ADD
100
AcDbText
1001
ACAD
1000
MTEXTBEGIN
1070
    73
1070
     1
1070
    44
1040
1.0
1070
    74
1070
     0
1000
MTEXTEND
1000
MTEXTBEGIN
1070
    73
1070
     1
1070
    44
1040
1.0
1070
    74
1070
     0
1000
MTEXTEND
1000
MTEXTBEGIN
1070
    73
1070
     1
1070
    44
1040
1.0
1070
    74
1070
     0
1000
MTEXTEND
1000
MTEXTBEGIN
1070
    73
1070
     1
1070
    44
1040
1.0
1070
    74
1070
     0
1000
MTEXTEND
1000
MTEXTBEGIN
1070
    73
1070
     1
1070
    44
1040
1.0
1070
    74
1070
     0
1000
MTEXTEND
1000
MTEXTBEGIN
1070
    73
1070
     1
1070
    44
1040
1.0
1070
    74
1070
     0
1000
MTEXTEND
  0
TEXT
  5
20F6
330
1F
100
AcDbEntity
  8
SUNPO
100
AcDbText
 10
381.8862574011546
 20
488.6918916770627
 30
0.0
 40
50.0
  1
製品名
  7
ADD
100
AcDbText
1001
ACAD
1000
MTEXTBEGIN
1070
    73
1070
     1
1070
    44
1040
1.0
1070
    74
1070
     0
1000
MTEXTEND
1000
MTEXTBEGIN
1070
    73
1070
     1
1070
    44
1040
1.0
1070
    74
1070
     0
1000
MTEXTEND
1000
MTEXTBEGIN
1070
    73
1070
     1
1070
    44
1040
1.0
1070
    74
1070
     0
1000
MTEXTEND
1000
MTEXTBEGIN
1070
    73
1070
     1
1070
    44
1040
1.0
1070
    74
1070
     0
1000
MTEXTEND
1000
MTEXTBEGIN
1070
    73
1070
     1
1070
    44
1040
1.0
1070
    74
1070
     0
1000
MTEXTEND
1000
MTEXTBEGIN
1070
    73
1070
     1
1070
    44
1040
1.0
1070
    74
1070
     0
1000
MTEXTEND
  0
TEXT
  5
20F7
330
1F
100
AcDbEntity
  8
SUNPO
100
AcDbText
 10
2376.290169028722
 20
494.4531736811823
 30
0.0
 40
50.0
  1
型式
  7
ADD
100
AcDbText
1001
ACAD
1000
MTEXTBEGIN
1070
    73
1070
     1
1070
    44
1040
1.0
1070
    74
1070
     0
1000
MTEXTEND
1000
MTEXTBEGIN
1070
    73
1070
     1
1070
    44
1040
1.0
1070
    74
1070
     0
1000
MTEXTEND
1000
MTEXTBEGIN
1070
    73
1070
     1
1070
    44
1040
1.0
1070
    74
1070
     0
1000
MTEXTEND
1000
MTEXTBEGIN
1070
    73
1070
     1
1070
    44
1040
1.0
1070
    74
1070
     0
1000
MTEXTEND
1000
MTEXTBEGIN
1070
    73
1070
     1
1070
    44
1040
1.0
1070
    74
1070
     0
1000
MTEXTEND
1000
MTEXTBEGIN
1070
    73
1070
     1
1070
    44
1040
1.0
1070
    74
1070
     0
1000
MTEXTEND
  0
TEXT
  5
20F8
330
1F
100
AcDbEntity
  8
SUNPO
100
AcDbText
 10
3177.510249231658
 20
488.6918916770627
 30
0.0
 40
50.0
  1
縮尺
  7
ADD
100
AcDbText
1001
ACAD
1000
MTEXTBEGIN
1070
    73
1070
     1
1070
    44
1040
1.0
1070
    74
1070
     0
1000
MTEXTEND
1000
MTEXTBEGIN
1070
    73
1070
     1
1070
    44
1040
1.0
1070
    74
1070
     0
1000
MTEXTEND
1000
MTEXTBEGIN
1070
    73
1070
     1
1070
    44
1040
1.0
1070
    74
1070
     0
1000
MTEXTEND
1000
MTEXTBEGIN
1070
    73
1070
     1
1070
    44
1040
1.0
1070
    74
1070
     0
1000
MTEXTEND
1000
MTEXTBEGIN
1070
    73
1070
     1
1070
    44
1040
1.0
1070
    74
1070
     0
1000
MTEXTEND
1000
MTEXTBEGIN
1070
    73
1070
     1
1070
    44
1040
1.0
1070
    74
1070
     0
1000
MTEXTEND
  0
TEXT
  5
20F9
330
1F
100
AcDbEntity
  8
SUNPO
100
AcDbText
 10
3730.870883051572
 20
352.2726133092145
 30
0.0
 40
100.0
  1
千葉県コンクリート製品協同組合
  7
ADD
100
AcDbText
1001
ACAD
1000
MTEXTBEGIN
1070
    73
1070
     1
1070
    44
1040
1.0
1070
    74
1070
     0
1000
MTEXTEND
1000
MTEXTBEGIN
1070
    73
1070
     1
1070
    44
1040
1.0
1070
    74
1070
     0
1000
MTEXTEND
1000
MTEXTBEGIN
1070
    73
1070
     1
1070
    44
1040
1.0
1070
    74
1070
     0
1000
MTEXTEND
1000
MTEXTBEGIN
1070
    73
1070
     1
1070
    44
1040
1.0
1070
    74
1070
     0
1000
MTEXTEND
1000
MTEXTBEGIN
1070
    73
1070
     1
1070
    44
1040
1.0
1070
    74
1070
     0
1000
MTEXTEND
1000
MTEXTBEGIN
1070
    73
1070
     1
1070
    44
1040
1.0
1070
    74
1070
     0
1000
MTEXTEND
  0
LINE
  5
20FA
330
1F
100
AcDbEntity
  8
3C1
100
AcDbLine
 10
360.0
 20
260.0
 30
0.0
 11
5580.0
 21
260.0
 31
0.0
  0
LINE
  5
20FB
330
1F
100
AcDbEntity
  8
3C1
100
AcDbLine
 10
5580.0
 20
260.0
 30
0.0
 11
5580.0
 21
3940.0
 31
0.0
  0
LINE
  5
20FC
330
1F
100
AcDbEntity
  8
3C1
100
AcDbLine
 10
5580.0
 20
3940.0
 30
0.0
 11
360.0
 21
3940.0
 31
0.0
  0
LINE
  5
20FD
330
1F
100
AcDbEntity
  8
3C1
100
AcDbLine
 10
360.0
 20
3940.0
 30
0.0
 11
360.0
 21
260.0
 31
0.0
  0
LINE
  5
20FE
330
1F
100
AcDbEntity
  8
HOJO
100
AcDbLine
 10
0.0
 20
0.0
 30
0.0
 11
5940.0
 21
0.0
 31
0.0
  0
LINE
  5
20FF
330
1F
100
AcDbEntity
  8
HOJO
100
AcDbLine
 10
5940.0
 20
0.0
 30
0.0
 11
5940.0
 21
4200.0
 31
0.0
  0
LINE
  5
2100
330
1F
100
AcDbEntity
  8
HOJO
100
AcDbLine
 10
5940.0
 20
4200.0
 30
0.0
 11
0.0
 21
4200.0
 31
0.0
  0
LINE
  5
2101
330
1F
100
AcDbEntity
  8
HOJO
100
AcDbLine
 10
0.0
 20
4200.0
 30
0.0
 11
0.0
 21
0.0
 31
0.0
  0
TEXT
  5
2102
330
1F
100
AcDbEntity
  8
SUNPO
 62
     7
100
AcDbText
 10
2296.071428571428
 20
2012.5
 30
0.0
 40
36.0
  1
205
  7
ADD
100
AcDbText
1001
ACAD
1000
MTEXTBEGIN
1070
    73
1070
     1
1070
    44
1040
1.0
1070
    74
1070
     0
1000
MTEXTEND
1000
MTEXTBEGIN
1070
    73
1070
     1
1070
    44
1040
1.0
1070
    74
1070
     0
1000
MTEXTEND
1000
MTEXTBEGIN
1070
    73
1070
     1
1070
    44
1040
1.0
1070
    74
1070
     0
1000
MTEXTEND
1000
MTEXTBEGIN
1070
    73
1070
     1
1070
    44
1040
1.0
1070
    74
1070
     0
1000
MTEXTEND
1000
MTEXTBEGIN
1070
    73
1070
     1
1070
    44
1040
1.0
1070
    74
1070
     0
1000
MTEXTEND
  0
LINE
  5
2103
330
1F
100
AcDbEntity
  8
SUNPO
100
AcDbLine
 10
2100.0
 20
2172.0
 30
0.0
 11
2100.0
 21
2195.0
 31
0.0
1001
ACAD
1000
DSTYLE
1002
{
1070
     5
1000

1070
    40
1040
20.0
1070
    41
1040
1.1
1070
    77
1070
     0
1070
   140
1040
1.8
1070
   141
1040
1.1
1070
   147
1040
0.625
1070
   342
1005
0
1002
}
  0
TEXT
  5
2104
330
1F
100
AcDbEntity
  8
SUNPO
 62
     7
100
AcDbText
 10
2276.0
 20
2462.5
 30
0.0
 40
36.0
  1
160
  7
ADD
100
AcDbText
1001
ACAD
1000
MTEXTBEGIN
1070
    73
1070
     1
1070
    44
1040
1.0
1070
    74
1070
     0
1000
MTEXTEND
1000
MTEXTBEGIN
1070
    73
1070
     1
1070
    44
1040
1.0
1070
    74
1070
     0
1000
MTEXTEND
1000
MTEXTBEGIN
1070
    73
1070
     1
1070
    44
1040
1.0
1070
    74
1070
     0
1000
MTEXTEND
  0
TEXT
  5
2105
330
1F
100
AcDbEntity
  8
SUNPO
 62
     7
100
AcDbText
 10
2465.714285714285
 20
2462.0
 30
0.0
 40
36.0
  1
40
  7
ADD
100
AcDbText
1001
ACAD
1000
MTEXTBEGIN
1070
    73
1070
     1
1070
    44
1040
1.0
1070
    74
1070
     0
1000
MTEXTEND
1000
MTEXTBEGIN
1070
    73
1070
     1
1070
    44
1040
1.0
1070
    74
1070
     0
1000
MTEXTEND
1000
MTEXTBEGIN
1070
    73
1070
     1
1070
    44
1040
1.0
1070
    74
1070
     0
1000
MTEXTEND
  0
TEXT
  5
2106
330
1F
100
AcDbEntity
  8
SUNPO
 62
     7
100
AcDbText
 10
2587.499999999999
 20
2171.0
 30
0.0
 40
36.0
  1
150
 50
90.0
  7
ADD
100
AcDbText
1001
ACAD
1000
MTEXTBEGIN
1070
    73
1070
     1
1070
    44
1040
1.0
1070
    74
1070
     0
1000
MTEXTEND
1000
MTEXTBEGIN
1070
    73
1070
     1
1070
    44
1040
1.0
1070
    74
1070
     0
1000
MTEXTEND
1000
MTEXTBEGIN
1070
    73
1070
     1
1070
    44
1040
1.0
1070
    74
1070
     0
1000
MTEXTEND
  0
LINE
  5
2107
330
1F
100
AcDbEntity
  8
SUNPO
100
AcDbLine
 10
2100.0
 20
2242.0
 30
0.0
 11
2100.0
 21
2265.0
 31
0.0
1001
ACAD
1000
DSTYLE
1002
{
1070
     5
1000

1070
    40
1040
20.0
1070
    41
1040
1.1
1070
    77
1070
     0
1070
   140
1040
1.8
1070
   141
1040
1.1
1070
   147
1040
0.625
1070
   342
1005
0
1002
}
  0
LINE
  5
2108
330
1F
100
AcDbEntity
  8
SUNPO
100
AcDbLine
 10
2100.0
 20
2198.0
 30
0.0
 11
2100.0
 21
2175.0
 31
0.0
1001
ACAD
1000
DSTYLE
1002
{
1070
     5
1000

1070
    40
1040
20.0
1070
    41
1040
1.1
1070
    77
1070
     0
1070
   140
1040
1.8
1070
   141
1040
1.1
1070
   147
1040
0.625
1070
   342
1005
0
1002
}
  0
LINE
  5
2109
330
1F
100
AcDbEntity
  8
SUNPO
100
AcDbLine
 10
2100.0
 20
2278.0
 30
0.0
 11
2100.0
 21
2255.0
 31
0.0
1001
ACAD
1000
DSTYLE
1002
{
1070
     5
1000

1070
    40
1040
20.0
1070
    41
1040
1.1
1070
    77
1070
     0
1070
   140
1040
1.8
1070
   141
1040
1.1
1070
   147
1040
0.625
1070
   342
1005
0
1002
}
  0
TEXT
  5
210A
330
1F
100
AcDbEntity
  8
SUNPO
 62
     7
100
AcDbText
 10
2131.420132737204
 20
2314.972319747015
 30
0.0
 40
36.0
  1
R30
 50
326.0671331870223
  7
ADD
100
AcDbText
1001
ACAD
1000
MTEXTBEGIN
1070
    73
1070
     1
1070
    44
1040
1.0
1070
    74
1070
     0
1000
MTEXTEND
1000
MTEXTBEGIN
1070
    73
1070
     1
1070
    44
1040
1.0
1070
    74
1070
     0
1000
MTEXTEND
1000
MTEXTBEGIN
1070
    73
1070
     1
1070
    44
1040
1.0
1070
    74
1070
     0
1000
MTEXTEND
  0
TEXT
  5
210B
330
1F
100
AcDbEntity
  8
SUNPO
 62
     7
100
AcDbText
 10
3397.714285714286
 20
2012.5
 30
0.0
 40
36.0
  1
600
  7
ADD
100
AcDbText
1001
ACAD
1000
MTEXTBEGIN
1070
    73
1070
     1
1070
    44
1040
1.0
1070
    74
1070
     0
1000
MTEXTEND
1000
MTEXTBEGIN
1070
    73
1070
     1
1070
    44
1040
1.0
1070
    74
1070
     0
1000
MTEXTEND
1000
MTEXTBEGIN
1070
    73
1070
     1
1070
    44
1040
1.0
1070
    74
1070
     0
1000
MTEXTEND
  0
TEXT
  5
210C
330
1F
100
AcDbEntity
  8
SUNPO
 62
     7
100
AcDbText
 10
3398.571428571429
 20
2462.5
 30
0.0
 40
36.0
  1
496
  7
ADD
100
AcDbText
1001
ACAD
1000
MTEXTBEGIN
1070
    73
1070
     1
1070
    44
1040
1.0
1070
    74
1070
     0
1000
MTEXTEND
1000
MTEXTBEGIN
1070
    73
1070
     1
1070
    44
1040
1.0
1070
    74
1070
     0
1000
MTEXTEND
1000
MTEXTBEGIN
1070
    73
1070
     1
1070
    44
1040
1.0
1070
    74
1070
     0
1000
MTEXTEND
  0
LINE
  5
210D
330
1F
100
AcDbEntity
  8
SUNPO
100
AcDbLine
 10
3128.0
 20
2450.0
 30
0.0
 11
3100.0
 21
2450.0
 31
0.0
1001
ACAD
1000
DSTYLE
1002
{
1070
     5
1000

1070
    40
1040
20.0
1070
    41
1040
1.1
1070
    77
1070
     0
1070
   140
1040
1.8
1070
   141
1040
1.1
1070
   147
1040
0.625
1070
   342
1005
0
1002
}
  0
LINE
  5
210E
330
1F
100
AcDbEntity
  8
SUNPO
100
AcDbLine
 10
3772.0
 20
2450.0
 30
0.0
 11
3800.0
 21
2450.0
 31
0.0
1001
ACAD
1000
DSTYLE
1002
{
1070
     5
1000

1070
    40
1040
20.0
1070
    41
1040
1.1
1070
    77
1070
     0
1070
   140
1040
1.8
1070
   141
1040
1.1
1070
   147
1040
0.625
1070
   342
1005
0
1002
}
  0
LINE
  5
210F
330
1F
100
AcDbEntity
  8
SUNPO
100
AcDbLine
 10
2138.375663546204
 20
1285.332022143477
 30
0.0
 11
2172.3535245461
 21
1302.346867481351
 31
0.0
1001
ACAD
1000
DSTYLE
1002
{
1070
     5
1000

1070
    40
1040
20.0
1070
    41
1040
1.1
1070
    77
1070
     0
1070
   140
1040
1.8
1070
   141
1040
1.1
1070
   147
1040
0.625
1070
   342
1005
0
1002
}
  0
LINE
  5
2110
330
1F
100
AcDbEntity
  8
SUNPO
100
AcDbLine
 10
2209.908002493354
 20
1321.152749170579
 30
0.0
 11
2234.944321124856
 21
1333.690003630064
 31
0.0
1001
ACAD
1000
DSTYLE
1002
{
1070
     5
1000

1070
    40
1040
20.0
1070
    41
1040
1.1
1070
    77
1070
     0
1070
   140
1040
1.8
1070
   141
1040
1.1
1070
   147
1040
0.625
1070
   342
1005
0
1002
}
  0
LINE
  5
2111
330
1F
100
AcDbEntity
  8
SUNPO
100
AcDbLine
 10
2317.206510914079
 20
1374.883839711231
 30
0.0
 11
2351.184371913974
 21
1391.898685049104
 31
0.0
1001
ACAD
1000
DSTYLE
1002
{
1070
     5
1000

1070
    40
1040
20.0
1070
    41
1040
1.1
1070
    77
1070
     0
1070
   140
1040
1.8
1070
   141
1040
1.1
1070
   147
1040
0.625
1070
   342
1005
0
1002
}
  0
LINE
  5
2112
330
1F
100
AcDbEntity
  8
SUNPO
100
AcDbLine
 10
2388.738849861228
 20
1410.704566738333
 30
0.0
 11
2413.77516849273
 21
1423.241821197819
 31
0.0
1001
ACAD
1000
DSTYLE
1002
{
1070
     5
1000

1070
    40
1040
20.0
1070
    41
1040
1.1
1070
    77
1070
     0
1070
   140
1040
1.8
1070
   141
1040
1.1
1070
   147
1040
0.625
1070
   342
1005
0
1002
}
  0
LINE
  5
2113
330
1F
100
AcDbEntity
  8
SUNPO
100
AcDbLine
 10
2496.037358281952
 20
1464.435657278986
 30
0.0
 11
2530.015219281847
 21
1481.450502616858
 31
0.0
1001
ACAD
1000
DSTYLE
1002
{
1070
     5
1000

1070
    40
1040
20.0
1070
    41
1040
1.1
1070
    77
1070
     0
1070
   140
1040
1.8
1070
   141
1040
1.1
1070
   147
1040
0.625
1070
   342
1005
0
1002
}
  0
LINE
  5
2114
330
1F
100
AcDbEntity
  8
SUNPO
100
AcDbLine
 10
2510.343826071381
 20
1471.599802684406
 30
0.0
 11
2476.365965071486
 21
1454.584957346533
 31
0.0
1001
ACAD
1000
DSTYLE
1002
{
1070
     5
1000

1070
    40
1040
20.0
1070
    41
1040
1.1
1070
    77
1070
     0
1070
   140
1040
1.8
1070
   141
1040
1.1
1070
   147
1040
0.625
1070
   342
1005
0
1002
}
  0
LINE
  5
2115
330
1F
100
AcDbEntity
  8
SUNPO
100
AcDbLine
 10
2152.682131335634
 20
1292.496167548898
 30
0.0
 11
2118.704270335738
 21
1275.481322211024
 31
0.0
1001
ACAD
1000
DSTYLE
1002
{
1070
     5
1000

1070
    40
1040
20.0
1070
    41
1040
1.1
1070
    77
1070
     0
1070
   140
1040
1.8
1070
   141
1040
1.1
1070
   147
1040
0.625
1070
   342
1005
0
1002
}
  0
LINE
  5
2116
330
1F
100
AcDbEntity
  8
SUNPO
100
AcDbLine
 10
2259.980639756358
 20
1346.22725808955
 30
0.0
 11
2234.944321124856
 21
1333.690003630064
 31
0.0
1001
ACAD
1000
DSTYLE
1002
{
1070
     5
1000

1070
    40
1040
20.0
1070
    41
1040
1.1
1070
    77
1070
     0
1070
   140
1040
1.8
1070
   141
1040
1.1
1070
   147
1040
0.625
1070
   342
1005
0
1002
}
  0
LINE
  5
2117
330
1F
100
AcDbEntity
  8
SUNPO
100
AcDbLine
 10
2331.512978703508
 20
1382.047985116651
 30
0.0
 11
2297.535117703612
 21
1365.033139778778
 31
0.0
1001
ACAD
1000
DSTYLE
1002
{
1070
     5
1000

1070
    40
1040
20.0
1070
    41
1040
1.1
1070
    77
1070
     0
1070
   140
1040
1.8
1070
   141
1040
1.1
1070
   147
1040
0.625
1070
   342
1005
0
1002
}
  0
LINE
  5
2118
330
1F
100
AcDbEntity
  8
SUNPO
100
AcDbLine
 10
2438.811487124231
 20
1435.779075657304
 30
0.0
 11
2413.77516849273
 21
1423.241821197819
 31
0.0
1001
ACAD
1000
DSTYLE
1002
{
1070
     5
1000

1070
    40
1040
20.0
1070
    41
1040
1.1
1070
    77
1070
     0
1070
   140
1040
1.8
1070
   141
1040
1.1
1070
   147
1040
0.625
1070
   342
1005
0
1002
}
  0
LINE
  5
2119
330
1F
100
AcDbEntity
  8
SUNPO
100
AcDbLine
 10
2081.149792388484
 20
1256.675440521796
 30
0.0
 11
2056.113473756982
 21
1244.138186062311
 31
0.0
1001
ACAD
1000
DSTYLE
1002
{
1070
     5
1000

1070
    40
1040
20.0
1070
    41
1040
1.1
1070
    77
1070
     0
1070
   140
1040
1.8
1070
   141
1040
1.1
1070
   147
1040
0.625
1070
   342
1005
0
1002
}
  0
LINE
  5
211A
330
1F
100
AcDbEntity
  8
SUNPO
100
AcDbLine
 10
2567.569697229101
 20
1500.256384306087
 30
0.0
 11
2592.606015860604
 21
1512.793638765572
 31
0.0
1001
ACAD
1000
DSTYLE
1002
{
1070
     5
1000

1070
    40
1040
20.0
1070
    41
1040
1.1
1070
    77
1070
     0
1070
   140
1040
1.8
1070
   141
1040
1.1
1070
   147
1040
0.625
1070
   342
1005
0
1002
}
  0
VIEWPORT
  5
72
330
1B
100
AcDbEntity
 67
     1
  8
0
100
AcDbViewport
 10
645.8325449029127
 20
277.0
 30
0.0
 40
1380.967339805825
 41
628.4520000000001
 68
     2
 69
     1
1001
ACAD
1000
MVIEW
1002
{
1070
    16
1010
0.0
1020
0.0
1030
0.0
1010
0.0
1020
0.0
1030
1.0
1040
0.0
1040
628.4520000000001
1040
645.8325449029127
1040
277.0
1040
50.0
1040
0.0
1040
0.0
1070
     0
1070
   100
1070
     1
1070
     1
1070
     0
1070
     0
1070
     0
1070
     0
1040
0.0
1040
0.0
1040
0.0
1040
10.0
1040
10.0
1040
10.0
1040
10.0
1070
     0
1002
{
1002
}
1002
}
  0
VIEWPORT
  5
74
330
1B
100
AcDbEntity
 67
     1
  8
VIEWPORT
100
AcDbViewport
 10
414.3779638919211
 20
277.3177265058034
 30
0.0
 40
840.0353682728887
 41
567.2285469943826
 68
     1
 69
     2
1001
ACAD
1000
MVIEW
1002
{
1070
    16
1010
0.0
1020
0.0
1030
0.0
1010
0.0
1020
0.0
1030
1.0
1040
0.0
1040
579.5583043546323
1040
424.4938908624541
1040
286.1973242720074
1040
50.0
1040
0.0
1040
0.0
1070
     0
1070
   100
1070
     1
1070
     1
1070
     0
1070
     0
1070
     0
1070
     0
1040
0.0
1040
0.0
1040
0.0
1040
10.0
1040
10.0
1040
10.0
1040
10.0
1070
     0
1002
{
1002
}
1002
}
  0
ENDSEC
  0
SECTION
  2
OBJECTS
  0
DICTIONARY
  5
C
330
0
100
AcDbDictionary
  3
ACAD_GROUP
350
D
  3
ACAD_LAYOUT
350
1A
  3
ACAD_MLINESTYLE
350
17
  3
ACAD_PLOTSETTINGS
350
19
  3
ACADDIM
350
1E7F
  3
DWGPROPS
350
4C7
1001
ACAD
1000
TREAT_AS_HARD
1070
     0
  0
DICTIONARY
  5
17F6
330
1F
100
AcDbDictionary
  3
ACAD_LAYOUTSELFREF
350
211D
1001
ACAD
1000
TREAT_AS_HARD
1070
     1
  0
DICTIONARY
  5
17F8
330
1B
100
AcDbDictionary
  3
ACAD_LAYOUTSELFREF
350
211C
1001
ACAD
1000
TREAT_AS_HARD
1070
     1
  0
DICTIONARY
  5
D
102
{ACAD_REACTORS
330
C
102
}
330
C
100
AcDbDictionary
1001
ACAD
1000
TREAT_AS_HARD
1070
     0
  0
DICTIONARY
  5
1A
102
{ACAD_REACTORS
330
C
102
}
330
C
100
AcDbDictionary
1001
ACAD
1000
TREAT_AS_HARD
1070
     0
  0
DICTIONARY
  5
17
102
{ACAD_REACTORS
330
C
102
}
330
C
100
AcDbDictionary
  3
STANDARD
350
18
1001
ACAD
1000
TREAT_AS_HARD
1070
     0
  0
DICTIONARY
  5
19
102
{ACAD_REACTORS
330
C
102
}
330
C
100
AcDbDictionary
1001
ACAD
1000
TREAT_AS_HARD
1070
     0
  0
XRECORD
  5
1E7F
102
{ACAD_REACTORS
330
C
102
}
330
C
100
AcDbXrecord
 90
   990106
  3

 60
     0
 61
     0
 62
     1
 63
     3
 64
     0
 65
     0
 66
     0
 67
     3
 68
     1
 69
     0
 70
     0
 71
     0
 72
     0
 40
0.0
170
     0
  0
XRECORD
  5
4C7
102
{ACAD_REACTORS
330
C
102
}
330
C
100
AcDbXrecord
  1
DWGPROPS COOKIE
  2
印刷用テスト
  3
AutoCAD2000による建築設計
  4
鈴木 裕二
  6

  7

  8
U2
  9

300
=
301
=
302
=
303
=
304
=
305
=
306
=
307
=
308
=
309
=
 40
0.7653446875
 41
2451285.4846114
 42
2451333.689743032
  1

 90
        0
  0
XRECORD
  5
211D
102
{ACAD_REACTORS
330
17F6
102
}
330
17F6
100
AcDbXrecord
340
1F
  0
XRECORD
  5
211C
102
{ACAD_REACTORS
330
17F8
102
}
330
17F8
100
AcDbXrecord
340
1B
  0
MLINESTYLE
  5
18
102
{ACAD_REACTORS
330
17
102
}
330
17
100
AcDbMlineStyle
  2
STANDARD
 70
     0
  3

 62
   256
 51
90.0
 52
90.0
 71
     2
 49
0.5
 62
   256
  6
BYLAYER
 49
-0.5
 62
   256
  6
BYLAYER
  0
ENDSEC
  0
EOF
