  0
SECTION
  2
HEADER
  9
$ACADVER
  1
AC1012
  9
$DWGCODEPAGE
  3
dos932
  9
$INSBASE
 10
0.0
 20
0.0
 30
0.0
  9
$EXTMIN
 10
0.0
 20
0.0
 30
0.0
  9
$EXTMAX
 10
5940.0
 20
4200.0
 30
0.0
  9
$LIMMIN
 10
0.0
 20
0.0
  9
$LIMMAX
 10
5940.0
 20
4200.0
  9
$ORTHOMODE
 70
     0
  9
$REGENMODE
 70
     1
  9
$FILLMODE
 70
     1
  9
$QTEXTMODE
 70
     0
  9
$MIRRTEXT
 70
     0
  9
$DRAGMODE
 70
     2
  9
$LTSCALE
 40
10.0
  9
$OSMODE
 70
    37
  9
$ATTMODE
 70
     1
  9
$TEXTSIZE
 40
50.0
  9
$TRACEWID
 40
1.0
  9
$TEXTSTYLE
  7
ADD
  9
$CLAYER
  8
KIJUN
  9
$CELTYPE
  6
BYLAYER
  9
$CECOLOR
 62
   256
  9
$CELTSCALE
 40
1.0
  9
$DELOBJ
 70
     1
  9
$DISPSILH
 70
     0
  9
$DIMSCALE
 40
20.0
  9
$DIMASZ
 40
2.5
  9
$DIMEXO
 40
1.0
  9
$DIMDLI
 40
7.0
  9
$DIMRND
 40
0.0
  9
$DIMDLE
 40
0.0
  9
$DIMEXE
 40
0.5
  9
$DIMTP
 40
0.0
  9
$DIMTM
 40
0.0
  9
$DIMTXT
 40
2.5
  9
$DIMCEN
 40
2.5
  9
$DIMTSZ
 40
0.0
  9
$DIMTOL
 70
     0
  9
$DIMLIM
 70
     0
  9
$DIMTIH
 70
     0
  9
$DIMTOH
 70
     0
  9
$DIMSE1
 70
     0
  9
$DIMSE2
 70
     0
  9
$DIMTAD
 70
     1
  9
$DIMZIN
 70
     8
  9
$DIMBLK
  1

  9
$DIMASO
 70
     1
  9
$DIMSHO
 70
     1
  9
$DIMPOST
  1

  9
$DIMAPOST
  1

  9
$DIMALT
 70
     0
  9
$DIMALTD
 70
     3
  9
$DIMALTF
 40
0.03937007874016
  9
$DIMLFAC
 40
1.0
  9
$DIMTOFL
 70
     1
  9
$DIMTVP
 40
0.7
  9
$DIMTIX
 70
     1
  9
$DIMSOXD
 70
     0
  9
$DIMSAH
 70
     0
  9
$DIMBLK1
  1

  9
$DIMBLK2
  1

  9
$DIMSTYLE
  2
ADD
  9
$DIMCLRD
 70
   144
  9
$DIMCLRE
 70
   144
  9
$DIMCLRT
 70
     7
  9
$DIMTFAC
 40
1.0
  9
$DIMGAP
 40
0.625
  9
$DIMJUST
 70
     0
  9
$DIMSD1
 70
     0
  9
$DIMSD2
 70
     0
  9
$DIMTOLJ
 70
     2
  9
$DIMTZIN
 70
     8
  9
$DIMALTZ
 70
     0
  9
$DIMALTTZ
 70
     0
  9
$DIMFIT
 70
     5
  9
$DIMUPT
 70
     0
  9
$DIMUNIT
 70
     2
  9
$DIMDEC
 70
     1
  9
$DIMTDEC
 70
     1
  9
$DIMALTU
 70
     2
  9
$DIMALTTD
 70
     3
  9
$DIMTXSTY
  7
ADD
  9
$DIMAUNIT
 70
     0
  9
$LUNITS
 70
     2
  9
$LUPREC
 70
     4
  9
$SKETCHINC
 40
1.0
  9
$FILLETRAD
 40
30.0
  9
$AUNITS
 70
     0
  9
$AUPREC
 70
     1
  9
$MENU
  1
.
  9
$ELEVATION
 40
0.0
  9
$PELEVATION
 40
0.0
  9
$THICKNESS
 40
0.0
  9
$LIMCHECK
 70
     0
  9
$BLIPMODE
 70
     0
  9
$CHAMFERA
 40
10.0
  9
$CHAMFERB
 40
10.0
  9
$CHAMFERC
 40
20.0
  9
$CHAMFERD
 40
0.0
  9
$SKPOLY
 70
     0
  9
$TDCREATE
 40
2451801.142532870
  9
$TDUPDATE
 40
2452538.586734768
  9
$TDINDWG
 40
0.0815547917
  9
$TDUSRTIMER
 40
0.0815547917
  9
$USRTIMER
 70
     1
  9
$ANGBASE
 50
0.0
  9
$ANGDIR
 70
     0
  9
$PDMODE
 70
     0
  9
$PDSIZE
 40
0.0
  9
$PLINEWID
 40
0.0
  9
$COORDS
 70
     1
  9
$SPLFRAME
 70
     0
  9
$SPLINETYPE
 70
     6
  9
$SPLINESEGS
 70
     8
  9
$ATTDIA
 70
     0
  9
$ATTREQ
 70
     1
  9
$HANDLING
 70
 22529
  9
$HANDSEED
  5
82D
  9
$SURFTAB1
 70
     6
  9
$SURFTAB2
 70
     6
  9
$SURFTYPE
 70
     6
  9
$SURFU
 70
     6
  9
$SURFV
 70
     6
  9
$UCSNAME
  2

  9
$UCSORG
 10
0.0
 20
0.0
 30
0.0
  9
$UCSXDIR
 10
1.0
 20
0.0
 30
0.0
  9
$UCSYDIR
 10
0.0
 20
1.0
 30
0.0
  9
$PUCSNAME
  2

  9
$PUCSORG
 10
0.0
 20
0.0
 30
0.0
  9
$PUCSXDIR
 10
1.0
 20
0.0
 30
0.0
  9
$PUCSYDIR
 10
0.0
 20
1.0
 30
0.0
  9
$USERI1
 70
     0
  9
$USERI2
 70
     0
  9
$USERI3
 70
     0
  9
$USERI4
 70
     0
  9
$USERI5
 70
     0
  9
$USERR1
 40
841.0
  9
$USERR2
 40
594.0
  9
$USERR3
 40
1.0
  9
$USERR4
 40
0.0
  9
$USERR5
 40
0.0
  9
$WORLDVIEW
 70
     1
  9
$SHADEDGE
 70
     3
  9
$SHADEDIF
 70
    70
  9
$TILEMODE
 70
     1
  9
$MAXACTVP
 70
    64
  9
$PINSBASE
 10
0.0
 20
0.0
 30
0.0
  9
$PLIMCHECK
 70
     0
  9
$PEXTMIN
 10
-5.662975978526674
 20
-6.331907780761866
 30
-0.0015258207003583
  9
$PEXTMAX
 10
834.4213426047982
 20
560.9663709967471
 30
0.0000000349246037
  9
$PLIMMIN
 10
-7.500000000000001
 20
-20.0
  9
$PLIMMAX
 10
833.5000000000002
 20
574.0000000000001
  9
$UNITMODE
 70
     0
  9
$VISRETAIN
 70
     1
  9
$PLINEGEN
 70
     0
  9
$PSLTSCALE
 70
     1
  9
$TREEDEPTH
 70
  3020
  9
$PICKSTYLE
 70
     1
  9
$CMLSTYLE
  2
STANDARD
  9
$CMLJUST
 70
     0
  9
$CMLSCALE
 40
20.0
  9
$SAVEIMAGES
 70
     1
  0
ENDSEC
  0
SECTION
  2
CLASSES
  0
CLASS
  1
ACDBDICTIONARYWDFLT
  2
AcDbDictionaryWithDefault
  3
AutoCAD 2000
 90
    32768
280
     0
281
     0
  0
CLASS
  1
ACDBPLACEHOLDER
  2
AcDbPlaceHolder
  3
AutoCAD 2000
 90
    32768
280
     0
281
     0
  0
CLASS
  1
LAYOUT
  2
AcDbLayout
  3
AutoCAD 2000
 90
    32768
280
     0
281
     0
  0
CLASS
  1
RTEXT
  2
RText
  3
RText|AutoCAD Express Tool|expresstools@autodesk.com
 90
    32768
280
     0
281
     1
  0
CLASS
  1
DICTIONARYVAR
  2
AcDbDictionaryVar
  3
AutoCAD 2000
 90
    32768
280
     0
281
     0
  0
CLASS
  1
LONG_TRANSACTION
  2
AcDbLongTransaction
  3
AutoCAD 2000
 90
    32768
280
     0
281
     0
  0
CLASS
  1
LWPOLYLINE
  2
AcDbPolyline
  3
AutoCAD 2000
 90
    32768
280
     0
281
     1
  0
CLASS
  1
HATCH
  2
AcDbHatch
  3
AutoCAD 2000
 90
    32768
280
     0
281
     1
  0
CLASS
  1
XRECORD
  2
AcDbXrecord
  3
AutoCAD 2000
 90
    32768
280
     0
281
     0
  0
ENDSEC
  0
SECTION
  2
TABLES
  0
TABLE
  2
VPORT
  5
8
330
0
100
AcDbSymbolTable
 70
     3
  0
VPORT
  5
81B
330
8
100
AcDbSymbolTableRecord
100
AcDbViewportTableRecord
  2
*ACTIVE
 70
     0
 10
0.0
 20
0.0
 11
1.0
 21
1.0
 12
3244.664148159851
 22
2100.000009778887
 13
0.0
 23
0.0
 14
10.0
 24
10.0
 15
10.0
 25
10.0
 16
0.0
 26
0.0
 36
1.0
 17
0.0
 27
0.0
 37
0.0
 40
4233.242654051757
 41
1.68808777429467
 42
50.0
 43
0.0
 44
0.0
 50
0.0
 51
0.0
 71
     0
 72
   100
 73
     1
 74
     1
 75
     0
 76
     0
 77
     0
 78
     0
  0
ENDTAB
  0
TABLE
  2
LTYPE
  5
5
330
0
100
AcDbSymbolTable
 70
     5
  0
LTYPE
  5
14
330
5
100
AcDbSymbolTableRecord
100
AcDbLinetypeTableRecord
  2
BYBLOCK
 70
     0
  3

 72
    65
 73
     0
 40
0.0
  0
LTYPE
  5
15
330
5
100
AcDbSymbolTableRecord
100
AcDbLinetypeTableRecord
  2
BYLAYER
 70
     0
  3

 72
    65
 73
     0
 40
0.0
  0
LTYPE
  5
16
330
5
100
AcDbSymbolTableRecord
100
AcDbLinetypeTableRecord
  2
CONTINUOUS
 70
     0
  3
Solid line
 72
    65
 73
     0
 40
0.0
  0
LTYPE
  5
555
330
5
100
AcDbSymbolTableRecord
100
AcDbLinetypeTableRecord
  2
CENTER
 70
     0
  3
Center ____ _ ____ _ ____ _ ____ _ ____ _ ____
 72
    65
 73
     4
 40
50.8
 49
31.75
 74
     0
 49
-6.349999999999999
 74
     0
 49
6.349999999999999
 74
     0
 49
-6.349999999999999
 74
     0
  0
LTYPE
  5
556
330
5
100
AcDbSymbolTableRecord
100
AcDbLinetypeTableRecord
  2
HIDDEN
 70
     0
  3
Hidden __ __ __ __ __ __ __ __ __ __ __ __ __ _
 72
    65
 73
     2
 40
9.524999999999998
 49
6.349999999999999
 74
     0
 49
-3.174999999999999
 74
     0
  0
LTYPE
  5
557
330
5
100
AcDbSymbolTableRecord
100
AcDbLinetypeTableRecord
  2
HIDDEN2
 70
     0
  3
Hidden (.5x) _ _ _ _ _ _ _ _ _ _ _ _ _ _ _ _ _
 72
    65
 73
     2
 40
4.762499999999999
 49
3.174999999999999
 74
     0
 49
-1.587499999999999
 74
     0
  0
LTYPE
  5
558
330
5
100
AcDbSymbolTableRecord
100
AcDbLinetypeTableRecord
  2
PHANTOM
 70
     0
  3
Phantom ______  __  __  ______  __  __  ______
 72
    65
 73
     6
 40
63.5
 49
31.75
 74
     0
 49
-6.349999999999999
 74
     0
 49
6.349999999999999
 74
     0
 49
-6.349999999999999
 74
     0
 49
6.349999999999999
 74
     0
 49
-6.349999999999999
 74
     0
  0
ENDTAB
  0
TABLE
  2
LAYER
  5
2
330
0
100
AcDbSymbolTable
 70
    22
  0
LAYER
  5
10
330
2
100
AcDbSymbolTableRecord
100
AcDbLayerTableRecord
  2
0
 70
     0
 62
     7
  6
CONTINUOUS
  0
LAYER
  5
75
330
2
100
AcDbSymbolTableRecord
100
AcDbLayerTableRecord
  2
VIEWPORT
 70
     0
 62
     1
  6
CONTINUOUS
  0
LAYER
  5
504
330
2
100
AcDbSymbolTableRecord
100
AcDbLayerTableRecord
  2
DEFPOINTS
 70
     0
 62
     7
  6
CONTINUOUS
  0
LAYER
  5
505
330
2
100
AcDbSymbolTableRecord
100
AcDbLayerTableRecord
  2
1C1
 70
     0
 62
   254
  6
CONTINUOUS
  0
LAYER
  5
506
330
2
100
AcDbSymbolTableRecord
100
AcDbLayerTableRecord
  2
1C2
 70
     0
 62
   254
  6
CONTINUOUS
  0
LAYER
  5
507
330
2
100
AcDbSymbolTableRecord
100
AcDbLayerTableRecord
  2
2C1
 70
     0
 62
   144
  6
CONTINUOUS
  0
LAYER
  5
508
330
2
100
AcDbSymbolTableRecord
100
AcDbLayerTableRecord
  2
2C2
 70
     0
 62
   144
  6
CONTINUOUS
  0
LAYER
  5
509
330
2
100
AcDbSymbolTableRecord
100
AcDbLayerTableRecord
  2
2H1
 70
     0
 62
   144
  6
HIDDEN
  0
LAYER
  5
50A
330
2
100
AcDbSymbolTableRecord
100
AcDbLayerTableRecord
  2
2H2
 70
     0
 62
   144
  6
HIDDEN2
  0
LAYER
  5
50B
330
2
100
AcDbSymbolTableRecord
100
AcDbLayerTableRecord
  2
2P1
 70
     0
 62
   144
  6
PHANTOM
  0
LAYER
  5
50C
330
2
100
AcDbSymbolTableRecord
100
AcDbLayerTableRecord
  2
3C1
 70
     0
 62
     7
  6
CONTINUOUS
  0
LAYER
  5
50D
330
2
100
AcDbSymbolTableRecord
100
AcDbLayerTableRecord
  2
3C2
 70
     0
 62
     7
  6
CONTINUOUS
  0
LAYER
  5
50E
330
2
100
AcDbSymbolTableRecord
100
AcDbLayerTableRecord
  2
3C3
 70
     0
 62
     7
  6
CONTINUOUS
  0
LAYER
  5
50F
330
2
100
AcDbSymbolTableRecord
100
AcDbLayerTableRecord
  2
4H1
 70
     0
 62
     6
  6
HIDDEN
  0
LAYER
  5
510
330
2
100
AcDbSymbolTableRecord
100
AcDbLayerTableRecord
  2
4H2
 70
     0
 62
     6
  6
HIDDEN2
  0
LAYER
  5
511
330
2
100
AcDbSymbolTableRecord
100
AcDbLayerTableRecord
  2
5C1
 70
     0
 62
    55
  6
CONTINUOUS
  0
LAYER
  5
512
330
2
100
AcDbSymbolTableRecord
100
AcDbLayerTableRecord
  2
5C2
 70
     0
 62
    55
  6
CONTINUOUS
  0
LAYER
  5
513
330
2
100
AcDbSymbolTableRecord
100
AcDbLayerTableRecord
  2
8C1
 70
     0
 62
    92
  6
CONTINUOUS
  0
LAYER
  5
514
330
2
100
AcDbSymbolTableRecord
100
AcDbLayerTableRecord
  2
HOJO
 70
     0
 62
     5
  6
CONTINUOUS
  0
LAYER
  5
515
330
2
100
AcDbSymbolTableRecord
100
AcDbLayerTableRecord
  2
KIJUN
 70
     0
 62
     1
  6
CENTER
  0
LAYER
  5
516
330
2
100
AcDbSymbolTableRecord
100
AcDbLayerTableRecord
  2
MOJI
 70
     0
 62
     7
  6
CONTINUOUS
  0
LAYER
  5
517
330
2
100
AcDbSymbolTableRecord
100
AcDbLayerTableRecord
  2
SUNPO
 70
     0
 62
   144
  6
CONTINUOUS
  0
ENDTAB
  0
TABLE
  2
STYLE
  5
3
330
0
100
AcDbSymbolTable
 70
     6
  0
STYLE
  5
11
330
3
100
AcDbSymbolTableRecord
100
AcDbTextStyleTableRecord
  2
STANDARD
 70
     0
 40
0.0
 41
1.0
 50
0.0
 71
     0
 42
2.5
  3
txt
  4

  0
STYLE
  5
2C
330
3
100
AcDbSymbolTableRecord
100
AcDbTextStyleTableRecord
  2

 70
     1
 40
0.0
 41
1.0
 50
0.0
 71
     0
 42
2.5
  3
ltypeshp.shx
  4

  0
STYLE
  5
18E
330
3
100
AcDbSymbolTableRecord
100
AcDbTextStyleTableRecord
  2
ADD
 70
     0
 40
0.0
 41
1.0
 50
0.0
 71
     0
 42
50.0
  3
romans.shx
  4
bigfont.shx
  0
STYLE
  5
191
330
3
100
AcDbSymbolTableRecord
100
AcDbTextStyleTableRecord
  2
MSG
 70
     0
 40
0.0
 41
1.0
 50
0.0
 71
     0
 42
2.5
  3
MS Gothic.ttf
  4

1001
ACAD
1000
MS Gothic
1071
    32817
  0
STYLE
  5
5C8
330
3
100
AcDbSymbolTableRecord
100
AcDbTextStyleTableRecord
  2
STANDARD15
 70
     0
 40
0.0
 41
1.0
 50
15.0
 71
     0
 42
2.5
  3
ROMANS
  4
bigfont
  0
STYLE
  5
5C9
330
3
100
AcDbSymbolTableRecord
100
AcDbTextStyleTableRecord
  2
ROMANS15
 70
     0
 40
0.0
 41
1.0
 50
15.0
 71
     0
 42
2.5
  3
romans
  4

  0
ENDTAB
  0
TABLE
  2
VIEW
  5
6
330
0
100
AcDbSymbolTable
 70
     1
  0
VIEW
  5
54D
330
6
100
AcDbSymbolTableRecord
100
AcDbViewTableRecord
  2
ALL
 70
     0
 40
594.0
 10
420.5
 20
297.0
 41
865.125
 11
0.0
 21
0.0
 31
1.0
 12
0.0
 22
0.0
 32
0.0
 42
50.0
 43
0.0
 44
0.0
 50
0.0
 71
     0
  0
ENDTAB
  0
TABLE
  2
UCS
  5
7
330
0
100
AcDbSymbolTable
 70
     0
  0
ENDTAB
  0
TABLE
  2
APPID
  5
9
330
0
100
AcDbSymbolTable
 70
     4
  0
APPID
  5
12
330
9
100
AcDbSymbolTableRecord
100
AcDbRegAppTableRecord
  2
ACAD
 70
     0
  0
APPID
  5
5CB
330
9
100
AcDbSymbolTableRecord
100
AcDbRegAppTableRecord
  2
ARAIGUMI_YOHEKI
 70
     0
  0
APPID
  5
5CC
330
9
100
AcDbSymbolTableRecord
100
AcDbRegAppTableRecord
  2
CONTENTTABDATA
 70
     0
  0
APPID
  5
5CD
330
9
100
AcDbSymbolTableRecord
100
AcDbRegAppTableRecord
  2
CONTENTCURRENTTAB
 70
     0
  0
ENDTAB
  0
TABLE
  2
DIMSTYLE
  5
A
330
0
100
AcDbSymbolTable
 70
    10
  0
DIMSTYLE
105
27
330
A
100
AcDbSymbolTableRecord
100
AcDbDimStyleTableRecord
  2
ISO-25
 70
     0
  3

  4

  5

  6

  7

 40
1.0
 41
2.5
 42
0.625
 43
3.75
 44
1.25
 45
0.0
 46
0.0
 47
0.0
 48
0.0
140
2.5
141
2.5
142
0.0
143
0.03937007874016
144
1.0
145
0.0
146
1.0
147
0.625
 71
     0
 72
     0
 73
     0
 74
     0
 75
     0
 76
     0
 77
     1
 78
     8
170
     0
171
     3
172
     1
173
     0
174
     0
175
     0
176
     0
177
     0
178
     0
270
     2
271
     2
272
     2
273
     2
274
     3
340
11
275
     0
280
     0
281
     0
282
     0
283
     0
284
     8
285
     0
286
     0
287
     3
288
     0
  0
DIMSTYLE
105
197
330
A
100
AcDbSymbolTableRecord
100
AcDbDimStyleTableRecord
  2
ADD
 70
     0
  3

  4

  5

  6

  7

 40
1.0
 41
2.5
 42
1.0
 43
7.0
 44
0.5
 45
0.0
 46
0.0
 47
0.0
 48
0.0
140
2.5
141
2.5
142
0.0
143
0.03937007874016
144
1.0
145
0.7
146
1.0
147
0.625
 71
     0
 72
     0
 73
     0
 74
     0
 75
     0
 76
     0
 77
     1
 78
     8
170
     0
171
     3
172
     1
173
     0
174
     1
175
     0
176
   144
177
   144
178
     7
270
     2
271
     1
272
     1
273
     2
274
     3
340
18E
275
     0
280
     0
281
     0
282
     0
283
     2
284
     8
285
     0
286
     0
287
     5
288
     0
  0
DIMSTYLE
105
3E6
330
A
100
AcDbSymbolTableRecord
100
AcDbDimStyleTableRecord
  2
ADD$2
 70
     0
  3

  4

  5

  6

  7

 40
1.0
 41
2.5
 42
1.0
 43
7.0
 44
0.5
 45
0.0
 46
0.0
 47
0.0
 48
0.0
140
2.5
141
2.5
142
0.0
143
0.03937007874016
144
1.0
145
0.7
146
1.0
147
0.625
 71
     0
 72
     0
 73
     0
 74
     0
 75
     0
 76
     0
 77
     1
 78
     8
170
     0
171
     3
172
     1
173
     0
174
     1
175
     0
176
   144
177
   144
178
     7
270
     2
271
     1
272
     1
273
     2
274
     3
340
18E
275
     0
280
     0
281
     0
282
     0
283
     2
284
     8
285
     0
286
     0
287
     5
288
     0
  0
DIMSTYLE
105
3E7
330
A
100
AcDbSymbolTableRecord
100
AcDbDimStyleTableRecord
  2
ADD$4
 70
     0
  3

  4

  5

  6

  7

 40
1.0
 41
2.5
 42
1.0
 43
7.0
 44
0.5
 45
0.0
 46
0.0
 47
0.0
 48
0.0
140
2.5
141
2.5
142
0.0
143
0.03937007874016
144
1.0
145
0.0
146
1.0
147
0.625
 71
     0
 72
     0
 73
     0
 74
     0
 75
     0
 76
     0
 77
     1
 78
     8
170
     0
171
     3
172
     1
173
     0
174
     1
175
     0
176
   144
177
   144
178
     7
270
     2
271
     1
272
     1
273
     2
274
     3
340
18E
275
     0
280
     0
281
     0
282
     0
283
     2
284
     8
285
     0
286
     0
287
     5
288
     0
  0
DIMSTYLE
105
3E8
330
A
100
AcDbSymbolTableRecord
100
AcDbDimStyleTableRecord
  2
ADD$3
 70
     0
  3

  4

  5

  6

  7

 40
1.0
 41
2.5
 42
1.0
 43
7.0
 44
0.5
 45
0.0
 46
0.0
 47
0.0
 48
0.0
140
2.5
141
2.5
142
0.0
143
0.03937007874016
144
1.0
145
0.0
146
1.0
147
0.625
 71
     0
 72
     0
 73
     0
 74
     0
 75
     0
 76
     0
 77
     1
 78
     8
170
     0
171
     3
172
     1
173
     0
174
     1
175
     0
176
   144
177
   144
178
     7
270
     2
271
     1
272
     1
273
     2
274
     3
340
18E
275
     0
280
     0
281
     0
282
     0
283
     2
284
     8
285
     0
286
     0
287
     5
288
     0
  0
DIMSTYLE
105
3E9
330
A
100
AcDbSymbolTableRecord
100
AcDbDimStyleTableRecord
  2
ADD$6
 70
     0
  3

  4

  5

  6

  7

 40
1.0
 41
2.5
 42
1.0
 43
7.0
 44
0.5
 45
0.0
 46
0.0
 47
0.0
 48
0.0
140
2.5
141
2.5
142
0.0
143
0.03937007874016
144
1.0
145
0.0
146
1.0
147
0.625
 71
     0
 72
     0
 73
     0
 74
     0
 75
     0
 76
     0
 77
     1
 78
     8
170
     0
171
     3
172
     1
173
     0
174
     1
175
     0
176
   144
177
   144
178
     7
270
     2
271
     1
272
     1
273
     2
274
     3
340
18E
275
     0
280
     0
281
     0
282
     0
283
     2
284
     8
285
     0
286
     0
287
     5
288
     0
  0
DIMSTYLE
105
3EA
330
A
100
AcDbSymbolTableRecord
100
AcDbDimStyleTableRecord
  2
ADD$7
 70
     0
  3

  4

  5

  6

  7

 40
1.0
 41
2.5
 42
1.0
 43
7.0
 44
0.5
 45
0.0
 46
0.0
 47
0.0
 48
0.0
140
2.5
141
2.5
142
0.0
143
0.03937007874016
144
1.0
145
0.0
146
1.0
147
0.625
 71
     0
 72
     0
 73
     0
 74
     0
 75
     0
 76
     0
 77
     0
 78
     8
170
     0
171
     3
172
     1
173
     0
174
     1
175
     0
176
   144
177
   144
178
     7
270
     2
271
     1
272
     1
273
     2
274
     3
340
18E
275
     0
280
     0
281
     0
282
     0
283
     2
284
     8
285
     0
286
     0
287
     5
288
     0
  0
DIMSTYLE
105
518
330
A
100
AcDbSymbolTableRecord
100
AcDbDimStyleTableRecord
  2
STANDARD
 70
     0
  3

  4

  5

  6

  7

 40
1.0
 41
0.18
 42
0.0625
 43
0.38
 44
0.18
 45
0.0
 46
0.0
 47
0.0
 48
0.0
140
0.18
141
0.09
142
0.0
143
25.4
144
1.0
145
0.0
146
1.0
147
0.09
 71
     0
 72
     0
 73
     1
 74
     1
 75
     0
 76
     0
 77
     0
 78
     0
170
     0
171
     2
172
     0
173
     0
174
     0
175
     0
176
     0
177
     0
178
     0
270
     2
271
     4
272
     4
273
     2
274
     2
340
11
275
     0
280
     0
281
     0
282
     0
283
     1
284
     0
285
     0
286
     0
287
     3
288
     0
  0
DIMSTYLE
105
550
330
A
100
AcDbSymbolTableRecord
100
AcDbDimStyleTableRecord
  2
ADD$0
 70
     0
  3

  4

  5

  6

  7

 40
1.0
 41
0.7
 42
1.0
 43
7.0
 44
0.5
 45
0.0
 46
0.0
 47
0.0
 48
0.0
140
2.5
141
2.5
142
0.0
143
0.03937007874016
144
1.0
145
0.7
146
1.0
147
0.625
 71
     0
 72
     0
 73
     0
 74
     0
 75
     0
 76
     0
 77
     1
 78
     8
170
     0
171
     3
172
     1
173
     0
174
     1
175
     0
176
   144
177
   144
178
     7
270
     2
271
     1
272
     1
273
     2
274
     3
340
18E
275
     0
280
     0
281
     0
282
     0
283
     2
284
     8
285
     0
286
     0
287
     5
288
     0
  0
DIMSTYLE
105
59B
330
A
100
AcDbSymbolTableRecord
100
AcDbDimStyleTableRecord
  2
ADD_M
 70
     0
  3

  4

  5

  6

  7

 40
1.0
 41
2.5
 42
1.0
 43
7.0
 44
0.5
 45
0.0
 46
0.0
 47
0.0
 48
0.0
140
2.5
141
2.5
142
0.0
143
0.03937007874016
144
1.0
145
0.7
146
1.0
147
0.625
 71
     0
 72
     0
 73
     0
 74
     0
 75
     0
 76
     0
 77
     1
 78
     8
170
     0
171
     3
172
     1
173
     0
174
     1
175
     0
176
   144
177
   144
178
     7
270
     2
271
     1
272
     1
273
     2
274
     3
340
18E
275
     0
280
     0
281
     0
282
     0
283
     2
284
     8
285
     0
286
     0
287
     5
288
     0
  0
ENDTAB
  0
TABLE
  2
BLOCK_RECORD
  5
1
330
0
100
AcDbSymbolTable
 70
     9
  0
BLOCK_RECORD
  5
1F
102
{ACAD_XDICTIONARY
360
81E
102
}
330
1
100
AcDbSymbolTableRecord
100
AcDbBlockTableRecord
  2
*MODEL_SPACE
  0
BLOCK_RECORD
  5
1B
102
{ACAD_XDICTIONARY
360
81C
102
}
330
1
100
AcDbSymbolTableRecord
100
AcDbBlockTableRecord
  2
*PAPER_SPACE
  0
BLOCK_RECORD
  5
192
330
1
100
AcDbSymbolTableRecord
100
AcDbBlockTableRecord
  2
_DOT
  0
BLOCK_RECORD
  5
5CE
330
1
100
AcDbSymbolTableRecord
100
AcDbBlockTableRecord
  2
A4
  0
BLOCK_RECORD
  5
659
330
1
100
AcDbSymbolTableRecord
100
AcDbBlockTableRecord
  2
*D2
  0
BLOCK_RECORD
  5
674
330
1
100
AcDbSymbolTableRecord
100
AcDbBlockTableRecord
  2
*D3
  0
BLOCK_RECORD
  5
6B7
330
1
100
AcDbSymbolTableRecord
100
AcDbBlockTableRecord
  2
*D4
  0
BLOCK_RECORD
  5
6E2
330
1
100
AcDbSymbolTableRecord
100
AcDbBlockTableRecord
  2
*D5
  0
BLOCK_RECORD
  5
6EF
330
1
100
AcDbSymbolTableRecord
100
AcDbBlockTableRecord
  2
*D6
  0
BLOCK_RECORD
  5
722
330
1
100
AcDbSymbolTableRecord
100
AcDbBlockTableRecord
  2
*D7
  0
BLOCK_RECORD
  5
737
330
1
100
AcDbSymbolTableRecord
100
AcDbBlockTableRecord
  2
*D8
  0
ENDTAB
  0
ENDSEC
  0
SECTION
  2
BLOCKS
  0
BLOCK
  5
20
330
1F
100
AcDbEntity
  8
0
100
AcDbBlockBegin
  2
*MODEL_SPACE
 70
     0
 10
0.0
 20
0.0
 30
0.0
  3
*MODEL_SPACE
  1

  0
ENDBLK
  5
21
330
1F
100
AcDbEntity
  8
0
100
AcDbBlockEnd
  0
BLOCK
  5
1C
330
1B
100
AcDbEntity
 67
     1
  8
0
100
AcDbBlockBegin
  2
*PAPER_SPACE
 70
     0
 10
0.0
 20
0.0
 30
0.0
  3
*PAPER_SPACE
  1

  0
ENDBLK
  5
1D
330
1B
100
AcDbEntity
 67
     1
  8
0
100
AcDbBlockEnd
  0
BLOCK
  5
195
330
192
100
AcDbEntity
  8
0
100
AcDbBlockBegin
  2
_DOT
 70
     0
 10
0.0
 20
0.0
 30
0.0
  3
_DOT
  1

  0
POLYLINE
  5
193
330
192
100
AcDbEntity
  8
0
 62
     0
100
AcDb2dPolyline
 66
     1
 10
0.0
 20
0.0
 30
0.0
 70
     1
 40
0.5
 41
0.5
  0
VERTEX
  5
820
330
193
100
AcDbEntity
  8
0
 62
     0
100
AcDbVertex
100
AcDb2dVertex
 10
-0.25
 20
0.0
 30
0.0
 42
1.0
  0
VERTEX
  5
821
330
193
100
AcDbEntity
  8
0
 62
     0
100
AcDbVertex
100
AcDb2dVertex
 10
0.25
 20
0.0
 30
0.0
 42
1.0
  0
SEQEND
  5
822
330
193
100
AcDbEntity
  8
0
 62
     0
  0
LINE
  5
194
330
192
100
AcDbEntity
  8
0
 62
     0
100
AcDbLine
 10
-0.5
 20
0.0
 30
0.0
 11
-1.0
 21
0.0
 31
0.0
  0
ENDBLK
  5
196
330
192
100
AcDbEntity
  8
0
100
AcDbBlockEnd
  0
BLOCK
  5
5D1
330
5CE
100
AcDbEntity
  8
0
100
AcDbBlockBegin
  2
A4
 70
     0
 10
0.0
 20
0.0
 30
0.0
  3
A4
  1

  0
POLYLINE
  5
5CF
330
5CE
100
AcDbEntity
  8
HOJO
100
AcDb2dPolyline
 66
     1
 10
0.0
 20
0.0
 30
0.0
 70
     1
  0
VERTEX
  5
823
330
5CF
100
AcDbEntity
  8
HOJO
100
AcDbVertex
100
AcDb2dVertex
 10
0.0
 20
0.0
 30
0.0
  0
VERTEX
  5
824
330
5CF
100
AcDbEntity
  8
HOJO
100
AcDbVertex
100
AcDb2dVertex
 10
297.0
 20
0.0
 30
0.0
  0
VERTEX
  5
825
330
5CF
100
AcDbEntity
  8
HOJO
100
AcDbVertex
100
AcDb2dVertex
 10
297.0
 20
210.0
 30
0.0
  0
VERTEX
  5
826
330
5CF
100
AcDbEntity
  8
HOJO
100
AcDbVertex
100
AcDb2dVertex
 10
0.0
 20
210.0
 30
0.0
  0
SEQEND
  5
827
330
5CF
100
AcDbEntity
  8
HOJO
  0
POLYLINE
  5
5D0
330
5CE
100
AcDbEntity
  8
HOJO
100
AcDb2dPolyline
 66
     1
 10
0.0
 20
0.0
 30
0.0
 70
     1
  0
VERTEX
  5
828
330
5D0
100
AcDbEntity
  8
HOJO
100
AcDbVertex
100
AcDb2dVertex
 10
18.0
 20
13.0
 30
0.0
  0
VERTEX
  5
829
330
5D0
100
AcDbEntity
  8
HOJO
100
AcDbVertex
100
AcDb2dVertex
 10
279.0
 20
13.0
 30
0.0
  0
VERTEX
  5
82A
330
5D0
100
AcDbEntity
  8
HOJO
100
AcDbVertex
100
AcDb2dVertex
 10
279.0
 20
197.0
 30
0.0
  0
VERTEX
  5
82B
330
5D0
100
AcDbEntity
  8
HOJO
100
AcDbVertex
100
AcDb2dVertex
 10
18.0
 20
197.0
 30
0.0
  0
SEQEND
  5
82C
330
5D0
100
AcDbEntity
  8
HOJO
  0
ENDBLK
  5
5D2
330
5CE
100
AcDbEntity
  8
0
100
AcDbBlockEnd
  0
BLOCK
  5
663
330
659
100
AcDbEntity
  8
0
100
AcDbBlockBegin
  2
*D2
 70
     1
 10
0.0
 20
0.0
 30
0.0
  3
*D2
  1

  0
LINE
  5
65A
330
659
100
AcDbEntity
  8
SUNPO
 62
   144
100
AcDbLine
 10
1548.801167603727
 20
1481.587694921172
 30
0.0
 11
1548.801167603727
 21
1393.683488679753
 31
0.0
  0
LINE
  5
65B
330
659
100
AcDbEntity
  8
SUNPO
 62
   144
100
AcDbLine
 10
1753.801167603727
 20
1481.587694921172
 30
0.0
 11
1753.801167603727
 21
1393.683488679753
 31
0.0
  0
LINE
  5
65C
330
659
100
AcDbEntity
  8
SUNPO
 62
   144
100
AcDbLine
 10
1562.801167603727
 20
1403.683488679753
 30
0.0
 11
1739.801167603727
 21
1403.683488679753
 31
0.0
  0
SOLID
  5
65D
330
659
100
AcDbEntity
  8
SUNPO
 62
   144
100
AcDbTrace
 10
1562.801167603727
 20
1406.016822013086
 30
0.0
 11
1562.801167603727
 21
1401.35015534642
 31
0.0
 12
1548.801167603727
 22
1403.683488679753
 32
0.0
 13
1548.801167603727
 23
1403.683488679753
 33
0.0
  0
SOLID
  5
65E
330
659
100
AcDbEntity
  8
SUNPO
 62
   144
100
AcDbTrace
 10
1739.801167603727
 20
1406.016822013086
 30
0.0
 11
1739.801167603727
 21
1401.35015534642
 31
0.0
 12
1753.801167603727
 22
1403.683488679753
 32
0.0
 13
1753.801167603727
 23
1403.683488679753
 33
0.0
  0
MTEXT
  5
65F
330
659
100
AcDbEntity
  8
SUNPO
 62
     7
100
AcDbMText
 10
1651.301167603727
 20
1441.183488679753
 30
0.0
 40
50.0
 41
0.0
 71
     5
 72
     1
  1
\A2;205
  7
ADD
1001
ACAD
1000
MTEXTBEGIN
1070
    73
1070
     1
1070
    44
1040
1.0
1070
    74
1070
     0
1000
MTEXTEND
  0
POINT
  5
660
330
659
100
AcDbEntity
  8
DEFPOINTS
 62
     0
100
AcDbPoint
 10
1548.801167603727
 20
1501.587694921172
 30
0.0
  0
POINT
  5
661
330
659
100
AcDbEntity
  8
DEFPOINTS
 62
     0
100
AcDbPoint
 10
1753.801167603727
 20
1501.587694921172
 30
0.0
  0
POINT
  5
662
330
659
100
AcDbEntity
  8
DEFPOINTS
 62
     0
100
AcDbPoint
 10
1753.801167603727
 20
1403.683488679753
 30
0.0
  0
ENDBLK
  5
664
330
659
100
AcDbEntity
  8
0
100
AcDbBlockEnd
  0
BLOCK
  5
67E
330
674
100
AcDbEntity
  8
0
100
AcDbBlockBegin
  2
*D3
 70
     1
 10
0.0
 20
0.0
 30
0.0
  3
*D3
  1

  0
LINE
  5
675
330
674
100
AcDbEntity
  8
SUNPO
 62
   144
100
AcDbLine
 10
2151.536884090093
 20
1481.587694921172
 30
0.0
 11
2151.536884090093
 21
1393.683488679753
 31
0.0
  0
LINE
  5
676
330
674
100
AcDbEntity
  8
SUNPO
 62
   144
100
AcDbLine
 10
2751.536884090093
 20
1481.587694921172
 30
0.0
 11
2751.536884090093
 21
1393.683488679753
 31
0.0
  0
LINE
  5
677
330
674
100
AcDbEntity
  8
SUNPO
 62
   144
100
AcDbLine
 10
2165.536884090093
 20
1403.683488679753
 30
0.0
 11
2737.536884090093
 21
1403.683488679753
 31
0.0
  0
SOLID
  5
678
330
674
100
AcDbEntity
  8
SUNPO
 62
   144
100
AcDbTrace
 10
2165.536884090093
 20
1406.016822013086
 30
0.0
 11
2165.536884090093
 21
1401.35015534642
 31
0.0
 12
2151.536884090093
 22
1403.683488679753
 32
0.0
 13
2151.536884090093
 23
1403.683488679753
 33
0.0
  0
SOLID
  5
679
330
674
100
AcDbEntity
  8
SUNPO
 62
   144
100
AcDbTrace
 10
2737.536884090093
 20
1406.016822013086
 30
0.0
 11
2737.536884090093
 21
1401.35015534642
 31
0.0
 12
2751.536884090093
 22
1403.683488679753
 32
0.0
 13
2751.536884090093
 23
1403.683488679753
 33
0.0
  0
MTEXT
  5
67A
330
674
100
AcDbEntity
  8
SUNPO
 62
     7
100
AcDbMText
 10
2451.536884090093
 20
1441.183488679753
 30
0.0
 40
50.0
 41
0.0
 71
     5
 72
     1
  1
\A2;600
  7
ADD
1001
ACAD
1000
MTEXTBEGIN
1070
    73
1070
     1
1070
    44
1040
1.0
1070
    74
1070
     0
1000
MTEXTEND
  0
POINT
  5
67B
330
674
100
AcDbEntity
  8
DEFPOINTS
 62
     0
100
AcDbPoint
 10
2151.536884090093
 20
1501.587694921172
 30
0.0
  0
POINT
  5
67C
330
674
100
AcDbEntity
  8
DEFPOINTS
 62
     0
100
AcDbPoint
 10
2751.536884090093
 20
1501.587694921172
 30
0.0
  0
POINT
  5
67D
330
674
100
AcDbEntity
  8
DEFPOINTS
 62
     0
100
AcDbPoint
 10
2751.536884090093
 20
1403.683488679753
 30
0.0
  0
ENDBLK
  5
67F
330
674
100
AcDbEntity
  8
0
100
AcDbBlockEnd
  0
BLOCK
  5
6C3
330
6B7
100
AcDbEntity
  8
0
100
AcDbBlockBegin
  2
*D4
 70
     1
 10
0.0
 20
0.0
 30
0.0
  3
*D4
  1

  0
LINE
  5
6B8
330
6B7
100
AcDbEntity
  8
SUNPO
 62
   144
100
AcDbLine
 10
1548.801167603727
 20
1681.587694921172
 30
0.0
 11
1548.801167603727
 21
1708.348061412896
 31
0.0
  0
LINE
  5
6B9
330
6B7
100
AcDbEntity
  8
SUNPO
 62
   144
100
AcDbLine
 10
1608.801167603727
 20
1681.587694921172
 30
0.0
 11
1608.801167603727
 21
1708.348061412896
 31
0.0
  0
LINE
  5
6BA
330
6B7
100
AcDbEntity
  8
SUNPO
 62
   144
100
AcDbLine
 10
1534.801167603727
 20
1698.348061412897
 30
0.0
 11
1520.801167603727
 21
1698.348061412897
 31
0.0
  0
LINE
  5
6BB
330
6B7
100
AcDbEntity
  8
SUNPO
 62
   144
100
AcDbLine
 10
1622.801167603727
 20
1698.348061412897
 30
0.0
 11
1636.801167603727
 21
1698.348061412897
 31
0.0
  0
LINE
  5
6BC
330
6B7
100
AcDbEntity
  8
SUNPO
 62
   144
100
AcDbLine
 10
1548.801167603727
 20
1698.348061412897
 30
0.0
 11
1608.801167603727
 21
1698.348061412897
 31
0.0
  0
SOLID
  5
6BD
330
6B7
100
AcDbEntity
  8
SUNPO
 62
   144
100
AcDbTrace
 10
1534.801167603727
 20
1700.681394746229
 30
0.0
 11
1534.801167603727
 21
1696.014728079563
 31
0.0
 12
1548.801167603727
 22
1698.348061412897
 32
0.0
 13
1548.801167603727
 23
1698.348061412897
 33
0.0
  0
SOLID
  5
6BE
330
6B7
100
AcDbEntity
  8
SUNPO
 62
   144
100
AcDbTrace
 10
1622.801167603727
 20
1700.681394746229
 30
0.0
 11
1622.801167603727
 21
1696.014728079563
 31
0.0
 12
1608.801167603727
 22
1698.348061412897
 32
0.0
 13
1608.801167603727
 23
1698.348061412897
 33
0.0
  0
MTEXT
  5
6BF
330
6B7
100
AcDbEntity
  8
SUNPO
 62
     7
100
AcDbMText
 10
1578.801167603727
 20
1735.848061412896
 30
0.0
 40
50.0
 41
0.0
 71
     5
 72
     1
  1
\A2;60
  7
ADD
1001
ACAD
1000
MTEXTBEGIN
1070
    73
1070
     1
1070
    44
1040
1.0
1070
    74
1070
     0
1000
MTEXTEND
  0
POINT
  5
6C0
330
6B7
100
AcDbEntity
  8
DEFPOINTS
 62
     0
100
AcDbPoint
 10
1548.801167603727
 20
1661.587694921172
 30
0.0
  0
POINT
  5
6C1
330
6B7
100
AcDbEntity
  8
DEFPOINTS
 62
     0
100
AcDbPoint
 10
1608.801167603727
 20
1661.587694921172
 30
0.0
  0
POINT
  5
6C2
330
6B7
100
AcDbEntity
  8
DEFPOINTS
 62
     0
100
AcDbPoint
 10
1608.801167603727
 20
1698.348061412897
 30
0.0
  0
ENDBLK
  5
6C4
330
6B7
100
AcDbEntity
  8
0
100
AcDbBlockEnd
  0
BLOCK
  5
6EC
330
6E2
100
AcDbEntity
  8
0
100
AcDbBlockBegin
  2
*D5
 70
     1
 10
0.0
 20
0.0
 30
0.0
  3
*D5
  1

  0
LINE
  5
6E3
330
6E2
100
AcDbEntity
  8
SUNPO
 62
   144
100
AcDbLine
 10
1548.801167603727
 20
1681.587694921172
 30
0.0
 11
1548.801167603727
 21
1848.348061412896
 31
0.0
  0
LINE
  5
6E4
330
6E2
100
AcDbEntity
  8
SUNPO
 62
   144
100
AcDbLine
 10
1741.801167603727
 20
1646.587694921172
 30
0.0
 11
1741.801167603727
 21
1848.348061412896
 31
0.0
  0
LINE
  5
6E5
330
6E2
100
AcDbEntity
  8
SUNPO
 62
   144
100
AcDbLine
 10
1562.801167603727
 20
1838.348061412896
 30
0.0
 11
1727.801167603727
 21
1838.348061412896
 31
0.0
  0
SOLID
  5
6E6
330
6E2
100
AcDbEntity
  8
SUNPO
 62
   144
100
AcDbTrace
 10
1562.801167603727
 20
1840.68139474623
 30
0.0
 11
1562.801167603727
 21
1836.014728079563
 31
0.0
 12
1548.801167603727
 22
1838.348061412896
 32
0.0
 13
1548.801167603727
 23
1838.348061412896
 33
0.0
  0
SOLID
  5
6E7
330
6E2
100
AcDbEntity
  8
SUNPO
 62
   144
100
AcDbTrace
 10
1727.801167603727
 20
1840.68139474623
 30
0.0
 11
1727.801167603727
 21
1836.014728079563
 31
0.0
 12
1741.801167603727
 22
1838.348061412896
 32
0.0
 13
1741.801167603727
 23
1838.348061412896
 33
0.0
  0
MTEXT
  5
6E8
330
6E2
100
AcDbEntity
  8
SUNPO
 62
     7
100
AcDbMText
 10
1645.301167603727
 20
1875.848061412896
 30
0.0
 40
50.0
 41
0.0
 71
     5
 72
     1
  1
\A2;193
  7
ADD
1001
ACAD
1000
MTEXTBEGIN
1070
    73
1070
     1
1070
    44
1040
1.0
1070
    74
1070
     0
1000
MTEXTEND
  0
POINT
  5
6E9
330
6E2
100
AcDbEntity
  8
DEFPOINTS
 62
     0
100
AcDbPoint
 10
1548.801167603727
 20
1661.587694921172
 30
0.0
  0
POINT
  5
6EA
330
6E2
100
AcDbEntity
  8
DEFPOINTS
 62
     0
100
AcDbPoint
 10
1741.801167603727
 20
1626.587694921172
 30
0.0
  0
POINT
  5
6EB
330
6E2
100
AcDbEntity
  8
DEFPOINTS
 62
     0
100
AcDbPoint
 10
1741.801167603727
 20
1838.348061412896
 30
0.0
  0
ENDBLK
  5
6ED
330
6E2
100
AcDbEntity
  8
0
100
AcDbBlockEnd
  0
BLOCK
  5
6FB
330
6EF
100
AcDbEntity
  8
0
100
AcDbBlockBegin
  2
*D6
 70
     1
 10
0.0
 20
0.0
 30
0.0
  3
*D6
  1

  0
LINE
  5
6F0
330
6EF
100
AcDbEntity
  8
SUNPO
 62
   144
100
AcDbLine
 10
1778.801167603727
 20
1506.587694921172
 30
0.0
 11
1857.856629452857
 21
1506.587694921172
 31
0.0
  0
LINE
  5
6F1
330
6EF
100
AcDbEntity
  8
SUNPO
 62
   144
100
AcDbLine
 10
1778.801167603727
 20
1626.587694921172
 30
0.0
 11
1857.856629452857
 21
1626.587694921172
 31
0.0
  0
LINE
  5
6F2
330
6EF
100
AcDbEntity
  8
SUNPO
 62
   144
100
AcDbLine
 10
1847.856629452857
 20
1492.587694921172
 30
0.0
 11
1847.856629452857
 21
1478.587694921172
 31
0.0
  0
LINE
  5
6F3
330
6EF
100
AcDbEntity
  8
SUNPO
 62
   144
100
AcDbLine
 10
1847.856629452857
 20
1640.587694921172
 30
0.0
 11
1847.856629452857
 21
1654.587694921172
 31
0.0
  0
LINE
  5
6F4
330
6EF
100
AcDbEntity
  8
SUNPO
 62
   144
100
AcDbLine
 10
1847.856629452857
 20
1506.587694921172
 30
0.0
 11
1847.856629452857
 21
1626.587694921172
 31
0.0
  0
SOLID
  5
6F5
330
6EF
100
AcDbEntity
  8
SUNPO
 62
   144
100
AcDbTrace
 10
1845.523296119523
 20
1492.587694921172
 30
0.0
 11
1850.18996278619
 21
1492.587694921172
 31
0.0
 12
1847.856629452857
 22
1506.587694921172
 32
0.0
 13
1847.856629452857
 23
1506.587694921172
 33
0.0
  0
SOLID
  5
6F6
330
6EF
100
AcDbEntity
  8
SUNPO
 62
   144
100
AcDbTrace
 10
1845.523296119523
 20
1640.587694921172
 30
0.0
 11
1850.18996278619
 21
1640.587694921172
 31
0.0
 12
1847.856629452857
 22
1626.587694921172
 32
0.0
 13
1847.856629452857
 23
1626.587694921172
 33
0.0
  0
MTEXT
  5
6F7
330
6EF
100
AcDbEntity
  8
SUNPO
 62
     7
100
AcDbMText
 10
1810.356629452856
 20
1566.587694921173
 30
0.0
 40
50.0
 41
0.0
 71
     5
 72
     1
  1
\A2;120
  7
ADD
 11
0.0000000000000001
 21
1.0
 31
0.0
1001
ACAD
1000
MTEXTBEGIN
1070
    73
1070
     1
1070
    44
1040
1.0
1070
    74
1070
     0
1000
MTEXTEND
  0
POINT
  5
6F8
330
6EF
100
AcDbEntity
  8
DEFPOINTS
 62
     0
100
AcDbPoint
 10
1758.801167603727
 20
1506.587694921172
 30
0.0
  0
POINT
  5
6F9
330
6EF
100
AcDbEntity
  8
DEFPOINTS
 62
     0
100
AcDbPoint
 10
1758.801167603727
 20
1626.587694921172
 30
0.0
  0
POINT
  5
6FA
330
6EF
100
AcDbEntity
  8
DEFPOINTS
 62
     0
100
AcDbPoint
 10
1847.856629452857
 20
1626.587694921172
 30
0.0
  0
ENDBLK
  5
6FC
330
6EF
100
AcDbEntity
  8
0
100
AcDbBlockEnd
  0
BLOCK
  5
72C
330
722
100
AcDbEntity
  8
0
100
AcDbBlockBegin
  2
*D7
 70
     1
 10
0.0
 20
0.0
 30
0.0
  3
*D7
  1

  0
LINE
  5
723
330
722
100
AcDbEntity
  8
SUNPO
 62
   144
100
AcDbLine
 10
1778.801167603727
 20
1506.587694921172
 30
0.0
 11
1997.856629452857
 21
1506.587694921172
 31
0.0
  0
LINE
  5
724
330
722
100
AcDbEntity
  8
SUNPO
 62
   144
100
AcDbLine
 10
1778.801167603727
 20
1656.587694921172
 30
0.0
 11
1997.856629452857
 21
1656.587694921172
 31
0.0
  0
LINE
  5
725
330
722
100
AcDbEntity
  8
SUNPO
 62
   144
100
AcDbLine
 10
1987.856629452857
 20
1520.587694921172
 30
0.0
 11
1987.856629452857
 21
1642.587694921172
 31
0.0
  0
SOLID
  5
726
330
722
100
AcDbEntity
  8
SUNPO
 62
   144
100
AcDbTrace
 10
1985.523296119523
 20
1520.587694921172
 30
0.0
 11
1990.18996278619
 21
1520.587694921172
 31
0.0
 12
1987.856629452857
 22
1506.587694921172
 32
0.0
 13
1987.856629452857
 23
1506.587694921172
 33
0.0
  0
SOLID
  5
727
330
722
100
AcDbEntity
  8
SUNPO
 62
   144
100
AcDbTrace
 10
1985.523296119524
 20
1642.587694921172
 30
0.0
 11
1990.18996278619
 21
1642.587694921172
 31
0.0
 12
1987.856629452857
 22
1656.587694921172
 32
0.0
 13
1987.856629452857
 23
1656.587694921172
 33
0.0
  0
MTEXT
  5
728
330
722
100
AcDbEntity
  8
SUNPO
 62
     7
100
AcDbMText
 10
1950.356629452856
 20
1581.587694921172
 30
0.0
 40
50.0
 41
0.0
 71
     5
 72
     1
  1
\A2;150
  7
ADD
 11
0.0000000000000001
 21
1.0
 31
0.0
1001
ACAD
1000
MTEXTBEGIN
1070
    73
1070
     1
1070
    44
1040
1.0
1070
    74
1070
     0
1000
MTEXTEND
  0
POINT
  5
729
330
722
100
AcDbEntity
  8
DEFPOINTS
 62
     0
100
AcDbPoint
 10
1758.801167603727
 20
1506.587694921172
 30
0.0
  0
POINT
  5
72A
330
722
100
AcDbEntity
  8
DEFPOINTS
 62
     0
100
AcDbPoint
 10
1758.801167603727
 20
1656.587694921172
 30
0.0
  0
POINT
  5
72B
330
722
100
AcDbEntity
  8
DEFPOINTS
 62
     0
100
AcDbPoint
 10
1987.856629452857
 20
1656.587694921172
 30
0.0
  0
ENDBLK
  5
72D
330
722
100
AcDbEntity
  8
0
100
AcDbBlockEnd
  0
BLOCK
  5
73E
330
737
100
AcDbEntity
  8
0
100
AcDbBlockBegin
  2
*D8
 70
     1
 10
0.0
 20
0.0
 30
0.0
  3
*D8
  1

  0
LINE
  5
74C
330
737
100
AcDbEntity
  8
SUNPO
 62
   144
100
AcDbLine
 10
1741.394791157635
 20
1677.282348790702
 30
0.0
 11
1758.452709358059
 21
1724.282640562856
 31
0.0
  0
MTEXT
  5
74D
330
737
100
AcDbEntity
  8
SUNPO
 62
     7
100
AcDbMText
 10
1782.070312164429
 20
1789.357065813097
 30
0.0
 40
50.0
 41
0.0
 71
     5
 72
     1
  1
\A2;R30
  7
ADD
 11
0.3411583640084878
 21
0.940005835443085
 31
0.0
1001
ACAD
1000
MTEXTBEGIN
1070
    73
1070
     1
1070
    44
1040
1.0
1070
    74
1070
     0
1000
MTEXTEND
  0
LINE
  5
74E
330
737
100
AcDbEntity
  8
SUNPO
 62
   144
100
AcDbLine
 10
1714.102122036956
 20
1602.081881955256
 30
0.0
 11
1724.33687295721
 21
1630.282057018547
 31
0.0
  0
SOLID
  5
74F
330
737
100
AcDbEntity
  8
SUNPO
 62
   144
100
AcDbTrace
 10
1733.561409195609
 20
1680.125335157439
 30
0.0
 11
1749.22817311966
 21
1674.439362423965
 31
0.0
 12
1724.33687295721
 22
1630.282057018547
 32
0.0
 13
1724.33687295721
 23
1630.282057018547
 33
0.0
  0
POINT
  5
750
330
737
100
AcDbEntity
  8
DEFPOINTS
 62
     0
100
AcDbPoint
 10
1724.33687295721
 20
1630.282057018547
 30
0.0
  0
POINT
  5
751
330
737
100
AcDbEntity
  8
DEFPOINTS
 62
     0
100
AcDbPoint
 10
1714.102122036956
 20
1602.081881955256
 30
0.0
  0
ENDBLK
  5
73F
330
737
100
AcDbEntity
  8
0
100
AcDbBlockEnd
  0
ENDSEC
  0
SECTION
  2
ENTITIES
  0
LINE
  5
60A
330
1F
100
AcDbEntity
  8
HOJO
100
AcDbLine
 10
360.0
 20
260.0
 30
0.0
 11
5580.0
 21
260.0
 31
0.0
  0
LINE
  5
60B
330
1F
100
AcDbEntity
  8
HOJO
100
AcDbLine
 10
360.0
 20
560.0
 30
0.0
 11
5580.0
 21
560.0
 31
0.0
  0
LINE
  5
60C
330
1F
100
AcDbEntity
  8
HOJO
100
AcDbLine
 10
360.0
 20
260.0
 30
0.0
 11
360.0
 21
560.0
 31
0.0
  0
LINE
  5
60D
330
1F
100
AcDbEntity
  8
HOJO
100
AcDbLine
 10
2360.0
 20
260.0
 30
0.0
 11
2360.0
 21
560.0
 31
0.0
  0
LINE
  5
60F
330
1F
100
AcDbEntity
  8
HOJO
100
AcDbLine
 10
3160.0
 20
260.0
 30
0.0
 11
3160.0
 21
560.0
 31
0.0
  0
LINE
  5
610
330
1F
100
AcDbEntity
  8
HOJO
100
AcDbLine
 10
3660.0
 20
260.0
 30
0.0
 11
3660.0
 21
560.0
 31
0.0
  0
LINE
  5
62F
330
1F
100
AcDbEntity
  8
3C1
100
AcDbLine
 10
1753.801167603727
 20
1506.587694921172
 30
0.0
 11
1548.801167603727
 21
1506.587694921172
 31
0.0
  0
LINE
  5
6AB
330
1F
100
AcDbEntity
  8
3C1
100
AcDbLine
 10
1548.801167603727
 20
1656.587694921172
 30
0.0
 11
1608.801167603727
 21
1656.587694921172
 31
0.0
  0
LINE
  5
6AC
330
1F
100
AcDbEntity
  8
3C1
100
AcDbLine
 10
1608.801167603727
 20
1656.587694921172
 30
0.0
 11
1720.703194431603
 21
1631.346636238192
 31
0.0
  0
LINE
  5
6AD
330
1F
100
AcDbEntity
  8
3C1
100
AcDbLine
 10
1743.953237743256
 20
1605.066993525886
 30
0.0
 11
1753.801167603727
 21
1506.587694921172
 31
0.0
  0
ARC
  5
6AE
330
1F
100
AcDbEntity
  8
3C1
100
AcDbCircle
 10
1714.102122036956
 20
1602.081881955256
 30
0.0
 40
30.0
100
AcDbArc
 50
5.710593137499531
 51
77.28886743447052
  0
LINE
  5
6B2
330
1F
100
AcDbEntity
  8
3C1
100
AcDbLine
 10
2751.536884090093
 20
1506.587694921172
 30
0.0
 11
2151.536884090093
 21
1506.587694921172
 31
0.0
  0
LINE
  5
6B3
330
1F
100
AcDbEntity
  8
3C1
100
AcDbLine
 10
2151.536884090093
 20
1506.587694921172
 30
0.0
 11
2151.536884090093
 21
1656.587694921172
 31
0.0
  0
LINE
  5
6B4
330
1F
100
AcDbEntity
  8
3C1
100
AcDbLine
 10
2151.536884090093
 20
1656.587694921172
 30
0.0
 11
2751.536884090093
 21
1656.587694921172
 31
0.0
  0
LINE
  5
6B5
330
1F
100
AcDbEntity
  8
3C1
100
AcDbLine
 10
2751.536884090093
 20
1656.587694921172
 30
0.0
 11
2751.536884090093
 21
1506.587694921172
 31
0.0
  0
LINE
  5
70C
330
1F
100
AcDbEntity
  8
SUNPO
 62
   144
100
AcDbLine
 10
1778.801167603727
 20
1626.587694921172
 30
0.0
 11
1857.856629452857
 21
1626.587694921172
 31
0.0
  0
LINE
  5
70D
330
1F
100
AcDbEntity
  8
SUNPO
 62
   144
100
AcDbLine
 10
1778.801167603727
 20
1656.587694921172
 30
0.0
 11
1857.856629452857
 21
1656.587694921172
 31
0.0
  0
LINE
  5
70E
330
1F
100
AcDbEntity
  8
SUNPO
 62
   144
100
AcDbLine
 10
1847.856629452857
 20
1612.587694921172
 30
0.0
 11
1847.856629452857
 21
1598.587694921172
 31
0.0
  0
LINE
  5
70F
330
1F
100
AcDbEntity
  8
SUNPO
 62
   144
100
AcDbLine
 10
1847.856629452857
 20
1670.587694921172
 30
0.0
 11
1847.856629452857
 21
1684.587694921172
 31
0.0
  0
LINE
  5
710
330
1F
100
AcDbEntity
  8
SUNPO
 62
   144
100
AcDbLine
 10
1847.856629452857
 20
1626.587694921172
 30
0.0
 11
1847.856629452857
 21
1656.587694921172
 31
0.0
  0
SOLID
  5
711
330
1F
100
AcDbEntity
  8
SUNPO
 62
   144
100
AcDbTrace
 10
1845.523296119523
 20
1612.587694921172
 30
0.0
 11
1850.18996278619
 21
1612.587694921172
 31
0.0
 12
1847.856629452857
 22
1626.587694921172
 32
0.0
 13
1847.856629452857
 23
1626.587694921172
 33
0.0
  0
SOLID
  5
712
330
1F
100
AcDbEntity
  8
SUNPO
 62
   144
100
AcDbTrace
 10
1845.523296119523
 20
1670.587694921172
 30
0.0
 11
1850.18996278619
 21
1670.587694921172
 31
0.0
 12
1847.856629452857
 22
1656.587694921172
 32
0.0
 13
1847.856629452857
 23
1656.587694921172
 33
0.0
  0
LINE
  5
75A
330
1F
100
AcDbEntity
  8
3C1
100
AcDbLine
 10
1548.801167603727
 20
1506.587694921172
 30
0.0
 11
1548.801167603727
 21
1656.587694921172
 31
0.0
  0
LINE
  5
7D8
330
1F
100
AcDbEntity
  8
SUNPO
 62
   144
100
AcDbLine
 10
1741.394791157635
 20
1677.282348790702
 30
0.0
 11
1758.452709358059
 21
1724.282640562856
 31
0.0
  0
LINE
  5
7DA
330
1F
100
AcDbEntity
  8
SUNPO
 62
   144
100
AcDbLine
 10
1714.102122036956
 20
1602.081881955256
 30
0.0
 11
1724.33687295721
 21
1630.282057018547
 31
0.0
  0
SOLID
  5
7DB
330
1F
100
AcDbEntity
  8
SUNPO
 62
   144
100
AcDbTrace
 10
1733.561409195609
 20
1680.125335157439
 30
0.0
 11
1749.22817311966
 21
1674.439362423965
 31
0.0
 12
1724.33687295721
 22
1630.282057018547
 32
0.0
 13
1724.33687295721
 23
1630.282057018547
 33
0.0
  0
LINE
  5
7DC
330
1F
100
AcDbEntity
  8
SUNPO
 62
   144
100
AcDbLine
 10
1778.801167603727
 20
1506.587694921172
 30
0.0
 11
1997.856629452857
 21
1506.587694921172
 31
0.0
  0
LINE
  5
7DD
330
1F
100
AcDbEntity
  8
SUNPO
 62
   144
100
AcDbLine
 10
1778.801167603727
 20
1656.587694921172
 30
0.0
 11
1997.856629452857
 21
1656.587694921172
 31
0.0
  0
LINE
  5
7DE
330
1F
100
AcDbEntity
  8
SUNPO
 62
   144
100
AcDbLine
 10
1987.856629452857
 20
1520.587694921172
 30
0.0
 11
1987.856629452857
 21
1642.587694921172
 31
0.0
  0
SOLID
  5
7DF
330
1F
100
AcDbEntity
  8
SUNPO
 62
   144
100
AcDbTrace
 10
1985.523296119523
 20
1520.587694921172
 30
0.0
 11
1990.18996278619
 21
1520.587694921172
 31
0.0
 12
1987.856629452857
 22
1506.587694921172
 32
0.0
 13
1987.856629452857
 23
1506.587694921172
 33
0.0
  0
SOLID
  5
7E0
330
1F
100
AcDbEntity
  8
SUNPO
 62
   144
100
AcDbTrace
 10
1985.523296119524
 20
1642.587694921172
 30
0.0
 11
1990.18996278619
 21
1642.587694921172
 31
0.0
 12
1987.856629452857
 22
1656.587694921172
 32
0.0
 13
1987.856629452857
 23
1656.587694921172
 33
0.0
  0
TEXT
  5
7E2
330
1F
100
AcDbEntity
  8
KIJUN
 62
     7
100
AcDbText
 10
1835.356629452856
 20
1660.942963520943
 30
0.0
 40
50.0
  1
30
 50
90.0
  7
ADD
100
AcDbText
  0
LINE
  5
7E3
330
1F
100
AcDbEntity
  8
SUNPO
 62
   144
100
AcDbLine
 10
1778.801167603727
 20
1506.587694921172
 30
0.0
 11
1857.856629452857
 21
1506.587694921172
 31
0.0
  0
LINE
  5
7E4
330
1F
100
AcDbEntity
  8
SUNPO
 62
   144
100
AcDbLine
 10
1778.801167603727
 20
1626.587694921172
 30
0.0
 11
1857.856629452857
 21
1626.587694921172
 31
0.0
  0
LINE
  5
7E5
330
1F
100
AcDbEntity
  8
SUNPO
 62
   144
100
AcDbLine
 10
1847.856629452857
 20
1492.587694921172
 30
0.0
 11
1847.856629452857
 21
1478.587694921172
 31
0.0
  0
LINE
  5
7E6
330
1F
100
AcDbEntity
  8
SUNPO
 62
   144
100
AcDbLine
 10
1847.856629452857
 20
1640.587694921172
 30
0.0
 11
1847.856629452857
 21
1654.587694921172
 31
0.0
  0
LINE
  5
7E7
330
1F
100
AcDbEntity
  8
SUNPO
 62
   144
100
AcDbLine
 10
1847.856629452857
 20
1506.587694921172
 30
0.0
 11
1847.856629452857
 21
1626.587694921172
 31
0.0
  0
SOLID
  5
7E8
330
1F
100
AcDbEntity
  8
SUNPO
 62
   144
100
AcDbTrace
 10
1845.523296119523
 20
1492.587694921172
 30
0.0
 11
1850.18996278619
 21
1492.587694921172
 31
0.0
 12
1847.856629452857
 22
1506.587694921172
 32
0.0
 13
1847.856629452857
 23
1506.587694921172
 33
0.0
  0
SOLID
  5
7E9
330
1F
100
AcDbEntity
  8
SUNPO
 62
   144
100
AcDbTrace
 10
1845.523296119523
 20
1640.587694921172
 30
0.0
 11
1850.18996278619
 21
1640.587694921172
 31
0.0
 12
1847.856629452857
 22
1626.587694921172
 32
0.0
 13
1847.856629452857
 23
1626.587694921172
 33
0.0
  0
LINE
  5
7EB
330
1F
100
AcDbEntity
  8
SUNPO
 62
   144
100
AcDbLine
 10
1548.801167603727
 20
1681.587694921172
 30
0.0
 11
1548.801167603727
 21
1848.348061412896
 31
0.0
  0
LINE
  5
7EC
330
1F
100
AcDbEntity
  8
SUNPO
 62
   144
100
AcDbLine
 10
1741.801167603727
 20
1646.587694921172
 30
0.0
 11
1741.801167603727
 21
1848.348061412896
 31
0.0
  0
LINE
  5
7ED
330
1F
100
AcDbEntity
  8
SUNPO
 62
   144
100
AcDbLine
 10
1562.801167603727
 20
1838.348061412896
 30
0.0
 11
1727.801167603727
 21
1838.348061412896
 31
0.0
  0
SOLID
  5
7EE
330
1F
100
AcDbEntity
  8
SUNPO
 62
   144
100
AcDbTrace
 10
1562.801167603727
 20
1840.68139474623
 30
0.0
 11
1562.801167603727
 21
1836.014728079563
 31
0.0
 12
1548.801167603727
 22
1838.348061412896
 32
0.0
 13
1548.801167603727
 23
1838.348061412896
 33
0.0
  0
SOLID
  5
7EF
330
1F
100
AcDbEntity
  8
SUNPO
 62
   144
100
AcDbTrace
 10
1727.801167603727
 20
1840.68139474623
 30
0.0
 11
1727.801167603727
 21
1836.014728079563
 31
0.0
 12
1741.801167603727
 22
1838.348061412896
 32
0.0
 13
1741.801167603727
 23
1838.348061412896
 33
0.0
  0
LINE
  5
7F1
330
1F
100
AcDbEntity
  8
SUNPO
 62
   144
100
AcDbLine
 10
1548.801167603727
 20
1681.587694921172
 30
0.0
 11
1548.801167603727
 21
1708.348061412896
 31
0.0
  0
LINE
  5
7F2
330
1F
100
AcDbEntity
  8
SUNPO
 62
   144
100
AcDbLine
 10
1608.801167603727
 20
1681.587694921172
 30
0.0
 11
1608.801167603727
 21
1708.348061412896
 31
0.0
  0
LINE
  5
7F3
330
1F
100
AcDbEntity
  8
SUNPO
 62
   144
100
AcDbLine
 10
1534.801167603727
 20
1698.348061412897
 30
0.0
 11
1520.801167603727
 21
1698.348061412897
 31
0.0
  0
LINE
  5
7F4
330
1F
100
AcDbEntity
  8
SUNPO
 62
   144
100
AcDbLine
 10
1622.801167603727
 20
1698.348061412897
 30
0.0
 11
1636.801167603727
 21
1698.348061412897
 31
0.0
  0
LINE
  5
7F5
330
1F
100
AcDbEntity
  8
SUNPO
 62
   144
100
AcDbLine
 10
1548.801167603727
 20
1698.348061412897
 30
0.0
 11
1608.801167603727
 21
1698.348061412897
 31
0.0
  0
SOLID
  5
7F6
330
1F
100
AcDbEntity
  8
SUNPO
 62
   144
100
AcDbTrace
 10
1534.801167603727
 20
1700.681394746229
 30
0.0
 11
1534.801167603727
 21
1696.014728079563
 31
0.0
 12
1548.801167603727
 22
1698.348061412897
 32
0.0
 13
1548.801167603727
 23
1698.348061412897
 33
0.0
  0
SOLID
  5
7F7
330
1F
100
AcDbEntity
  8
SUNPO
 62
   144
100
AcDbTrace
 10
1622.801167603727
 20
1700.681394746229
 30
0.0
 11
1622.801167603727
 21
1696.014728079563
 31
0.0
 12
1608.801167603727
 22
1698.348061412897
 32
0.0
 13
1608.801167603727
 23
1698.348061412897
 33
0.0
  0
TEXT
  5
7F9
330
1F
100
AcDbEntity
  8
MOJI
100
AcDbText
 10
874.0165208163288
 20
356.332476862082
 30
0.0
 40
50.0
  1
歩車道境界ブロック(セミフラット用)切下げ
  7
ADD
100
AcDbText
  0
TEXT
  5
7FA
330
1F
100
AcDbEntity
  8
MOJI
100
AcDbText
 10
2575.652432086206
 20
374.3827718071461
 30
0.0
 40
50.0
  1
SFD-B1
  7
ADD
100
AcDbText
  0
LINE
  5
7FB
330
1F
100
AcDbEntity
  8
SUNPO
 62
   144
100
AcDbLine
 10
2151.536884090093
 20
1481.587694921172
 30
0.0
 11
2151.536884090093
 21
1393.683488679753
 31
0.0
  0
LINE
  5
7FC
330
1F
100
AcDbEntity
  8
SUNPO
 62
   144
100
AcDbLine
 10
2751.536884090093
 20
1481.587694921172
 30
0.0
 11
2751.536884090093
 21
1393.683488679753
 31
0.0
  0
LINE
  5
7FD
330
1F
100
AcDbEntity
  8
SUNPO
 62
   144
100
AcDbLine
 10
2165.536884090093
 20
1403.683488679753
 30
0.0
 11
2737.536884090093
 21
1403.683488679753
 31
0.0
  0
SOLID
  5
7FE
330
1F
100
AcDbEntity
  8
SUNPO
 62
   144
100
AcDbTrace
 10
2165.536884090093
 20
1406.016822013086
 30
0.0
 11
2165.536884090093
 21
1401.35015534642
 31
0.0
 12
2151.536884090093
 22
1403.683488679753
 32
0.0
 13
2151.536884090093
 23
1403.683488679753
 33
0.0
  0
SOLID
  5
7FF
330
1F
100
AcDbEntity
  8
SUNPO
 62
   144
100
AcDbTrace
 10
2737.536884090093
 20
1406.016822013086
 30
0.0
 11
2737.536884090093
 21
1401.35015534642
 31
0.0
 12
2751.536884090093
 22
1403.683488679753
 32
0.0
 13
2751.536884090093
 23
1403.683488679753
 33
0.0
  0
LINE
  5
801
330
1F
100
AcDbEntity
  8
SUNPO
 62
   144
100
AcDbLine
 10
1548.801167603727
 20
1481.587694921172
 30
0.0
 11
1548.801167603727
 21
1393.683488679753
 31
0.0
  0
LINE
  5
802
330
1F
100
AcDbEntity
  8
SUNPO
 62
   144
100
AcDbLine
 10
1753.801167603727
 20
1481.587694921172
 30
0.0
 11
1753.801167603727
 21
1393.683488679753
 31
0.0
  0
LINE
  5
803
330
1F
100
AcDbEntity
  8
SUNPO
 62
   144
100
AcDbLine
 10
1562.801167603727
 20
1403.683488679753
 30
0.0
 11
1739.801167603727
 21
1403.683488679753
 31
0.0
  0
SOLID
  5
804
330
1F
100
AcDbEntity
  8
SUNPO
 62
   144
100
AcDbTrace
 10
1562.801167603727
 20
1406.016822013086
 30
0.0
 11
1562.801167603727
 21
1401.35015534642
 31
0.0
 12
1548.801167603727
 22
1403.683488679753
 32
0.0
 13
1548.801167603727
 23
1403.683488679753
 33
0.0
  0
SOLID
  5
805
330
1F
100
AcDbEntity
  8
SUNPO
 62
   144
100
AcDbTrace
 10
1739.801167603727
 20
1406.016822013086
 30
0.0
 11
1739.801167603727
 21
1401.35015534642
 31
0.0
 12
1753.801167603727
 22
1403.683488679753
 32
0.0
 13
1753.801167603727
 23
1403.683488679753
 33
0.0
  0
TEXT
  5
807
330
1F
100
AcDbEntity
  8
MOJI
100
AcDbText
 10
3246.680311730542
 20
359.2274732162223
 30
0.0
 40
70.0
  1
１／２０
  7
ADD
100
AcDbText
  0
TEXT
  5
808
330
1F
100
AcDbEntity
  8
MOJI
100
AcDbText
 10
381.8862574011546
 20
488.6918916770627
 30
0.0
 40
50.0
  1
製品名
  7
ADD
100
AcDbText
  0
TEXT
  5
809
330
1F
100
AcDbEntity
  8
MOJI
100
AcDbText
 10
2376.290169028722
 20
494.4531736811823
 30
0.0
 40
50.0
  1
型式
  7
ADD
100
AcDbText
  0
TEXT
  5
80A
330
1F
100
AcDbEntity
  8
MOJI
100
AcDbText
 10
3177.510249231658
 20
488.6918916770627
 30
0.0
 40
50.0
  1
縮尺
  7
ADD
100
AcDbText
  0
TEXT
  5
80B
330
1F
100
AcDbEntity
  8
MOJI
100
AcDbText
 10
3730.870883051572
 20
352.2726133092145
 30
0.0
 40
100.0
  1
千葉県コンクリート製品協同組合
  7
ADD
100
AcDbText
  0
LINE
  5
80C
330
1F
100
AcDbEntity
  8
HOJO
100
AcDbLine
 10
360.0
 20
260.0
 30
0.0
 11
5580.0
 21
260.0
 31
0.0
  0
LINE
  5
80D
330
1F
100
AcDbEntity
  8
HOJO
100
AcDbLine
 10
5580.0
 20
260.0
 30
0.0
 11
5580.0
 21
3940.0
 31
0.0
  0
LINE
  5
80E
330
1F
100
AcDbEntity
  8
HOJO
100
AcDbLine
 10
5580.0
 20
3940.0
 30
0.0
 11
360.0
 21
3940.0
 31
0.0
  0
LINE
  5
80F
330
1F
100
AcDbEntity
  8
HOJO
100
AcDbLine
 10
360.0
 20
3940.0
 30
0.0
 11
360.0
 21
260.0
 31
0.0
  0
LINE
  5
810
330
1F
100
AcDbEntity
  8
HOJO
100
AcDbLine
 10
0.0
 20
0.0
 30
0.0
 11
5940.0
 21
0.0
 31
0.0
  0
LINE
  5
811
330
1F
100
AcDbEntity
  8
HOJO
100
AcDbLine
 10
5940.0
 20
0.0
 30
0.0
 11
5940.0
 21
4200.0
 31
0.0
  0
LINE
  5
812
330
1F
100
AcDbEntity
  8
HOJO
100
AcDbLine
 10
5940.0
 20
4200.0
 30
0.0
 11
0.0
 21
4200.0
 31
0.0
  0
LINE
  5
813
330
1F
100
AcDbEntity
  8
HOJO
100
AcDbLine
 10
0.0
 20
4200.0
 30
0.0
 11
0.0
 21
0.0
 31
0.0
  0
TEXT
  5
814
330
1F
100
AcDbEntity
  8
KIJUN
 62
     7
100
AcDbText
 10
1579.872596175156
 20
1416.183488679753
 30
0.0
 40
50.0
  1
205
  7
ADD
100
AcDbText
  0
TEXT
  5
815
330
1F
100
AcDbEntity
  8
KIJUN
 62
     7
100
AcDbText
 10
2378.917836471046
 20
1416.183488679753
 30
0.0
 40
50.0
  1
600
  7
ADD
100
AcDbText
  0
TEXT
  5
816
330
1F
100
AcDbEntity
  8
KIJUN
 62
     7
100
AcDbText
 10
1529.991643794204
 20
1710.848061412896
 30
0.0
 40
50.0
  1
60
  7
ADD
100
AcDbText
  0
TEXT
  5
817
330
1F
100
AcDbEntity
  8
KIJUN
 62
     7
100
AcDbText
 10
1570.301167603727
 20
1850.848061412896
 30
0.0
 40
50.0
  1
193
  7
ADD
100
AcDbText
  0
TEXT
  5
818
330
1F
100
AcDbEntity
  8
KIJUN
 62
     7
100
AcDbText
 10
1835.356629452856
 20
1491.587694921173
 30
0.0
 40
50.0
  1
120
 50
90.0
  7
ADD
100
AcDbText
  0
TEXT
  5
819
330
1F
100
AcDbEntity
  8
KIJUN
 62
     7
100
AcDbText
 10
1975.356629452856
 20
1506.587694921172
 30
0.0
 40
50.0
  1
150
 50
90.0
  7
ADD
100
AcDbText
  0
TEXT
  5
81A
330
1F
100
AcDbEntity
  8
KIJUN
 62
     7
100
AcDbText
 10
1780.389721659403
 20
1711.446723620658
 30
0.0
 40
50.0
  1
R30
 50
70.05253642053386
  7
ADD
100
AcDbText
  0
VIEWPORT
  5
72
330
1B
100
AcDbEntity
 67
     1
  8
0
100
AcDbViewport
 10
429.8380103383459
 20
277.0
 30
0.0
 40
948.9782706766918
 41
628.4520000000001
 68
     1
 69
     1
1001
ACAD
1000
MVIEW
1002
{
1070
    16
1010
0.0
1020
0.0
1030
0.0
1010
0.0
1020
0.0
1030
1.0
1040
0.0
1040
628.4520000000001
1040
429.8380103383459
1040
277.0
1040
50.0
1040
0.0
1040
0.0
1070
     0
1070
   100
1070
     1
1070
     1
1070
     0
1070
     0
1070
     0
1070
     0
1040
0.0
1040
0.0
1040
0.0
1040
10.0
1040
10.0
1040
10.0
1040
10.0
1070
     0
1002
{
1002
}
1002
}
  0
VIEWPORT
  5
74
330
1B
100
AcDbEntity
 67
     1
  8
VIEWPORT
100
AcDbViewport
 10
414.3779638919211
 20
277.3177265058034
 30
0.0
 40
840.0353682728887
 41
567.2285469943826
 68
     2
 69
     2
1001
ACAD
1000
MVIEW
1002
{
1070
    16
1010
0.0
1020
0.0
1030
0.0
1010
0.0
1020
0.0
1030
1.0
1040
0.0
1040
579.5583043546323
1040
424.4938908624541
1040
286.1973242720074
1040
50.0
1040
0.0
1040
0.0
1070
     0
1070
   100
1070
     1
1070
     1
1070
     0
1070
     0
1070
     0
1070
     0
1040
0.0
1040
0.0
1040
0.0
1040
10.0
1040
10.0
1040
10.0
1040
10.0
1070
     0
1002
{
1002
}
1002
}
  0
ENDSEC
  0
SECTION
  2
OBJECTS
  0
DICTIONARY
  5
C
330
0
100
AcDbDictionary
  3
ACAD_GROUP
350
D
  3
ACAD_LAYOUT
350
1A
  3
ACAD_MLINESTYLE
350
17
  3
ACAD_PLOTSETTINGS
350
19
  3
DWGPROPS
350
4C7
1001
ACAD
1000
TREAT_AS_HARD
1070
     0
  0
DICTIONARY
  5
81E
330
1F
100
AcDbDictionary
  3
ACAD_LAYOUTSELFREF
350
81F
  0
DICTIONARY
  5
81C
330
1B
100
AcDbDictionary
  3
ACAD_LAYOUTSELFREF
350
81D
  0
DICTIONARY
  5
D
102
{ACAD_REACTORS
330
C
102
}
330
C
100
AcDbDictionary
1001
ACAD
1000
TREAT_AS_HARD
1070
     0
  0
DICTIONARY
  5
1A
102
{ACAD_REACTORS
330
C
102
}
330
C
100
AcDbDictionary
1001
ACAD
1000
TREAT_AS_HARD
1070
     0
  0
DICTIONARY
  5
17
102
{ACAD_REACTORS
330
C
102
}
330
C
100
AcDbDictionary
  3
STANDARD
350
18
1001
ACAD
1000
TREAT_AS_HARD
1070
     0
  0
DICTIONARY
  5
19
102
{ACAD_REACTORS
330
C
102
}
330
C
100
AcDbDictionary
1001
ACAD
1000
TREAT_AS_HARD
1070
     0
  0
XRECORD
  5
4C7
102
{ACAD_REACTORS
330
C
102
}
330
C
100
AcDbXrecord
  1
DWGPROPS COOKIE
  2
印刷用テスト
  3
AutoCAD2000による建築設計
  4
鈴木 裕二
  6

  7

  8
U2
  9

300
=
301
=
302
=
303
=
304
=
305
=
306
=
307
=
308
=
309
=
 40
0.7653446875
 41
2451285.4846114
 42
2451333.689743032
  1

 90
        0
  0
XRECORD
  5
81F
102
{ACAD_REACTORS
330
81E
102
}
330
81E
100
AcDbXrecord
340
1F
  0
XRECORD
  5
81D
102
{ACAD_REACTORS
330
81C
102
}
330
81C
100
AcDbXrecord
340
1B
  0
MLINESTYLE
  5
18
102
{ACAD_REACTORS
330
17
102
}
330
17
100
AcDbMlineStyle
  2
STANDARD
 70
     0
  3

 62
   256
 51
90.0
 52
90.0
 71
     2
 49
0.5
 62
   256
  6
BYLAYER
 49
-0.5
 62
   256
  6
BYLAYER
  0
ENDSEC
  0
EOF
