  0
SECTION
  2
HEADER
  9
$ACADVER
  1
AC1012
  9
$DWGCODEPAGE
  3
dos932
  9
$INSBASE
 10
0.0
 20
0.0
 30
0.0
  9
$EXTMIN
 10
0.0
 20
0.0
 30
0.0
  9
$EXTMAX
 10
5940.0
 20
4200.0
 30
0.0
  9
$LIMMIN
 10
0.0
 20
0.0
  9
$LIMMAX
 10
5940.0
 20
4200.0
  9
$ORTHOMODE
 70
     0
  9
$REGENMODE
 70
     1
  9
$FILLMODE
 70
     1
  9
$QTEXTMODE
 70
     0
  9
$MIRRTEXT
 70
     0
  9
$DRAGMODE
 70
     2
  9
$LTSCALE
 40
10.0
  9
$OSMODE
 70
    37
  9
$ATTMODE
 70
     1
  9
$TEXTSIZE
 40
50.0
  9
$TRACEWID
 40
1.0
  9
$TEXTSTYLE
  7
ADD
  9
$CLAYER
  8
3C1
  9
$CELTYPE
  6
BYLAYER
  9
$CECOLOR
 62
   256
  9
$CELTSCALE
 40
1.0
  9
$DELOBJ
 70
     1
  9
$DISPSILH
 70
     0
  9
$DIMSCALE
 40
20.0
  9
$DIMASZ
 40
2.5
  9
$DIMEXO
 40
1.0
  9
$DIMDLI
 40
7.0
  9
$DIMRND
 40
0.0
  9
$DIMDLE
 40
0.0
  9
$DIMEXE
 40
0.5
  9
$DIMTP
 40
0.0
  9
$DIMTM
 40
0.0
  9
$DIMTXT
 40
2.5
  9
$DIMCEN
 40
2.5
  9
$DIMTSZ
 40
0.0
  9
$DIMTOL
 70
     0
  9
$DIMLIM
 70
     0
  9
$DIMTIH
 70
     0
  9
$DIMTOH
 70
     0
  9
$DIMSE1
 70
     0
  9
$DIMSE2
 70
     0
  9
$DIMTAD
 70
     1
  9
$DIMZIN
 70
     8
  9
$DIMBLK
  1

  9
$DIMASO
 70
     1
  9
$DIMSHO
 70
     1
  9
$DIMPOST
  1

  9
$DIMAPOST
  1

  9
$DIMALT
 70
     0
  9
$DIMALTD
 70
     3
  9
$DIMALTF
 40
0.03937007874016
  9
$DIMLFAC
 40
1.0
  9
$DIMTOFL
 70
     1
  9
$DIMTVP
 40
0.7
  9
$DIMTIX
 70
     1
  9
$DIMSOXD
 70
     0
  9
$DIMSAH
 70
     0
  9
$DIMBLK1
  1

  9
$DIMBLK2
  1

  9
$DIMSTYLE
  2
ADD
  9
$DIMCLRD
 70
   144
  9
$DIMCLRE
 70
   144
  9
$DIMCLRT
 70
     7
  9
$DIMTFAC
 40
1.0
  9
$DIMGAP
 40
0.625
  9
$DIMJUST
 70
     0
  9
$DIMSD1
 70
     0
  9
$DIMSD2
 70
     0
  9
$DIMTOLJ
 70
     2
  9
$DIMTZIN
 70
     8
  9
$DIMALTZ
 70
     0
  9
$DIMALTTZ
 70
     0
  9
$DIMFIT
 70
     5
  9
$DIMUPT
 70
     0
  9
$DIMUNIT
 70
     2
  9
$DIMDEC
 70
     1
  9
$DIMTDEC
 70
     1
  9
$DIMALTU
 70
     2
  9
$DIMALTTD
 70
     3
  9
$DIMTXSTY
  7
ADD
  9
$DIMAUNIT
 70
     0
  9
$LUNITS
 70
     2
  9
$LUPREC
 70
     4
  9
$SKETCHINC
 40
1.0
  9
$FILLETRAD
 40
30.0
  9
$AUNITS
 70
     0
  9
$AUPREC
 70
     1
  9
$MENU
  1
.
  9
$ELEVATION
 40
0.0
  9
$PELEVATION
 40
0.0
  9
$THICKNESS
 40
0.0
  9
$LIMCHECK
 70
     0
  9
$BLIPMODE
 70
     0
  9
$CHAMFERA
 40
10.0
  9
$CHAMFERB
 40
10.0
  9
$CHAMFERC
 40
20.0
  9
$CHAMFERD
 40
0.0
  9
$SKPOLY
 70
     0
  9
$TDCREATE
 40
2451801.142532870
  9
$TDUPDATE
 40
2452538.594201759
  9
$TDINDWG
 40
0.0902019676
  9
$TDUSRTIMER
 40
0.0902019676
  9
$USRTIMER
 70
     1
  9
$ANGBASE
 50
0.0
  9
$ANGDIR
 70
     0
  9
$PDMODE
 70
     0
  9
$PDSIZE
 40
0.0
  9
$PLINEWID
 40
0.0
  9
$COORDS
 70
     1
  9
$SPLFRAME
 70
     0
  9
$SPLINETYPE
 70
     6
  9
$SPLINESEGS
 70
     8
  9
$ATTDIA
 70
     0
  9
$ATTREQ
 70
     1
  9
$HANDLING
 70
 22529
  9
$HANDSEED
  5
8B2
  9
$SURFTAB1
 70
     6
  9
$SURFTAB2
 70
     6
  9
$SURFTYPE
 70
     6
  9
$SURFU
 70
     6
  9
$SURFV
 70
     6
  9
$UCSNAME
  2

  9
$UCSORG
 10
0.0
 20
0.0
 30
0.0
  9
$UCSXDIR
 10
1.0
 20
0.0
 30
0.0
  9
$UCSYDIR
 10
0.0
 20
1.0
 30
0.0
  9
$PUCSNAME
  2

  9
$PUCSORG
 10
0.0
 20
0.0
 30
0.0
  9
$PUCSXDIR
 10
1.0
 20
0.0
 30
0.0
  9
$PUCSYDIR
 10
0.0
 20
1.0
 30
0.0
  9
$USERI1
 70
     0
  9
$USERI2
 70
     0
  9
$USERI3
 70
     0
  9
$USERI4
 70
     0
  9
$USERI5
 70
     0
  9
$USERR1
 40
841.0
  9
$USERR2
 40
594.0
  9
$USERR3
 40
1.0
  9
$USERR4
 40
0.0
  9
$USERR5
 40
0.0
  9
$WORLDVIEW
 70
     1
  9
$SHADEDGE
 70
     3
  9
$SHADEDIF
 70
    70
  9
$TILEMODE
 70
     1
  9
$MAXACTVP
 70
    48
  9
$PINSBASE
 10
0.0
 20
0.0
 30
0.0
  9
$PLIMCHECK
 70
     0
  9
$PEXTMIN
 10
-5.662975978526674
 20
-6.331907780761866
 30
-0.0015258207003583
  9
$PEXTMAX
 10
834.4213426047982
 20
560.9663709967471
 30
0.0000000349246037
  9
$PLIMMIN
 10
-7.500000000000001
 20
-20.0
  9
$PLIMMAX
 10
833.5000000000002
 20
574.0000000000001
  9
$UNITMODE
 70
     0
  9
$VISRETAIN
 70
     1
  9
$PLINEGEN
 70
     0
  9
$PSLTSCALE
 70
     1
  9
$TREEDEPTH
 70
  3020
  9
$PICKSTYLE
 70
     1
  9
$CMLSTYLE
  2
STANDARD
  9
$CMLJUST
 70
     0
  9
$CMLSCALE
 40
20.0
  9
$SAVEIMAGES
 70
     1
  0
ENDSEC
  0
SECTION
  2
CLASSES
  0
CLASS
  1
ACDBDICTIONARYWDFLT
  2
AcDbDictionaryWithDefault
  3
AutoCAD 2000
 90
    32768
280
     0
281
     0
  0
CLASS
  1
ACDBPLACEHOLDER
  2
AcDbPlaceHolder
  3
AutoCAD 2000
 90
    32768
280
     0
281
     0
  0
CLASS
  1
LAYOUT
  2
AcDbLayout
  3
AutoCAD 2000
 90
    32768
280
     0
281
     0
  0
CLASS
  1
RTEXT
  2
RText
  3
RText|AutoCAD Express Tool|expresstools@autodesk.com
 90
    32768
280
     0
281
     1
  0
CLASS
  1
DICTIONARYVAR
  2
AcDbDictionaryVar
  3
AutoCAD 2000
 90
    32768
280
     0
281
     0
  0
CLASS
  1
LONG_TRANSACTION
  2
AcDbLongTransaction
  3
AutoCAD 2000
 90
    32768
280
     0
281
     0
  0
CLASS
  1
LWPOLYLINE
  2
AcDbPolyline
  3
AutoCAD 2000
 90
    32768
280
     0
281
     1
  0
CLASS
  1
HATCH
  2
AcDbHatch
  3
AutoCAD 2000
 90
    32768
280
     0
281
     1
  0
CLASS
  1
XRECORD
  2
AcDbXrecord
  3
AutoCAD 2000
 90
    32768
280
     0
281
     0
  0
CLASS
  1
LONG_TRANSACTION
  2
AcDbLongTransaction
  3
AutoCAD 2000
 90
    32768
280
     0
281
     0
  0
CLASS
  1
LWPOLYLINE
  2
AcDbPolyline
  3
AutoCAD 2000
 90
    32768
280
     0
281
     1
  0
CLASS
  1
HATCH
  2
AcDbHatch
  3
AutoCAD 2000
 90
    32768
280
     0
281
     1
  0
CLASS
  1
XRECORD
  2
AcDbXrecord
  3
AutoCAD 2000
 90
    32768
280
     0
281
     0
  0
ENDSEC
  0
SECTION
  2
TABLES
  0
TABLE
  2
VPORT
  5
8
330
0
100
AcDbSymbolTable
 70
     3
  0
VPORT
  5
8A2
330
8
100
AcDbSymbolTableRecord
100
AcDbViewportTableRecord
  2
*ACTIVE
 70
     0
 10
0.0
 20
0.0
 11
1.0
 21
1.0
 12
3226.344719502076
 22
2100.000009778887
 13
0.0
 23
0.0
 14
10.0
 24
10.0
 15
10.0
 25
10.0
 16
0.0
 26
0.0
 36
1.0
 17
0.0
 27
0.0
 37
0.0
 40
4232.985617898028
 41
1.68808777429467
 42
50.0
 43
0.0
 44
0.0
 50
0.0
 51
0.0
 71
     0
 72
   100
 73
     1
 74
     1
 75
     0
 76
     0
 77
     0
 78
     0
  0
ENDTAB
  0
TABLE
  2
LTYPE
  5
5
330
0
100
AcDbSymbolTable
 70
     5
  0
LTYPE
  5
14
330
5
100
AcDbSymbolTableRecord
100
AcDbLinetypeTableRecord
  2
BYBLOCK
 70
     0
  3

 72
    65
 73
     0
 40
0.0
  0
LTYPE
  5
15
330
5
100
AcDbSymbolTableRecord
100
AcDbLinetypeTableRecord
  2
BYLAYER
 70
     0
  3

 72
    65
 73
     0
 40
0.0
  0
LTYPE
  5
16
330
5
100
AcDbSymbolTableRecord
100
AcDbLinetypeTableRecord
  2
CONTINUOUS
 70
     0
  3
Solid line
 72
    65
 73
     0
 40
0.0
  0
LTYPE
  5
555
330
5
100
AcDbSymbolTableRecord
100
AcDbLinetypeTableRecord
  2
CENTER
 70
     0
  3
Center ____ _ ____ _ ____ _ ____ _ ____ _ ____
 72
    65
 73
     4
 40
50.8
 49
31.75
 74
     0
 49
-6.349999999999999
 74
     0
 49
6.349999999999999
 74
     0
 49
-6.349999999999999
 74
     0
  0
LTYPE
  5
556
330
5
100
AcDbSymbolTableRecord
100
AcDbLinetypeTableRecord
  2
HIDDEN
 70
     0
  3
Hidden __ __ __ __ __ __ __ __ __ __ __ __ __ _
 72
    65
 73
     2
 40
9.524999999999998
 49
6.349999999999999
 74
     0
 49
-3.174999999999999
 74
     0
  0
LTYPE
  5
557
330
5
100
AcDbSymbolTableRecord
100
AcDbLinetypeTableRecord
  2
HIDDEN2
 70
     0
  3
Hidden (.5x) _ _ _ _ _ _ _ _ _ _ _ _ _ _ _ _ _
 72
    65
 73
     2
 40
4.762499999999999
 49
3.174999999999999
 74
     0
 49
-1.587499999999999
 74
     0
  0
LTYPE
  5
558
330
5
100
AcDbSymbolTableRecord
100
AcDbLinetypeTableRecord
  2
PHANTOM
 70
     0
  3
Phantom ______  __  __  ______  __  __  ______
 72
    65
 73
     6
 40
63.5
 49
31.75
 74
     0
 49
-6.349999999999999
 74
     0
 49
6.349999999999999
 74
     0
 49
-6.349999999999999
 74
     0
 49
6.349999999999999
 74
     0
 49
-6.349999999999999
 74
     0
  0
ENDTAB
  0
TABLE
  2
LAYER
  5
2
330
0
100
AcDbSymbolTable
 70
    22
  0
LAYER
  5
10
330
2
100
AcDbSymbolTableRecord
100
AcDbLayerTableRecord
  2
0
 70
     0
 62
     7
  6
CONTINUOUS
  0
LAYER
  5
75
330
2
100
AcDbSymbolTableRecord
100
AcDbLayerTableRecord
  2
VIEWPORT
 70
     0
 62
     1
  6
CONTINUOUS
  0
LAYER
  5
504
330
2
100
AcDbSymbolTableRecord
100
AcDbLayerTableRecord
  2
DEFPOINTS
 70
     0
 62
     7
  6
CONTINUOUS
  0
LAYER
  5
505
330
2
100
AcDbSymbolTableRecord
100
AcDbLayerTableRecord
  2
1C1
 70
     0
 62
   254
  6
CONTINUOUS
  0
LAYER
  5
506
330
2
100
AcDbSymbolTableRecord
100
AcDbLayerTableRecord
  2
1C2
 70
     0
 62
   254
  6
CONTINUOUS
  0
LAYER
  5
507
330
2
100
AcDbSymbolTableRecord
100
AcDbLayerTableRecord
  2
2C1
 70
     0
 62
   144
  6
CONTINUOUS
  0
LAYER
  5
508
330
2
100
AcDbSymbolTableRecord
100
AcDbLayerTableRecord
  2
2C2
 70
     0
 62
   144
  6
CONTINUOUS
  0
LAYER
  5
509
330
2
100
AcDbSymbolTableRecord
100
AcDbLayerTableRecord
  2
2H1
 70
     0
 62
   144
  6
HIDDEN
  0
LAYER
  5
50A
330
2
100
AcDbSymbolTableRecord
100
AcDbLayerTableRecord
  2
2H2
 70
     0
 62
   144
  6
HIDDEN2
  0
LAYER
  5
50B
330
2
100
AcDbSymbolTableRecord
100
AcDbLayerTableRecord
  2
2P1
 70
     0
 62
   144
  6
PHANTOM
  0
LAYER
  5
50C
330
2
100
AcDbSymbolTableRecord
100
AcDbLayerTableRecord
  2
3C1
 70
     0
 62
     7
  6
CONTINUOUS
  0
LAYER
  5
50D
330
2
100
AcDbSymbolTableRecord
100
AcDbLayerTableRecord
  2
3C2
 70
     0
 62
     7
  6
CONTINUOUS
  0
LAYER
  5
50E
330
2
100
AcDbSymbolTableRecord
100
AcDbLayerTableRecord
  2
3C3
 70
     0
 62
     7
  6
CONTINUOUS
  0
LAYER
  5
50F
330
2
100
AcDbSymbolTableRecord
100
AcDbLayerTableRecord
  2
4H1
 70
     0
 62
     6
  6
HIDDEN
  0
LAYER
  5
510
330
2
100
AcDbSymbolTableRecord
100
AcDbLayerTableRecord
  2
4H2
 70
     0
 62
     6
  6
HIDDEN2
  0
LAYER
  5
511
330
2
100
AcDbSymbolTableRecord
100
AcDbLayerTableRecord
  2
5C1
 70
     0
 62
    55
  6
CONTINUOUS
  0
LAYER
  5
512
330
2
100
AcDbSymbolTableRecord
100
AcDbLayerTableRecord
  2
5C2
 70
     0
 62
    55
  6
CONTINUOUS
  0
LAYER
  5
513
330
2
100
AcDbSymbolTableRecord
100
AcDbLayerTableRecord
  2
8C1
 70
     0
 62
    92
  6
CONTINUOUS
  0
LAYER
  5
514
330
2
100
AcDbSymbolTableRecord
100
AcDbLayerTableRecord
  2
HOJO
 70
     0
 62
     5
  6
CONTINUOUS
  0
LAYER
  5
515
330
2
100
AcDbSymbolTableRecord
100
AcDbLayerTableRecord
  2
KIJUN
 70
     0
 62
     1
  6
CENTER
  0
LAYER
  5
516
330
2
100
AcDbSymbolTableRecord
100
AcDbLayerTableRecord
  2
MOJI
 70
     0
 62
     7
  6
CONTINUOUS
  0
LAYER
  5
517
330
2
100
AcDbSymbolTableRecord
100
AcDbLayerTableRecord
  2
SUNPO
 70
     0
 62
   144
  6
CONTINUOUS
  0
ENDTAB
  0
TABLE
  2
STYLE
  5
3
330
0
100
AcDbSymbolTable
 70
     6
  0
STYLE
  5
11
330
3
100
AcDbSymbolTableRecord
100
AcDbTextStyleTableRecord
  2
STANDARD
 70
     0
 40
0.0
 41
1.0
 50
0.0
 71
     0
 42
2.5
  3
txt
  4

  0
STYLE
  5
2C
330
3
100
AcDbSymbolTableRecord
100
AcDbTextStyleTableRecord
  2

 70
     1
 40
0.0
 41
1.0
 50
0.0
 71
     0
 42
2.5
  3
ltypeshp.shx
  4

  0
STYLE
  5
18E
330
3
100
AcDbSymbolTableRecord
100
AcDbTextStyleTableRecord
  2
ADD
 70
     0
 40
0.0
 41
1.0
 50
0.0
 71
     0
 42
50.0
  3
romans.shx
  4
bigfont.shx
  0
STYLE
  5
191
330
3
100
AcDbSymbolTableRecord
100
AcDbTextStyleTableRecord
  2
MSG
 70
     0
 40
0.0
 41
1.0
 50
0.0
 71
     0
 42
2.5
  3
MS Gothic.ttf
  4

1001
ACAD
1000
MS Gothic
1071
    32817
  0
STYLE
  5
5C8
330
3
100
AcDbSymbolTableRecord
100
AcDbTextStyleTableRecord
  2
STANDARD15
 70
     0
 40
0.0
 41
1.0
 50
15.0
 71
     0
 42
2.5
  3
ROMANS
  4
bigfont
  0
STYLE
  5
5C9
330
3
100
AcDbSymbolTableRecord
100
AcDbTextStyleTableRecord
  2
ROMANS15
 70
     0
 40
0.0
 41
1.0
 50
15.0
 71
     0
 42
2.5
  3
romans
  4

  0
ENDTAB
  0
TABLE
  2
VIEW
  5
6
330
0
100
AcDbSymbolTable
 70
     1
  0
VIEW
  5
54D
330
6
100
AcDbSymbolTableRecord
100
AcDbViewTableRecord
  2
ALL
 70
     0
 40
594.0
 10
420.5
 20
297.0
 41
865.125
 11
0.0
 21
0.0
 31
1.0
 12
0.0
 22
0.0
 32
0.0
 42
50.0
 43
0.0
 44
0.0
 50
0.0
 71
     0
  0
ENDTAB
  0
TABLE
  2
UCS
  5
7
330
0
100
AcDbSymbolTable
 70
     0
  0
ENDTAB
  0
TABLE
  2
APPID
  5
9
330
0
100
AcDbSymbolTable
 70
     4
  0
APPID
  5
12
330
9
100
AcDbSymbolTableRecord
100
AcDbRegAppTableRecord
  2
ACAD
 70
     0
  0
APPID
  5
5CB
330
9
100
AcDbSymbolTableRecord
100
AcDbRegAppTableRecord
  2
ARAIGUMI_YOHEKI
 70
     0
  0
APPID
  5
5CC
330
9
100
AcDbSymbolTableRecord
100
AcDbRegAppTableRecord
  2
CONTENTTABDATA
 70
     0
  0
APPID
  5
5CD
330
9
100
AcDbSymbolTableRecord
100
AcDbRegAppTableRecord
  2
CONTENTCURRENTTAB
 70
     0
  0
ENDTAB
  0
TABLE
  2
DIMSTYLE
  5
A
330
0
100
AcDbSymbolTable
 70
    10
  0
DIMSTYLE
105
27
330
A
100
AcDbSymbolTableRecord
100
AcDbDimStyleTableRecord
  2
ISO-25
 70
     0
  3

  4

  5

  6

  7

 40
1.0
 41
2.5
 42
0.625
 43
3.75
 44
1.25
 45
0.0
 46
0.0
 47
0.0
 48
0.0
140
2.5
141
2.5
142
0.0
143
0.03937007874016
144
1.0
145
0.0
146
1.0
147
0.625
 71
     0
 72
     0
 73
     0
 74
     0
 75
     0
 76
     0
 77
     1
 78
     8
170
     0
171
     3
172
     1
173
     0
174
     0
175
     0
176
     0
177
     0
178
     0
270
     2
271
     2
272
     2
273
     2
274
     3
340
11
275
     0
280
     0
281
     0
282
     0
283
     0
284
     8
285
     0
286
     0
287
     3
288
     0
  0
DIMSTYLE
105
197
330
A
100
AcDbSymbolTableRecord
100
AcDbDimStyleTableRecord
  2
ADD
 70
     0
  3

  4

  5

  6

  7

 40
1.0
 41
2.5
 42
1.0
 43
7.0
 44
0.5
 45
0.0
 46
0.0
 47
0.0
 48
0.0
140
2.5
141
2.5
142
0.0
143
0.03937007874016
144
1.0
145
0.7
146
1.0
147
0.625
 71
     0
 72
     0
 73
     0
 74
     0
 75
     0
 76
     0
 77
     1
 78
     8
170
     0
171
     3
172
     1
173
     0
174
     1
175
     0
176
   144
177
   144
178
     7
270
     2
271
     1
272
     1
273
     2
274
     3
340
18E
275
     0
280
     0
281
     0
282
     0
283
     2
284
     8
285
     0
286
     0
287
     5
288
     0
  0
DIMSTYLE
105
3E6
330
A
100
AcDbSymbolTableRecord
100
AcDbDimStyleTableRecord
  2
ADD$2
 70
     0
  3

  4

  5

  6

  7

 40
1.0
 41
2.5
 42
1.0
 43
7.0
 44
0.5
 45
0.0
 46
0.0
 47
0.0
 48
0.0
140
2.5
141
2.5
142
0.0
143
0.03937007874016
144
1.0
145
0.7
146
1.0
147
0.625
 71
     0
 72
     0
 73
     0
 74
     0
 75
     0
 76
     0
 77
     1
 78
     8
170
     0
171
     3
172
     1
173
     0
174
     1
175
     0
176
   144
177
   144
178
     7
270
     2
271
     1
272
     1
273
     2
274
     3
340
18E
275
     0
280
     0
281
     0
282
     0
283
     2
284
     8
285
     0
286
     0
287
     5
288
     0
  0
DIMSTYLE
105
3E7
330
A
100
AcDbSymbolTableRecord
100
AcDbDimStyleTableRecord
  2
ADD$4
 70
     0
  3

  4

  5

  6

  7

 40
1.0
 41
2.5
 42
1.0
 43
7.0
 44
0.5
 45
0.0
 46
0.0
 47
0.0
 48
0.0
140
2.5
141
2.5
142
0.0
143
0.03937007874016
144
1.0
145
0.0
146
1.0
147
0.625
 71
     0
 72
     0
 73
     0
 74
     0
 75
     0
 76
     0
 77
     1
 78
     8
170
     0
171
     3
172
     1
173
     0
174
     1
175
     0
176
   144
177
   144
178
     7
270
     2
271
     1
272
     1
273
     2
274
     3
340
18E
275
     0
280
     0
281
     0
282
     0
283
     2
284
     8
285
     0
286
     0
287
     5
288
     0
  0
DIMSTYLE
105
3E8
330
A
100
AcDbSymbolTableRecord
100
AcDbDimStyleTableRecord
  2
ADD$3
 70
     0
  3

  4

  5

  6

  7

 40
1.0
 41
2.5
 42
1.0
 43
7.0
 44
0.5
 45
0.0
 46
0.0
 47
0.0
 48
0.0
140
2.5
141
2.5
142
0.0
143
0.03937007874016
144
1.0
145
0.0
146
1.0
147
0.625
 71
     0
 72
     0
 73
     0
 74
     0
 75
     0
 76
     0
 77
     1
 78
     8
170
     0
171
     3
172
     1
173
     0
174
     1
175
     0
176
   144
177
   144
178
     7
270
     2
271
     1
272
     1
273
     2
274
     3
340
18E
275
     0
280
     0
281
     0
282
     0
283
     2
284
     8
285
     0
286
     0
287
     5
288
     0
  0
DIMSTYLE
105
3E9
330
A
100
AcDbSymbolTableRecord
100
AcDbDimStyleTableRecord
  2
ADD$6
 70
     0
  3

  4

  5

  6

  7

 40
1.0
 41
2.5
 42
1.0
 43
7.0
 44
0.5
 45
0.0
 46
0.0
 47
0.0
 48
0.0
140
2.5
141
2.5
142
0.0
143
0.03937007874016
144
1.0
145
0.0
146
1.0
147
0.625
 71
     0
 72
     0
 73
     0
 74
     0
 75
     0
 76
     0
 77
     1
 78
     8
170
     0
171
     3
172
     1
173
     0
174
     1
175
     0
176
   144
177
   144
178
     7
270
     2
271
     1
272
     1
273
     2
274
     3
340
18E
275
     0
280
     0
281
     0
282
     0
283
     2
284
     8
285
     0
286
     0
287
     5
288
     0
  0
DIMSTYLE
105
3EA
330
A
100
AcDbSymbolTableRecord
100
AcDbDimStyleTableRecord
  2
ADD$7
 70
     0
  3

  4

  5

  6

  7

 40
1.0
 41
2.5
 42
1.0
 43
7.0
 44
0.5
 45
0.0
 46
0.0
 47
0.0
 48
0.0
140
2.5
141
2.5
142
0.0
143
0.03937007874016
144
1.0
145
0.0
146
1.0
147
0.625
 71
     0
 72
     0
 73
     0
 74
     0
 75
     0
 76
     0
 77
     0
 78
     8
170
     0
171
     3
172
     1
173
     0
174
     1
175
     0
176
   144
177
   144
178
     7
270
     2
271
     1
272
     1
273
     2
274
     3
340
18E
275
     0
280
     0
281
     0
282
     0
283
     2
284
     8
285
     0
286
     0
287
     5
288
     0
  0
DIMSTYLE
105
518
330
A
100
AcDbSymbolTableRecord
100
AcDbDimStyleTableRecord
  2
STANDARD
 70
     0
  3

  4

  5

  6

  7

 40
1.0
 41
0.18
 42
0.0625
 43
0.38
 44
0.18
 45
0.0
 46
0.0
 47
0.0
 48
0.0
140
0.18
141
0.09
142
0.0
143
25.4
144
1.0
145
0.0
146
1.0
147
0.09
 71
     0
 72
     0
 73
     1
 74
     1
 75
     0
 76
     0
 77
     0
 78
     0
170
     0
171
     2
172
     0
173
     0
174
     0
175
     0
176
     0
177
     0
178
     0
270
     2
271
     4
272
     4
273
     2
274
     2
340
11
275
     0
280
     0
281
     0
282
     0
283
     1
284
     0
285
     0
286
     0
287
     3
288
     0
  0
DIMSTYLE
105
550
330
A
100
AcDbSymbolTableRecord
100
AcDbDimStyleTableRecord
  2
ADD$0
 70
     0
  3

  4

  5

  6

  7

 40
1.0
 41
0.7
 42
1.0
 43
7.0
 44
0.5
 45
0.0
 46
0.0
 47
0.0
 48
0.0
140
2.5
141
2.5
142
0.0
143
0.03937007874016
144
1.0
145
0.7
146
1.0
147
0.625
 71
     0
 72
     0
 73
     0
 74
     0
 75
     0
 76
     0
 77
     1
 78
     8
170
     0
171
     3
172
     1
173
     0
174
     1
175
     0
176
   144
177
   144
178
     7
270
     2
271
     1
272
     1
273
     2
274
     3
340
18E
275
     0
280
     0
281
     0
282
     0
283
     2
284
     8
285
     0
286
     0
287
     5
288
     0
  0
DIMSTYLE
105
59B
330
A
100
AcDbSymbolTableRecord
100
AcDbDimStyleTableRecord
  2
ADD_M
 70
     0
  3

  4

  5

  6

  7

 40
1.0
 41
2.5
 42
1.0
 43
7.0
 44
0.5
 45
0.0
 46
0.0
 47
0.0
 48
0.0
140
2.5
141
2.5
142
0.0
143
0.03937007874016
144
1.0
145
0.7
146
1.0
147
0.625
 71
     0
 72
     0
 73
     0
 74
     0
 75
     0
 76
     0
 77
     1
 78
     8
170
     0
171
     3
172
     1
173
     0
174
     1
175
     0
176
   144
177
   144
178
     7
270
     2
271
     1
272
     1
273
     2
274
     3
340
18E
275
     0
280
     0
281
     0
282
     0
283
     2
284
     8
285
     0
286
     0
287
     5
288
     0
  0
ENDTAB
  0
TABLE
  2
BLOCK_RECORD
  5
1
330
0
100
AcDbSymbolTable
 70
    12
  0
BLOCK_RECORD
  5
1F
102
{ACAD_XDICTIONARY
360
772
102
}
330
1
100
AcDbSymbolTableRecord
100
AcDbBlockTableRecord
  2
*MODEL_SPACE
  0
BLOCK_RECORD
  5
1B
102
{ACAD_XDICTIONARY
360
774
102
}
330
1
100
AcDbSymbolTableRecord
100
AcDbBlockTableRecord
  2
*PAPER_SPACE
  0
BLOCK_RECORD
  5
192
330
1
100
AcDbSymbolTableRecord
100
AcDbBlockTableRecord
  2
_DOT
  0
BLOCK_RECORD
  5
5CE
330
1
100
AcDbSymbolTableRecord
100
AcDbBlockTableRecord
  2
A4
  0
BLOCK_RECORD
  5
64C
330
1
100
AcDbSymbolTableRecord
100
AcDbBlockTableRecord
  2
*D2
  0
BLOCK_RECORD
  5
659
330
1
100
AcDbSymbolTableRecord
100
AcDbBlockTableRecord
  2
*D3
  0
BLOCK_RECORD
  5
666
330
1
100
AcDbSymbolTableRecord
100
AcDbBlockTableRecord
  2
*D4
  0
BLOCK_RECORD
  5
674
330
1
100
AcDbSymbolTableRecord
100
AcDbBlockTableRecord
  2
*D5
  0
BLOCK_RECORD
  5
68B
330
1
100
AcDbSymbolTableRecord
100
AcDbBlockTableRecord
  2
*D6
  0
BLOCK_RECORD
  5
695
330
1
100
AcDbSymbolTableRecord
100
AcDbBlockTableRecord
  2
*D7
  0
BLOCK_RECORD
  5
6C1
330
1
100
AcDbSymbolTableRecord
100
AcDbBlockTableRecord
  2
*D8
  0
BLOCK_RECORD
  5
6CB
330
1
100
AcDbSymbolTableRecord
100
AcDbBlockTableRecord
  2
*D9
  0
BLOCK_RECORD
  5
75B
330
1
100
AcDbSymbolTableRecord
100
AcDbBlockTableRecord
  2
*D10
  0
BLOCK_RECORD
  5
768
330
1
100
AcDbSymbolTableRecord
100
AcDbBlockTableRecord
  2
*D11
  0
ENDTAB
  0
ENDSEC
  0
SECTION
  2
BLOCKS
  0
BLOCK
  5
20
330
1F
100
AcDbEntity
  8
0
100
AcDbBlockBegin
  2
*MODEL_SPACE
 70
     0
 10
0.0
 20
0.0
 30
0.0
  3
*MODEL_SPACE
  1

  0
ENDBLK
  5
21
330
1F
100
AcDbEntity
  8
0
100
AcDbBlockEnd
  0
BLOCK
  5
1C
330
1B
100
AcDbEntity
 67
     1
  8
0
100
AcDbBlockBegin
  2
*PAPER_SPACE
 70
     0
 10
0.0
 20
0.0
 30
0.0
  3
*PAPER_SPACE
  1

  0
ENDBLK
  5
1D
330
1B
100
AcDbEntity
 67
     1
  8
0
100
AcDbBlockEnd
  0
BLOCK
  5
195
330
192
100
AcDbEntity
  8
0
100
AcDbBlockBegin
  2
_DOT
 70
     0
 10
0.0
 20
0.0
 30
0.0
  3
_DOT
  1

  0
POLYLINE
  5
193
330
192
100
AcDbEntity
  8
0
 62
     0
100
AcDb2dPolyline
 66
     1
 10
0.0
 20
0.0
 30
0.0
 70
     1
 40
0.5
 41
0.5
  0
VERTEX
  5
8A5
330
193
100
AcDbEntity
  8
0
 62
     0
100
AcDbVertex
100
AcDb2dVertex
 10
-0.25
 20
0.0
 30
0.0
 42
1.0
  0
VERTEX
  5
8A6
330
193
100
AcDbEntity
  8
0
 62
     0
100
AcDbVertex
100
AcDb2dVertex
 10
0.25
 20
0.0
 30
0.0
 42
1.0
  0
SEQEND
  5
8A7
330
193
100
AcDbEntity
  8
0
 62
     0
  0
LINE
  5
194
330
192
100
AcDbEntity
  8
0
 62
     0
100
AcDbLine
 10
-0.5
 20
0.0
 30
0.0
 11
-1.0
 21
0.0
 31
0.0
  0
ENDBLK
  5
196
330
192
100
AcDbEntity
  8
0
100
AcDbBlockEnd
  0
BLOCK
  5
5D1
330
5CE
100
AcDbEntity
  8
0
100
AcDbBlockBegin
  2
A4
 70
     0
 10
0.0
 20
0.0
 30
0.0
  3
A4
  1

  0
POLYLINE
  5
5CF
330
5CE
100
AcDbEntity
  8
HOJO
100
AcDb2dPolyline
 66
     1
 10
0.0
 20
0.0
 30
0.0
 70
     1
  0
VERTEX
  5
8A8
330
5CF
100
AcDbEntity
  8
HOJO
100
AcDbVertex
100
AcDb2dVertex
 10
0.0
 20
0.0
 30
0.0
  0
VERTEX
  5
8A9
330
5CF
100
AcDbEntity
  8
HOJO
100
AcDbVertex
100
AcDb2dVertex
 10
297.0
 20
0.0
 30
0.0
  0
VERTEX
  5
8AA
330
5CF
100
AcDbEntity
  8
HOJO
100
AcDbVertex
100
AcDb2dVertex
 10
297.0
 20
210.0
 30
0.0
  0
VERTEX
  5
8AB
330
5CF
100
AcDbEntity
  8
HOJO
100
AcDbVertex
100
AcDb2dVertex
 10
0.0
 20
210.0
 30
0.0
  0
SEQEND
  5
8AC
330
5CF
100
AcDbEntity
  8
HOJO
  0
POLYLINE
  5
5D0
330
5CE
100
AcDbEntity
  8
HOJO
100
AcDb2dPolyline
 66
     1
 10
0.0
 20
0.0
 30
0.0
 70
     1
  0
VERTEX
  5
8AD
330
5D0
100
AcDbEntity
  8
HOJO
100
AcDbVertex
100
AcDb2dVertex
 10
18.0
 20
13.0
 30
0.0
  0
VERTEX
  5
8AE
330
5D0
100
AcDbEntity
  8
HOJO
100
AcDbVertex
100
AcDb2dVertex
 10
279.0
 20
13.0
 30
0.0
  0
VERTEX
  5
8AF
330
5D0
100
AcDbEntity
  8
HOJO
100
AcDbVertex
100
AcDb2dVertex
 10
279.0
 20
197.0
 30
0.0
  0
VERTEX
  5
8B0
330
5D0
100
AcDbEntity
  8
HOJO
100
AcDbVertex
100
AcDb2dVertex
 10
18.0
 20
197.0
 30
0.0
  0
SEQEND
  5
8B1
330
5D0
100
AcDbEntity
  8
HOJO
  0
ENDBLK
  5
5D2
330
5CE
100
AcDbEntity
  8
0
100
AcDbBlockEnd
  0
BLOCK
  5
656
330
64C
100
AcDbEntity
  8
0
100
AcDbBlockBegin
  2
*D2
 70
     1
 10
0.0
 20
0.0
 30
0.0
  3
*D2
  1

  0
LINE
  5
64D
330
64C
100
AcDbEntity
  8
SUNPO
 62
   144
100
AcDbLine
 10
1548.801167603727
 20
1781.587694921172
 30
0.0
 11
1548.801167603727
 21
1814.509047748994
 31
0.0
  0
LINE
  5
64E
330
64C
100
AcDbEntity
  8
SUNPO
 62
   144
100
AcDbLine
 10
1728.801167603728
 20
1781.587694921172
 30
0.0
 11
1728.801167603728
 21
1814.509047748994
 31
0.0
  0
LINE
  5
64F
330
64C
100
AcDbEntity
  8
SUNPO
 62
   144
100
AcDbLine
 10
1562.801167603727
 20
1804.509047748993
 30
0.0
 11
1714.801167603727
 21
1804.509047748993
 31
0.0
  0
SOLID
  5
650
330
64C
100
AcDbEntity
  8
SUNPO
 62
   144
100
AcDbTrace
 10
1562.801167603727
 20
1806.842381082327
 30
0.0
 11
1562.801167603727
 21
1802.17571441566
 31
0.0
 12
1548.801167603727
 22
1804.509047748993
 32
0.0
 13
1548.801167603727
 23
1804.509047748993
 33
0.0
  0
SOLID
  5
651
330
64C
100
AcDbEntity
  8
SUNPO
 62
   144
100
AcDbTrace
 10
1714.801167603727
 20
1806.842381082327
 30
0.0
 11
1714.801167603727
 21
1802.17571441566
 31
0.0
 12
1728.801167603728
 22
1804.509047748993
 32
0.0
 13
1728.801167603728
 23
1804.509047748993
 33
0.0
  0
MTEXT
  5
652
330
64C
100
AcDbEntity
  8
SUNPO
 62
     7
100
AcDbMText
 10
1638.801167603727
 20
1842.009047748994
 30
0.0
 40
50.0
 41
0.0
 71
     5
 72
     1
  1
\A2;180
  7
ADD
1001
ACAD
1000
MTEXTBEGIN
1070
    73
1070
     1
1070
    44
1040
1.0
1070
    74
1070
     0
1000
MTEXTEND
  0
POINT
  5
653
330
64C
100
AcDbEntity
  8
DEFPOINTS
 62
     0
100
AcDbPoint
 10
1548.801167603727
 20
1761.587694921172
 30
0.0
  0
POINT
  5
654
330
64C
100
AcDbEntity
  8
DEFPOINTS
 62
     0
100
AcDbPoint
 10
1728.801167603728
 20
1761.587694921172
 30
0.0
  0
POINT
  5
655
330
64C
100
AcDbEntity
  8
DEFPOINTS
 62
     0
100
AcDbPoint
 10
1728.801167603728
 20
1804.509047748993
 30
0.0
  0
ENDBLK
  5
657
330
64C
100
AcDbEntity
  8
0
100
AcDbBlockEnd
  0
BLOCK
  5
663
330
659
100
AcDbEntity
  8
0
100
AcDbBlockBegin
  2
*D3
 70
     1
 10
0.0
 20
0.0
 30
0.0
  3
*D3
  1

  0
LINE
  5
65A
330
659
100
AcDbEntity
  8
SUNPO
 62
   144
100
AcDbLine
 10
1548.801167603727
 20
1481.587694921172
 30
0.0
 11
1548.801167603727
 21
1393.683488679753
 31
0.0
  0
LINE
  5
65B
330
659
100
AcDbEntity
  8
SUNPO
 62
   144
100
AcDbLine
 10
1753.801167603727
 20
1481.587694921172
 30
0.0
 11
1753.801167603727
 21
1393.683488679753
 31
0.0
  0
LINE
  5
65C
330
659
100
AcDbEntity
  8
SUNPO
 62
   144
100
AcDbLine
 10
1562.801167603727
 20
1403.683488679753
 30
0.0
 11
1739.801167603727
 21
1403.683488679753
 31
0.0
  0
SOLID
  5
65D
330
659
100
AcDbEntity
  8
SUNPO
 62
   144
100
AcDbTrace
 10
1562.801167603727
 20
1406.016822013086
 30
0.0
 11
1562.801167603727
 21
1401.35015534642
 31
0.0
 12
1548.801167603727
 22
1403.683488679753
 32
0.0
 13
1548.801167603727
 23
1403.683488679753
 33
0.0
  0
SOLID
  5
65E
330
659
100
AcDbEntity
  8
SUNPO
 62
   144
100
AcDbTrace
 10
1739.801167603727
 20
1406.016822013086
 30
0.0
 11
1739.801167603727
 21
1401.35015534642
 31
0.0
 12
1753.801167603727
 22
1403.683488679753
 32
0.0
 13
1753.801167603727
 23
1403.683488679753
 33
0.0
  0
MTEXT
  5
65F
330
659
100
AcDbEntity
  8
SUNPO
 62
     7
100
AcDbMText
 10
1651.301167603727
 20
1441.183488679753
 30
0.0
 40
50.0
 41
0.0
 71
     5
 72
     1
  1
\A2;205
  7
ADD
1001
ACAD
1000
MTEXTBEGIN
1070
    73
1070
     1
1070
    44
1040
1.0
1070
    74
1070
     0
1000
MTEXTEND
  0
POINT
  5
660
330
659
100
AcDbEntity
  8
DEFPOINTS
 62
     0
100
AcDbPoint
 10
1548.801167603727
 20
1501.587694921172
 30
0.0
  0
POINT
  5
661
330
659
100
AcDbEntity
  8
DEFPOINTS
 62
     0
100
AcDbPoint
 10
1753.801167603727
 20
1501.587694921172
 30
0.0
  0
POINT
  5
662
330
659
100
AcDbEntity
  8
DEFPOINTS
 62
     0
100
AcDbPoint
 10
1753.801167603727
 20
1403.683488679753
 30
0.0
  0
ENDBLK
  5
664
330
659
100
AcDbEntity
  8
0
100
AcDbBlockEnd
  0
BLOCK
  5
670
330
666
100
AcDbEntity
  8
0
100
AcDbBlockBegin
  2
*D4
 70
     1
 10
0.0
 20
0.0
 30
0.0
  3
*D4
  1

  0
LINE
  5
667
330
666
100
AcDbEntity
  8
SUNPO
 62
   144
100
AcDbLine
 10
1778.801167603727
 20
1756.587694921172
 30
0.0
 11
1854.087533395652
 21
1756.587694921172
 31
0.0
  0
LINE
  5
668
330
666
100
AcDbEntity
  8
SUNPO
 62
   144
100
AcDbLine
 10
1778.801167603727
 20
1506.587694921172
 30
0.0
 11
1854.087533395652
 21
1506.587694921172
 31
0.0
  0
LINE
  5
669
330
666
100
AcDbEntity
  8
SUNPO
 62
   144
100
AcDbLine
 10
1844.087533395652
 20
1742.587694921172
 30
0.0
 11
1844.087533395652
 21
1520.587694921172
 31
0.0
  0
SOLID
  5
66A
330
666
100
AcDbEntity
  8
SUNPO
 62
   144
100
AcDbTrace
 10
1841.754200062318
 20
1742.587694921172
 30
0.0
 11
1846.420866728985
 21
1742.587694921172
 31
0.0
 12
1844.087533395652
 22
1756.587694921172
 32
0.0
 13
1844.087533395652
 23
1756.587694921172
 33
0.0
  0
SOLID
  5
66B
330
666
100
AcDbEntity
  8
SUNPO
 62
   144
100
AcDbTrace
 10
1841.754200062318
 20
1520.587694921172
 30
0.0
 11
1846.420866728985
 21
1520.587694921172
 31
0.0
 12
1844.087533395652
 22
1506.587694921172
 32
0.0
 13
1844.087533395652
 23
1506.587694921172
 33
0.0
  0
MTEXT
  5
66C
330
666
100
AcDbEntity
  8
SUNPO
 62
     7
100
AcDbMText
 10
1806.587533395651
 20
1631.587694921173
 30
0.0
 40
50.0
 41
0.0
 71
     5
 72
     1
  1
\A2;250
  7
ADD
 11
0.0000000000000001
 21
1.0
 31
0.0
1001
ACAD
1000
MTEXTBEGIN
1070
    73
1070
     1
1070
    44
1040
1.0
1070
    74
1070
     0
1000
MTEXTEND
  0
POINT
  5
66D
330
666
100
AcDbEntity
  8
DEFPOINTS
 62
     0
100
AcDbPoint
 10
1758.801167603727
 20
1756.587694921172
 30
0.0
  0
POINT
  5
66E
330
666
100
AcDbEntity
  8
DEFPOINTS
 62
     0
100
AcDbPoint
 10
1758.801167603727
 20
1506.587694921172
 30
0.0
  0
POINT
  5
66F
330
666
100
AcDbEntity
  8
DEFPOINTS
 62
     0
100
AcDbPoint
 10
1844.087533395652
 20
1506.587694921172
 30
0.0
  0
ENDBLK
  5
671
330
666
100
AcDbEntity
  8
0
100
AcDbBlockEnd
  0
BLOCK
  5
67E
330
674
100
AcDbEntity
  8
0
100
AcDbBlockBegin
  2
*D5
 70
     1
 10
0.0
 20
0.0
 30
0.0
  3
*D5
  1

  0
LINE
  5
675
330
674
100
AcDbEntity
  8
SUNPO
 62
   144
100
AcDbLine
 10
2151.536884090093
 20
1481.587694921172
 30
0.0
 11
2151.536884090093
 21
1393.683488679753
 31
0.0
  0
LINE
  5
676
330
674
100
AcDbEntity
  8
SUNPO
 62
   144
100
AcDbLine
 10
2751.536884090093
 20
1481.587694921172
 30
0.0
 11
2751.536884090093
 21
1393.683488679753
 31
0.0
  0
LINE
  5
677
330
674
100
AcDbEntity
  8
SUNPO
 62
   144
100
AcDbLine
 10
2165.536884090093
 20
1403.683488679753
 30
0.0
 11
2737.536884090093
 21
1403.683488679753
 31
0.0
  0
SOLID
  5
678
330
674
100
AcDbEntity
  8
SUNPO
 62
   144
100
AcDbTrace
 10
2165.536884090093
 20
1406.016822013086
 30
0.0
 11
2165.536884090093
 21
1401.35015534642
 31
0.0
 12
2151.536884090093
 22
1403.683488679753
 32
0.0
 13
2151.536884090093
 23
1403.683488679753
 33
0.0
  0
SOLID
  5
679
330
674
100
AcDbEntity
  8
SUNPO
 62
   144
100
AcDbTrace
 10
2737.536884090093
 20
1406.016822013086
 30
0.0
 11
2737.536884090093
 21
1401.35015534642
 31
0.0
 12
2751.536884090093
 22
1403.683488679753
 32
0.0
 13
2751.536884090093
 23
1403.683488679753
 33
0.0
  0
MTEXT
  5
67A
330
674
100
AcDbEntity
  8
SUNPO
 62
     7
100
AcDbMText
 10
2451.536884090093
 20
1441.183488679753
 30
0.0
 40
50.0
 41
0.0
 71
     5
 72
     1
  1
\A2;600
  7
ADD
1001
ACAD
1000
MTEXTBEGIN
1070
    73
1070
     1
1070
    44
1040
1.0
1070
    74
1070
     0
1000
MTEXTEND
  0
POINT
  5
67B
330
674
100
AcDbEntity
  8
DEFPOINTS
 62
     0
100
AcDbPoint
 10
2151.536884090093
 20
1501.587694921172
 30
0.0
  0
POINT
  5
67C
330
674
100
AcDbEntity
  8
DEFPOINTS
 62
     0
100
AcDbPoint
 10
2751.536884090093
 20
1501.587694921172
 30
0.0
  0
POINT
  5
67D
330
674
100
AcDbEntity
  8
DEFPOINTS
 62
     0
100
AcDbPoint
 10
2751.536884090093
 20
1403.683488679753
 30
0.0
  0
ENDBLK
  5
67F
330
674
100
AcDbEntity
  8
0
100
AcDbBlockEnd
  0
BLOCK
  5
692
330
68B
100
AcDbEntity
  8
0
100
AcDbBlockBegin
  2
*D6
 70
     1
 10
0.0
 20
0.0
 30
0.0
  3
*D6
  1

  0
LINE
  5
68C
330
68B
100
AcDbEntity
  8
SUNPO
 62
   144
100
AcDbLine
 10
1388.006917771374
 20
1936.374037024156
 30
0.0
 11
1524.975082008706
 21
1785.771751131586
 31
0.0
  0
MTEXT
  5
68D
330
68B
100
AcDbEntity
  8
SUNPO
 62
     7
100
AcDbMText
 10
1467.412874490228
 20
1904.798889266292
 30
0.0
 40
50.0
 41
0.0
 71
     5
 72
     1
  1
\A2;R30
  7
ADD
 11
0.6728260699377687
 21
-0.7398007026301725
 31
0.0
1001
ACAD
1000
MTEXTBEGIN
1070
    73
1070
     1
1070
    44
1040
1.0
1070
    74
1070
     0
1000
MTEXTEND
  0
LINE
  5
68E
330
68B
100
AcDbEntity
  8
SUNPO
 62
   144
100
AcDbLine
 10
1578.801167603727
 20
1726.587694921172
 30
0.0
 11
1558.616385505594
 21
1748.781716000077
 31
0.0
  0
SOLID
  5
68F
330
68B
100
AcDbEntity
  8
SUNPO
 62
   144
100
AcDbTrace
 10
1531.140087863957
 20
1791.378635047734
 30
0.0
 11
1518.810076153454
 21
1780.164867215438
 31
0.0
 12
1558.616385505594
 22
1748.781716000077
 32
0.0
 13
1558.616385505594
 23
1748.781716000077
 33
0.0
  0
POINT
  5
690
330
68B
100
AcDbEntity
  8
DEFPOINTS
 62
     0
100
AcDbPoint
 10
1558.616385505594
 20
1748.781716000077
 30
0.0
  0
POINT
  5
691
330
68B
100
AcDbEntity
  8
DEFPOINTS
 62
     0
100
AcDbPoint
 10
1578.801167603727
 20
1726.587694921172
 30
0.0
  0
ENDBLK
  5
693
330
68B
100
AcDbEntity
  8
0
100
AcDbBlockEnd
  0
BLOCK
  5
69C
330
695
100
AcDbEntity
  8
0
100
AcDbBlockBegin
  2
*D7
 70
     1
 10
0.0
 20
0.0
 30
0.0
  3
*D7
  1

  0
LINE
  5
696
330
695
100
AcDbEntity
  8
SUNPO
 62
   144
100
AcDbLine
 10
1904.340402521661
 20
1924.905572107882
 30
0.0
 11
1758.83328512199
 21
1782.536315185432
 31
0.0
  0
MTEXT
  5
697
330
695
100
AcDbEntity
  8
SUNPO
 62
     7
100
AcDbMText
 10
1823.230223192211
 20
1898.008830158126
 30
0.0
 40
50.0
 41
0.0
 71
     5
 72
     1
  1
\A2;R30
  7
ADD
 11
0.714771804770317
 21
0.6993577533032603
 31
0.0
1001
ACAD
1000
MTEXTBEGIN
1070
    73
1070
     1
1070
    44
1040
1.0
1070
    74
1070
     0
1000
MTEXTEND
  0
LINE
  5
698
330
695
100
AcDbEntity
  8
SUNPO
 62
   144
100
AcDbLine
 10
1701.651540740364
 20
1726.587694921172
 30
0.0
 11
1723.094694883473
 21
1747.56842752027
 31
0.0
  0
SOLID
  5
699
330
695
100
AcDbEntity
  8
SUNPO
 62
   144
100
AcDbTrace
 10
1753.005303844462
 20
1788.492746891852
 30
0.0
 11
1764.661266399517
 21
1776.579883479013
 31
0.0
 12
1723.094694883473
 22
1747.56842752027
 32
0.0
 13
1723.094694883473
 23
1747.56842752027
 33
0.0
  0
POINT
  5
69A
330
695
100
AcDbEntity
  8
DEFPOINTS
 62
     0
100
AcDbPoint
 10
1723.094694883473
 20
1747.56842752027
 30
0.0
  0
POINT
  5
69B
330
695
100
AcDbEntity
  8
DEFPOINTS
 62
     0
100
AcDbPoint
 10
1701.651540740364
 20
1726.587694921172
 30
0.0
  0
ENDBLK
  5
69D
330
695
100
AcDbEntity
  8
0
100
AcDbBlockEnd
  0
BLOCK
  5
6C8
330
6C1
100
AcDbEntity
  8
0
100
AcDbBlockBegin
  2
*D8
 70
     1
 10
0.0
 20
0.0
 30
0.0
  3
*D8
  1

  0
LINE
  5
6C2
330
6C1
100
AcDbEntity
  8
SUNPO
 62
   144
100
AcDbLine
 10
1366.151188064019
 20
1818.362984889845
 30
0.0
 11
1518.809233829301
 21
1683.689871041024
 31
0.0
  0
MTEXT
  5
6C3
330
6C1
100
AcDbEntity
  8
SUNPO
 62
     7
100
AcDbMText
 10
1448.540936824829
 20
1795.686450377315
 30
0.0
 40
50.0
 41
0.0
 71
     5
 72
     1
  1
\A2;R30
  7
ADD
 11
0.7498991721803307
 21
-0.6615521382047334
 31
0.0
1001
ACAD
1000
MTEXTBEGIN
1070
    73
1070
     1
1070
    44
1040
1.0
1070
    74
1070
     0
1000
MTEXTEND
  0
LINE
  5
6C4
330
6C1
100
AcDbEntity
  8
SUNPO
 62
   144
100
AcDbLine
 10
1578.801167603727
 20
1630.765699984645
 30
0.0
 11
1556.304192438317
 21
1650.612264130788
 31
0.0
  0
SOLID
  5
6C5
330
6C1
100
AcDbEntity
  8
SUNPO
 62
   144
100
AcDbTrace
 10
1524.32216831434
 20
1689.939030809194
 30
0.0
 11
1513.296299344261
 21
1677.440711272855
 31
0.0
 12
1556.304192438317
 22
1650.612264130788
 32
0.0
 13
1556.304192438317
 23
1650.612264130788
 33
0.0
  0
POINT
  5
6C6
330
6C1
100
AcDbEntity
  8
DEFPOINTS
 62
     0
100
AcDbPoint
 10
1556.304192438317
 20
1650.612264130788
 30
0.0
  0
POINT
  5
6C7
330
6C1
100
AcDbEntity
  8
DEFPOINTS
 62
     0
100
AcDbPoint
 10
1578.801167603727
 20
1630.765699984645
 30
0.0
  0
ENDBLK
  5
6C9
330
6C1
100
AcDbEntity
  8
0
100
AcDbBlockEnd
  0
BLOCK
  5
6D2
330
6CB
100
AcDbEntity
  8
0
100
AcDbBlockBegin
  2
*D9
 70
     1
 10
0.0
 20
0.0
 30
0.0
  3
*D9
  1

  0
LINE
  5
6D4
330
6CB
100
AcDbEntity
  8
SUNPO
 62
   144
100
AcDbLine
 10
1453.098217931669
 20
1513.38253582668
 30
0.0
 11
1638.409613035369
 21
1597.650046620181
 31
0.0
  0
MTEXT
  5
6D5
330
6CB
100
AcDbEntity
  8
SUNPO
 62
     7
100
AcDbMText
 10
1507.47341321935
 20
1579.303959171402
 30
0.0
 40
50.0
 41
0.0
 71
     5
 72
     1
  1
\A2;R30
  7
ADD
 11
0.9103015899830866
 21
0.4139456670557918
 31
0.0
1001
ACAD
1000
MTEXTBEGIN
1070
    73
1070
     1
1070
    44
1040
1.0
1070
    74
1070
     0
1000
MTEXTEND
  0
LINE
  5
6D6
330
6CB
100
AcDbEntity
  8
SUNPO
 62
   144
100
AcDbLine
 10
1711.233740234017
 20
1630.765699984645
 30
0.0
 11
1683.924692534523
 21
1618.34732997297
 31
0.0
  0
SOLID
  5
6D7
330
6CB
100
AcDbEntity
  8
SUNPO
 62
   144
100
AcDbTrace
 10
1634.960065809904
 20
1605.235893203374
 30
0.0
 11
1641.859160260834
 21
1590.064200036989
 31
0.0
 12
1683.924692534523
 22
1618.34732997297
 32
0.0
 13
1683.924692534523
 23
1618.34732997297
 33
0.0
  0
POINT
  5
6D8
330
6CB
100
AcDbEntity
  8
DEFPOINTS
 62
     0
100
AcDbPoint
 10
1683.924692534523
 20
1618.34732997297
 30
0.0
  0
POINT
  5
6D9
330
6CB
100
AcDbEntity
  8
DEFPOINTS
 62
     0
100
AcDbPoint
 10
1711.233740234017
 20
1630.765699984645
 30
0.0
  0
ENDBLK
  5
6D3
330
6CB
100
AcDbEntity
  8
0
100
AcDbBlockEnd
  0
BLOCK
  5
765
330
75B
100
AcDbEntity
  8
0
100
AcDbBlockBegin
  2
*D10
 70
     1
 10
0.0
 20
0.0
 30
0.0
  3
*D10
  1

  0
LINE
  5
75C
330
75B
100
AcDbEntity
  8
SUNPO
 62
   144
100
AcDbLine
 10
2771.536884090093
 20
1506.587694921172
 30
0.0
 11
2918.239657706208
 21
1506.587694921172
 31
0.0
  0
LINE
  5
75D
330
75B
100
AcDbEntity
  8
SUNPO
 62
   144
100
AcDbLine
 10
2771.536884090093
 20
1656.587694921172
 30
0.0
 11
2918.239657706208
 21
1656.587694921172
 31
0.0
  0
LINE
  5
75E
330
75B
100
AcDbEntity
  8
SUNPO
 62
   144
100
AcDbLine
 10
2908.239657706208
 20
1520.587694921172
 30
0.0
 11
2908.239657706208
 21
1642.587694921172
 31
0.0
  0
SOLID
  5
75F
330
75B
100
AcDbEntity
  8
SUNPO
 62
   144
100
AcDbTrace
 10
2905.906324372875
 20
1520.587694921172
 30
0.0
 11
2910.572991039542
 21
1520.587694921172
 31
0.0
 12
2908.239657706208
 22
1506.587694921172
 32
0.0
 13
2908.239657706208
 23
1506.587694921172
 33
0.0
  0
SOLID
  5
760
330
75B
100
AcDbEntity
  8
SUNPO
 62
   144
100
AcDbTrace
 10
2905.906324372875
 20
1642.587694921172
 30
0.0
 11
2910.572991039542
 21
1642.587694921172
 31
0.0
 12
2908.239657706208
 22
1656.587694921172
 32
0.0
 13
2908.239657706208
 23
1656.587694921172
 33
0.0
  0
MTEXT
  5
761
330
75B
100
AcDbEntity
  8
SUNPO
 62
     7
100
AcDbMText
 10
2870.739657706208
 20
1581.587694921172
 30
0.0
 40
50.0
 41
0.0
 71
     5
 72
     1
  1
\A2;150
  7
ADD
 11
0.0000000000000001
 21
1.0
 31
0.0
1001
ACAD
1000
MTEXTBEGIN
1070
    73
1070
     1
1070
    44
1040
1.0
1070
    74
1070
     0
1000
MTEXTEND
  0
POINT
  5
762
330
75B
100
AcDbEntity
  8
DEFPOINTS
 62
     0
100
AcDbPoint
 10
2751.536884090093
 20
1506.587694921172
 30
0.0
  0
POINT
  5
763
330
75B
100
AcDbEntity
  8
DEFPOINTS
 62
     0
100
AcDbPoint
 10
2751.536884090093
 20
1656.587694921172
 30
0.0
  0
POINT
  5
764
330
75B
100
AcDbEntity
  8
DEFPOINTS
 62
     0
100
AcDbPoint
 10
2908.239657706208
 20
1656.587694921172
 30
0.0
  0
ENDBLK
  5
766
330
75B
100
AcDbEntity
  8
0
100
AcDbBlockEnd
  0
BLOCK
  5
76F
330
768
100
AcDbEntity
  8
0
100
AcDbBlockBegin
  2
*D11
 70
     1
 10
0.0
 20
0.0
 30
0.0
  3
*D11
  1

  0
LINE
  5
769
330
768
100
AcDbEntity
  8
SUNPO
 62
   144
100
AcDbLine
 10
2908.566685287348
 20
1844.323145853105
 30
0.0
 11
2774.300958987051
 21
1691.306671995987
 31
0.0
  0
MTEXT
  5
76A
330
768
100
AcDbEntity
  8
SUNPO
 62
     7
100
AcDbMText
 10
2829.735350358293
 20
1811.339565821966
 30
0.0
 40
50.0
 41
0.0
 71
     5
 72
     1
  1
\A2;R30
  7
ADD
 11
0.6595509362119805
 21
0.7516598715788279
 31
0.0
1001
ACAD
1000
MTEXTBEGIN
1070
    73
1070
     1
1070
    44
1040
1.0
1070
    74
1070
     0
1000
MTEXTEND
  0
LINE
  5
76B
330
768
100
AcDbEntity
  8
SUNPO
 62
   144
100
AcDbLine
 10
2721.536884090093
 20
1631.173882269681
 30
0.0
 11
2741.323412176452
 21
1653.723678417046
 31
0.0
  0
SOLID
  5
76C
330
768
100
AcDbEntity
  8
SUNPO
 62
   144
100
AcDbTrace
 10
2768.037126723895
 20
1696.802929797753
 30
0.0
 11
2780.564791250208
 21
1685.81041419422
 31
0.0
 12
2741.323412176452
 22
1653.723678417046
 32
0.0
 13
2741.323412176452
 23
1653.723678417046
 33
0.0
  0
POINT
  5
76D
330
768
100
AcDbEntity
  8
DEFPOINTS
 62
     0
100
AcDbPoint
 10
2741.323412176452
 20
1653.723678417046
 30
0.0
  0
POINT
  5
76E
330
768
100
AcDbEntity
  8
DEFPOINTS
 62
     0
100
AcDbPoint
 10
2721.536884090093
 20
1631.173882269681
 30
0.0
  0
ENDBLK
  5
770
330
768
100
AcDbEntity
  8
0
100
AcDbBlockEnd
  0
ENDSEC
  0
SECTION
  2
ENTITIES
  0
LINE
  5
60A
330
1F
100
AcDbEntity
  8
HOJO
100
AcDbLine
 10
360.0
 20
260.0
 30
0.0
 11
5580.0
 21
260.0
 31
0.0
  0
LINE
  5
60B
330
1F
100
AcDbEntity
  8
HOJO
100
AcDbLine
 10
360.0
 20
560.0
 30
0.0
 11
5580.0
 21
560.0
 31
0.0
  0
LINE
  5
60C
330
1F
100
AcDbEntity
  8
HOJO
100
AcDbLine
 10
360.0
 20
260.0
 30
0.0
 11
360.0
 21
560.0
 31
0.0
  0
LINE
  5
60D
330
1F
100
AcDbEntity
  8
HOJO
100
AcDbLine
 10
2360.0
 20
260.0
 30
0.0
 11
2360.0
 21
560.0
 31
0.0
  0
LINE
  5
60F
330
1F
100
AcDbEntity
  8
HOJO
100
AcDbLine
 10
3160.0
 20
260.0
 30
0.0
 11
3160.0
 21
560.0
 31
0.0
  0
LINE
  5
610
330
1F
100
AcDbEntity
  8
HOJO
100
AcDbLine
 10
3660.0
 20
260.0
 30
0.0
 11
3660.0
 21
560.0
 31
0.0
  0
LINE
  5
62F
330
1F
100
AcDbEntity
  8
3C1
100
AcDbLine
 10
1753.801167603727
 20
1506.587694921172
 30
0.0
 11
1548.801167603727
 21
1506.587694921172
 31
0.0
  0
LINE
  5
630
330
1F
100
AcDbEntity
  8
3C1
100
AcDbLine
 10
1548.801167603727
 20
1506.587694921172
 30
0.0
 11
1548.801167603727
 21
1726.587694921172
 31
0.0
  0
LINE
  5
631
330
1F
100
AcDbEntity
  8
3C1
100
AcDbLine
 10
1578.801167603727
 20
1756.587694921172
 30
0.0
 11
1701.651540740364
 21
1756.587694921172
 31
0.0
  0
LINE
  5
632
330
1F
100
AcDbEntity
  8
3C1
100
AcDbLine
 10
1731.502656446664
 20
1729.572806491802
 30
0.0
 11
1753.801167603727
 21
1506.587694921172
 31
0.0
  0
ARC
  5
633
330
1F
100
AcDbEntity
  8
3C1
100
AcDbCircle
 10
1578.801167603727
 20
1726.587694921172
 30
0.0
 40
30.0
100
AcDbArc
 50
90.0
 51
180.0
  0
ARC
  5
634
330
1F
100
AcDbEntity
  8
3C1
100
AcDbCircle
 10
1701.651540740364
 20
1726.587694921172
 30
0.0
 40
30.0
100
AcDbArc
 50
5.710593137499633
 51
90.0000000000001
  0
LINE
  5
6B6
330
1F
100
AcDbEntity
  8
3C1
100
AcDbLine
 10
2751.536884090093
 20
1506.587694921172
 30
0.0
 11
2151.536884090093
 21
1506.587694921172
 31
0.0
  0
LINE
  5
6B7
330
1F
100
AcDbEntity
  8
3C1
100
AcDbLine
 10
2151.536884090093
 20
1506.587694921172
 30
0.0
 11
2151.536884090093
 21
1756.587694921172
 31
0.0
  0
LINE
  5
6B8
330
1F
100
AcDbEntity
  8
3C1
100
AcDbLine
 10
2151.536884090093
 20
1756.587694921172
 30
0.0
 11
2726.468853709254
 21
1660.765699984645
 31
0.0
  0
LINE
  5
6B9
330
1F
100
AcDbEntity
  8
3C1
100
AcDbLine
 10
2751.536884090093
 20
1631.173882269681
 30
0.0
 11
2751.536884090093
 21
1506.587694921172
 31
0.0
  0
ARC
  5
6BA
330
1F
100
AcDbEntity
  8
3C1
100
AcDbCircle
 10
2721.536884090093
 20
1631.173882269681
 30
0.0
 40
30.0
100
AcDbArc
 50
0.0
 51
80.53767779197437
  0
LINE
  5
6BD
330
1F
100
AcDbEntity
  8
3C1
100
AcDbLine
 10
1578.801167603727
 20
1660.765699984645
 30
0.0
 11
1711.233740234017
 21
1660.765699984645
 31
0.0
  0
ARC
  5
6BE
330
1F
100
AcDbEntity
  8
3C1
100
AcDbCircle
 10
1578.801167603727
 20
1630.765699984645
 30
0.0
 40
30.0
100
AcDbArc
 50
90.0
 51
180.0
  0
ARC
  5
6BF
330
1F
100
AcDbEntity
  8
3C1
100
AcDbCircle
 10
1711.233740234017
 20
1630.765699984645
 30
0.0
 40
30.0
100
AcDbArc
 50
5.710593137499684
 51
89.99999999999992
  0
LINE
  5
71D
330
1F
100
AcDbEntity
  8
3C1
100
AcDbLine
 10
3788.981379674922
 20
2601.48149052263
 30
0.0
 11
3521.61126806504
 21
2601.481490522631
 31
0.0
  0
LINE
  5
71F
330
1F
100
AcDbEntity
  8
3C1
100
AcDbLine
 10
3521.61126806504
 20
2796.043175790943
 30
0.0
 11
3763.913349294083
 21
2755.659495586103
 31
0.0
  0
LINE
  5
720
330
1F
100
AcDbEntity
  8
3C1
100
AcDbLine
 10
3788.981379674922
 20
2726.067677871139
 30
0.0
 11
3788.981379674922
 21
2601.48149052263
 31
0.0
  0
ARC
  5
721
330
1F
100
AcDbEntity
  8
3C1
100
AcDbCircle
 10
3758.981379674922
 20
2726.067677871139
 30
0.0
 40
30.0
100
AcDbArc
 50
0.0
 51
80.53767779196581
  0
LINE
  5
725
330
1F
100
AcDbEntity
  8
3C1
100
AcDbLine
 10
3798.981379674922
 20
2601.481494713838
 30
0.0
 11
3798.981379674922
 21
2751.481494713838
 31
0.0
  0
LINE
  5
726
330
1F
100
AcDbEntity
  8
3C1
100
AcDbLine
 10
3798.981379674922
 20
2751.481494713838
 30
0.0
 11
4059.362931484101
 21
2751.481494713838
 31
0.0
  0
LINE
  5
727
330
1F
100
AcDbEntity
  8
3C1
100
AcDbLine
 10
3798.981379674922
 20
2601.481494713838
 30
0.0
 11
4059.362931484101
 21
2601.481494713838
 31
0.0
  0
LINE
  5
728
330
1F
100
AcDbEntity
  8
3C1
100
AcDbLine
 10
3798.981379674922
 20
2721.481494713838
 30
0.0
 11
4059.362931484101
 21
2721.481494713838
 31
0.0
  0
LINE
  5
737
330
1F
100
AcDbEntity
  8
3C1
100
AcDbLine
 10
4536.310974062867
 20
2721.481494713838
 30
0.0
 11
4796.692525872048
 21
2721.481494713838
 31
0.0
  0
LINE
  5
738
330
1F
100
AcDbEntity
  8
3C1
100
AcDbLine
 10
4536.310974062867
 20
2601.481494713838
 30
0.0
 11
4796.692525872048
 21
2601.481494713838
 31
0.0
  0
LINE
  5
73A
330
1F
100
AcDbEntity
  8
3C1
100
AcDbLine
 10
4536.310974062867
 20
2601.481494713838
 30
0.0
 11
4536.310974062867
 21
2721.481494713838
 31
0.0
  0
ARC
  5
73B
330
1F
100
AcDbEntity
  8
3C1
100
AcDbCircle
 10
4496.310974062867
 20
2726.067677871139
 30
0.0
 40
30.0
100
AcDbArc
 50
0.0
 51
80.53767779196581
  0
LINE
  5
73C
330
1F
100
AcDbEntity
  8
3C1
100
AcDbLine
 10
4526.310974062868
 20
2726.067677871139
 30
0.0
 11
4526.310974062868
 21
2601.48149052263
 31
0.0
  0
LINE
  5
73D
330
1F
100
AcDbEntity
  8
3C1
100
AcDbLine
 10
4258.940862452986
 20
2796.043175790943
 30
0.0
 11
4501.242943682028
 21
2755.659495586103
 31
0.0
  0
LINE
  5
73E
330
1F
100
AcDbEntity
  8
3C1
100
AcDbLine
 10
4526.310974062868
 20
2601.48149052263
 30
0.0
 11
4258.940862452986
 21
2601.481490522631
 31
0.0
  0
LINE
  5
85C
330
1F
100
AcDbEntity
  8
SUNPO
 62
   144
100
AcDbLine
 10
2908.566685287348
 20
1844.323145853105
 30
0.0
 11
2774.300958987051
 21
1691.306671995987
 31
0.0
  0
MTEXT
  5
85D
330
1F
100
AcDbEntity
  8
SUNPO
 62
     7
100
AcDbMText
 10
2829.735350358293
 20
1811.339565821966
 30
0.0
 40
50.0
 41
0.0
 71
     5
 72
     1
  1
\A2;R30
  7
ADD
 11
0.6595509362119805
 21
0.7516598715788279
 31
0.0
1001
ACAD
1000
MTEXTBEGIN
1070
    73
1070
     1
1070
    44
1040
1.0
1070
    74
1070
     0
1000
MTEXTEND
  0
LINE
  5
85E
330
1F
100
AcDbEntity
  8
SUNPO
 62
   144
100
AcDbLine
 10
2721.536884090093
 20
1631.173882269681
 30
0.0
 11
2741.323412176452
 21
1653.723678417046
 31
0.0
  0
SOLID
  5
85F
330
1F
100
AcDbEntity
  8
SUNPO
 62
   144
100
AcDbTrace
 10
2768.037126723895
 20
1696.802929797753
 30
0.0
 11
2780.564791250208
 21
1685.81041419422
 31
0.0
 12
2741.323412176452
 22
1653.723678417046
 32
0.0
 13
2741.323412176452
 23
1653.723678417046
 33
0.0
  0
LINE
  5
860
330
1F
100
AcDbEntity
  8
SUNPO
 62
   144
100
AcDbLine
 10
2771.536884090093
 20
1506.587694921172
 30
0.0
 11
2918.239657706208
 21
1506.587694921172
 31
0.0
  0
LINE
  5
861
330
1F
100
AcDbEntity
  8
SUNPO
 62
   144
100
AcDbLine
 10
2771.536884090093
 20
1656.587694921172
 30
0.0
 11
2918.239657706208
 21
1656.587694921172
 31
0.0
  0
LINE
  5
862
330
1F
100
AcDbEntity
  8
SUNPO
 62
   144
100
AcDbLine
 10
2908.239657706208
 20
1520.587694921172
 30
0.0
 11
2908.239657706208
 21
1642.587694921172
 31
0.0
  0
SOLID
  5
863
330
1F
100
AcDbEntity
  8
SUNPO
 62
   144
100
AcDbTrace
 10
2905.906324372875
 20
1520.587694921172
 30
0.0
 11
2910.572991039542
 21
1520.587694921172
 31
0.0
 12
2908.239657706208
 22
1506.587694921172
 32
0.0
 13
2908.239657706208
 23
1506.587694921172
 33
0.0
  0
SOLID
  5
864
330
1F
100
AcDbEntity
  8
SUNPO
 62
   144
100
AcDbTrace
 10
2905.906324372875
 20
1642.587694921172
 30
0.0
 11
2910.572991039542
 21
1642.587694921172
 31
0.0
 12
2908.239657706208
 22
1656.587694921172
 32
0.0
 13
2908.239657706208
 23
1656.587694921172
 33
0.0
  0
MTEXT
  5
865
330
1F
100
AcDbEntity
  8
SUNPO
 62
     7
100
AcDbMText
 10
2870.739657706208
 20
1581.587694921172
 30
0.0
 40
50.0
 41
0.0
 71
     5
 72
     1
  1
\A2;150
  7
ADD
 11
0.0000000000000001
 21
1.0
 31
0.0
1001
ACAD
1000
MTEXTBEGIN
1070
    73
1070
     1
1070
    44
1040
1.0
1070
    74
1070
     0
1000
MTEXTEND
  0
TEXT
  5
866
330
1F
100
AcDbEntity
  8
3C1
100
AcDbText
 10
4566.238755769837
 20
2541.481494713838
 30
0.0
 40
50.0
  1
SFD-B12
  7
ADD
100
AcDbText
  0
TEXT
  5
867
330
1F
100
AcDbEntity
  8
3C1
100
AcDbText
 10
4251.798005310129
 20
2541.481494713838
 30
0.0
 40
50.0
  1
SFT-B
  7
ADD
100
AcDbText
  0
TEXT
  5
868
330
1F
100
AcDbEntity
  8
3C1
100
AcDbText
 10
3836.01064658502
 20
2541.481494713838
 30
0.0
 40
50.0
  1
SFD-B1
  7
ADD
100
AcDbText
  0
TEXT
  5
869
330
1F
100
AcDbEntity
  8
3C1
100
AcDbText
 10
3514.468410922182
 20
2541.481494713838
 30
0.0
 40
50.0
  1
SFT-B
  7
ADD
100
AcDbText
  0
TEXT
  5
86A
330
1F
100
AcDbEntity
  8
3C1
100
AcDbText
 10
3954.030138817074
 20
2883.955391168803
 30
0.0
 40
50.0
  1
取付状況図
  7
ADD
100
AcDbText
  0
LINE
  5
86B
330
1F
100
AcDbEntity
  8
SUNPO
 62
   144
100
AcDbLine
 10
1453.098217931669
 20
1513.38253582668
 30
0.0
 11
1638.409613035369
 21
1597.650046620181
 31
0.0
  0
MTEXT
  5
86C
330
1F
100
AcDbEntity
  8
SUNPO
 62
     7
100
AcDbMText
 10
1507.47341321935
 20
1579.303959171402
 30
0.0
 40
50.0
 41
0.0
 71
     5
 72
     1
  1
\A2;R30
  7
ADD
 11
0.9103015899830866
 21
0.4139456670557918
 31
0.0
1001
ACAD
1000
MTEXTBEGIN
1070
    73
1070
     1
1070
    44
1040
1.0
1070
    74
1070
     0
1000
MTEXTEND
  0
LINE
  5
86D
330
1F
100
AcDbEntity
  8
SUNPO
 62
   144
100
AcDbLine
 10
1711.233740234017
 20
1630.765699984645
 30
0.0
 11
1683.924692534523
 21
1618.34732997297
 31
0.0
  0
SOLID
  5
86E
330
1F
100
AcDbEntity
  8
SUNPO
 62
   144
100
AcDbTrace
 10
1634.960065809904
 20
1605.235893203374
 30
0.0
 11
1641.859160260834
 21
1590.064200036989
 31
0.0
 12
1683.924692534523
 22
1618.34732997297
 32
0.0
 13
1683.924692534523
 23
1618.34732997297
 33
0.0
  0
LINE
  5
86F
330
1F
100
AcDbEntity
  8
SUNPO
 62
   144
100
AcDbLine
 10
1366.151188064019
 20
1818.362984889845
 30
0.0
 11
1518.809233829301
 21
1683.689871041024
 31
0.0
  0
MTEXT
  5
870
330
1F
100
AcDbEntity
  8
SUNPO
 62
     7
100
AcDbMText
 10
1448.540936824829
 20
1795.686450377315
 30
0.0
 40
50.0
 41
0.0
 71
     5
 72
     1
  1
\A2;R30
  7
ADD
 11
0.7498991721803307
 21
-0.6615521382047334
 31
0.0
1001
ACAD
1000
MTEXTBEGIN
1070
    73
1070
     1
1070
    44
1040
1.0
1070
    74
1070
     0
1000
MTEXTEND
  0
LINE
  5
871
330
1F
100
AcDbEntity
  8
SUNPO
 62
   144
100
AcDbLine
 10
1578.801167603727
 20
1630.765699984645
 30
0.0
 11
1556.304192438317
 21
1650.612264130788
 31
0.0
  0
SOLID
  5
872
330
1F
100
AcDbEntity
  8
SUNPO
 62
   144
100
AcDbTrace
 10
1524.32216831434
 20
1689.939030809194
 30
0.0
 11
1513.296299344261
 21
1677.440711272855
 31
0.0
 12
1556.304192438317
 22
1650.612264130788
 32
0.0
 13
1556.304192438317
 23
1650.612264130788
 33
0.0
  0
TEXT
  5
873
330
1F
100
AcDbEntity
  8
3C1
100
AcDbText
 10
874.0165208163288
 20
356.332476862082
 30
0.0
 40
50.0
  1
歩車道境界ブロック(セミフラット用）斜切下げ
  7
ADD
100
AcDbText
  0
TEXT
  5
874
330
1F
100
AcDbEntity
  8
3C1
100
AcDbText
 10
2575.652432086206
 20
374.3827718071461
 30
0.0
 40
50.0
  1
SFT-B
  7
ADD
100
AcDbText
  0
LINE
  5
875
330
1F
100
AcDbEntity
  8
SUNPO
 62
   144
100
AcDbLine
 10
1904.340402521661
 20
1924.905572107882
 30
0.0
 11
1758.83328512199
 21
1782.536315185432
 31
0.0
  0
MTEXT
  5
876
330
1F
100
AcDbEntity
  8
SUNPO
 62
     7
100
AcDbMText
 10
1823.230223192211
 20
1898.008830158126
 30
0.0
 40
50.0
 41
0.0
 71
     5
 72
     1
  1
\A2;R30
  7
ADD
 11
0.714771804770317
 21
0.6993577533032603
 31
0.0
1001
ACAD
1000
MTEXTBEGIN
1070
    73
1070
     1
1070
    44
1040
1.0
1070
    74
1070
     0
1000
MTEXTEND
  0
LINE
  5
877
330
1F
100
AcDbEntity
  8
SUNPO
 62
   144
100
AcDbLine
 10
1701.651540740364
 20
1726.587694921172
 30
0.0
 11
1723.094694883473
 21
1747.56842752027
 31
0.0
  0
SOLID
  5
878
330
1F
100
AcDbEntity
  8
SUNPO
 62
   144
100
AcDbTrace
 10
1753.005303844462
 20
1788.492746891852
 30
0.0
 11
1764.661266399517
 21
1776.579883479013
 31
0.0
 12
1723.094694883473
 22
1747.56842752027
 32
0.0
 13
1723.094694883473
 23
1747.56842752027
 33
0.0
  0
LINE
  5
879
330
1F
100
AcDbEntity
  8
SUNPO
 62
   144
100
AcDbLine
 10
1388.006917771374
 20
1936.374037024156
 30
0.0
 11
1524.975082008706
 21
1785.771751131586
 31
0.0
  0
MTEXT
  5
87A
330
1F
100
AcDbEntity
  8
SUNPO
 62
     7
100
AcDbMText
 10
1467.412874490228
 20
1904.798889266292
 30
0.0
 40
50.0
 41
0.0
 71
     5
 72
     1
  1
\A2;R30
  7
ADD
 11
0.6728260699377687
 21
-0.7398007026301725
 31
0.0
1001
ACAD
1000
MTEXTBEGIN
1070
    73
1070
     1
1070
    44
1040
1.0
1070
    74
1070
     0
1000
MTEXTEND
  0
LINE
  5
87B
330
1F
100
AcDbEntity
  8
SUNPO
 62
   144
100
AcDbLine
 10
1578.801167603727
 20
1726.587694921172
 30
0.0
 11
1558.616385505594
 21
1748.781716000077
 31
0.0
  0
SOLID
  5
87C
330
1F
100
AcDbEntity
  8
SUNPO
 62
   144
100
AcDbTrace
 10
1531.140087863957
 20
1791.378635047734
 30
0.0
 11
1518.810076153454
 21
1780.164867215438
 31
0.0
 12
1558.616385505594
 22
1748.781716000077
 32
0.0
 13
1558.616385505594
 23
1748.781716000077
 33
0.0
  0
LINE
  5
87D
330
1F
100
AcDbEntity
  8
SUNPO
 62
   144
100
AcDbLine
 10
2151.536884090093
 20
1481.587694921172
 30
0.0
 11
2151.536884090093
 21
1393.683488679753
 31
0.0
  0
LINE
  5
87E
330
1F
100
AcDbEntity
  8
SUNPO
 62
   144
100
AcDbLine
 10
2751.536884090093
 20
1481.587694921172
 30
0.0
 11
2751.536884090093
 21
1393.683488679753
 31
0.0
  0
LINE
  5
87F
330
1F
100
AcDbEntity
  8
SUNPO
 62
   144
100
AcDbLine
 10
2165.536884090093
 20
1403.683488679753
 30
0.0
 11
2737.536884090093
 21
1403.683488679753
 31
0.0
  0
SOLID
  5
880
330
1F
100
AcDbEntity
  8
SUNPO
 62
   144
100
AcDbTrace
 10
2165.536884090093
 20
1406.016822013086
 30
0.0
 11
2165.536884090093
 21
1401.35015534642
 31
0.0
 12
2151.536884090093
 22
1403.683488679753
 32
0.0
 13
2151.536884090093
 23
1403.683488679753
 33
0.0
  0
SOLID
  5
881
330
1F
100
AcDbEntity
  8
SUNPO
 62
   144
100
AcDbTrace
 10
2737.536884090093
 20
1406.016822013086
 30
0.0
 11
2737.536884090093
 21
1401.35015534642
 31
0.0
 12
2751.536884090093
 22
1403.683488679753
 32
0.0
 13
2751.536884090093
 23
1403.683488679753
 33
0.0
  0
MTEXT
  5
882
330
1F
100
AcDbEntity
  8
SUNPO
 62
     7
100
AcDbMText
 10
2451.536884090093
 20
1441.183488679753
 30
0.0
 40
50.0
 41
0.0
 71
     5
 72
     1
  1
\A2;600
  7
ADD
1001
ACAD
1000
MTEXTBEGIN
1070
    73
1070
     1
1070
    44
1040
1.0
1070
    74
1070
     0
1000
MTEXTEND
  0
LINE
  5
883
330
1F
100
AcDbEntity
  8
SUNPO
 62
   144
100
AcDbLine
 10
1778.801167603727
 20
1756.587694921172
 30
0.0
 11
1854.087533395652
 21
1756.587694921172
 31
0.0
  0
LINE
  5
884
330
1F
100
AcDbEntity
  8
SUNPO
 62
   144
100
AcDbLine
 10
1778.801167603727
 20
1506.587694921172
 30
0.0
 11
1854.087533395652
 21
1506.587694921172
 31
0.0
  0
LINE
  5
885
330
1F
100
AcDbEntity
  8
SUNPO
 62
   144
100
AcDbLine
 10
1844.087533395652
 20
1742.587694921172
 30
0.0
 11
1844.087533395652
 21
1520.587694921172
 31
0.0
  0
SOLID
  5
886
330
1F
100
AcDbEntity
  8
SUNPO
 62
   144
100
AcDbTrace
 10
1841.754200062318
 20
1742.587694921172
 30
0.0
 11
1846.420866728985
 21
1742.587694921172
 31
0.0
 12
1844.087533395652
 22
1756.587694921172
 32
0.0
 13
1844.087533395652
 23
1756.587694921172
 33
0.0
  0
SOLID
  5
887
330
1F
100
AcDbEntity
  8
SUNPO
 62
   144
100
AcDbTrace
 10
1841.754200062318
 20
1520.587694921172
 30
0.0
 11
1846.420866728985
 21
1520.587694921172
 31
0.0
 12
1844.087533395652
 22
1506.587694921172
 32
0.0
 13
1844.087533395652
 23
1506.587694921172
 33
0.0
  0
MTEXT
  5
888
330
1F
100
AcDbEntity
  8
SUNPO
 62
     7
100
AcDbMText
 10
1806.587533395651
 20
1631.587694921173
 30
0.0
 40
50.0
 41
0.0
 71
     5
 72
     1
  1
\A2;250
  7
ADD
 11
0.0000000000000001
 21
1.0
 31
0.0
1001
ACAD
1000
MTEXTBEGIN
1070
    73
1070
     1
1070
    44
1040
1.0
1070
    74
1070
     0
1000
MTEXTEND
  0
LINE
  5
889
330
1F
100
AcDbEntity
  8
SUNPO
 62
   144
100
AcDbLine
 10
1548.801167603727
 20
1481.587694921172
 30
0.0
 11
1548.801167603727
 21
1393.683488679753
 31
0.0
  0
LINE
  5
88A
330
1F
100
AcDbEntity
  8
SUNPO
 62
   144
100
AcDbLine
 10
1753.801167603727
 20
1481.587694921172
 30
0.0
 11
1753.801167603727
 21
1393.683488679753
 31
0.0
  0
LINE
  5
88B
330
1F
100
AcDbEntity
  8
SUNPO
 62
   144
100
AcDbLine
 10
1562.801167603727
 20
1403.683488679753
 30
0.0
 11
1739.801167603727
 21
1403.683488679753
 31
0.0
  0
SOLID
  5
88C
330
1F
100
AcDbEntity
  8
SUNPO
 62
   144
100
AcDbTrace
 10
1562.801167603727
 20
1406.016822013086
 30
0.0
 11
1562.801167603727
 21
1401.35015534642
 31
0.0
 12
1548.801167603727
 22
1403.683488679753
 32
0.0
 13
1548.801167603727
 23
1403.683488679753
 33
0.0
  0
SOLID
  5
88D
330
1F
100
AcDbEntity
  8
SUNPO
 62
   144
100
AcDbTrace
 10
1739.801167603727
 20
1406.016822013086
 30
0.0
 11
1739.801167603727
 21
1401.35015534642
 31
0.0
 12
1753.801167603727
 22
1403.683488679753
 32
0.0
 13
1753.801167603727
 23
1403.683488679753
 33
0.0
  0
MTEXT
  5
88E
330
1F
100
AcDbEntity
  8
SUNPO
 62
     7
100
AcDbMText
 10
1651.301167603727
 20
1441.183488679753
 30
0.0
 40
50.0
 41
0.0
 71
     5
 72
     1
  1
\A2;205
  7
ADD
1001
ACAD
1000
MTEXTBEGIN
1070
    73
1070
     1
1070
    44
1040
1.0
1070
    74
1070
     0
1000
MTEXTEND
  0
LINE
  5
88F
330
1F
100
AcDbEntity
  8
SUNPO
 62
   144
100
AcDbLine
 10
1548.801167603727
 20
1781.587694921172
 30
0.0
 11
1548.801167603727
 21
1814.509047748994
 31
0.0
  0
LINE
  5
890
330
1F
100
AcDbEntity
  8
SUNPO
 62
   144
100
AcDbLine
 10
1728.801167603728
 20
1781.587694921172
 30
0.0
 11
1728.801167603728
 21
1814.509047748994
 31
0.0
  0
LINE
  5
891
330
1F
100
AcDbEntity
  8
SUNPO
 62
   144
100
AcDbLine
 10
1562.801167603727
 20
1804.509047748993
 30
0.0
 11
1714.801167603727
 21
1804.509047748993
 31
0.0
  0
SOLID
  5
892
330
1F
100
AcDbEntity
  8
SUNPO
 62
   144
100
AcDbTrace
 10
1562.801167603727
 20
1806.842381082327
 30
0.0
 11
1562.801167603727
 21
1802.17571441566
 31
0.0
 12
1548.801167603727
 22
1804.509047748993
 32
0.0
 13
1548.801167603727
 23
1804.509047748993
 33
0.0
  0
SOLID
  5
893
330
1F
100
AcDbEntity
  8
SUNPO
 62
   144
100
AcDbTrace
 10
1714.801167603727
 20
1806.842381082327
 30
0.0
 11
1714.801167603727
 21
1802.17571441566
 31
0.0
 12
1728.801167603728
 22
1804.509047748993
 32
0.0
 13
1728.801167603728
 23
1804.509047748993
 33
0.0
  0
MTEXT
  5
894
330
1F
100
AcDbEntity
  8
SUNPO
 62
     7
100
AcDbMText
 10
1638.801167603727
 20
1842.009047748994
 30
0.0
 40
50.0
 41
0.0
 71
     5
 72
     1
  1
\A2;180
  7
ADD
1001
ACAD
1000
MTEXTBEGIN
1070
    73
1070
     1
1070
    44
1040
1.0
1070
    74
1070
     0
1000
MTEXTEND
  0
TEXT
  5
895
330
1F
100
AcDbEntity
  8
3C1
100
AcDbText
 10
3246.680311730542
 20
359.2274732162223
 30
0.0
 40
70.0
  1
１／２０
  7
ADD
100
AcDbText
  0
TEXT
  5
896
330
1F
100
AcDbEntity
  8
3C1
100
AcDbText
 10
381.8862574011546
 20
488.6918916770627
 30
0.0
 40
50.0
  1
製品名
  7
ADD
100
AcDbText
  0
TEXT
  5
897
330
1F
100
AcDbEntity
  8
3C1
100
AcDbText
 10
2376.290169028722
 20
494.4531736811823
 30
0.0
 40
50.0
  1
型式
  7
ADD
100
AcDbText
  0
TEXT
  5
898
330
1F
100
AcDbEntity
  8
3C1
100
AcDbText
 10
3177.510249231658
 20
488.6918916770627
 30
0.0
 40
50.0
  1
縮尺
  7
ADD
100
AcDbText
  0
TEXT
  5
899
330
1F
100
AcDbEntity
  8
3C1
100
AcDbText
 10
3730.870883051572
 20
352.2726133092145
 30
0.0
 40
100.0
  1
千葉県コンクリート製品協同組合
  7
ADD
100
AcDbText
  0
LINE
  5
89A
330
1F
100
AcDbEntity
  8
HOJO
100
AcDbLine
 10
360.0
 20
260.0
 30
0.0
 11
5580.0
 21
260.0
 31
0.0
  0
LINE
  5
89B
330
1F
100
AcDbEntity
  8
HOJO
100
AcDbLine
 10
5580.0
 20
260.0
 30
0.0
 11
5580.0
 21
3940.0
 31
0.0
  0
LINE
  5
89C
330
1F
100
AcDbEntity
  8
HOJO
100
AcDbLine
 10
5580.0
 20
3940.0
 30
0.0
 11
360.0
 21
3940.0
 31
0.0
  0
LINE
  5
89D
330
1F
100
AcDbEntity
  8
HOJO
100
AcDbLine
 10
360.0
 20
3940.0
 30
0.0
 11
360.0
 21
260.0
 31
0.0
  0
LINE
  5
89E
330
1F
100
AcDbEntity
  8
HOJO
100
AcDbLine
 10
0.0
 20
0.0
 30
0.0
 11
5940.0
 21
0.0
 31
0.0
  0
LINE
  5
89F
330
1F
100
AcDbEntity
  8
HOJO
100
AcDbLine
 10
5940.0
 20
0.0
 30
0.0
 11
5940.0
 21
4200.0
 31
0.0
  0
LINE
  5
8A0
330
1F
100
AcDbEntity
  8
HOJO
100
AcDbLine
 10
5940.0
 20
4200.0
 30
0.0
 11
0.0
 21
4200.0
 31
0.0
  0
LINE
  5
8A1
330
1F
100
AcDbEntity
  8
HOJO
100
AcDbLine
 10
0.0
 20
4200.0
 30
0.0
 11
0.0
 21
0.0
 31
0.0
  0
VIEWPORT
  5
72
330
1B
100
AcDbEntity
 67
     1
  8
0
100
AcDbViewport
 10
429.8380103383459
 20
277.0
 30
0.0
 40
948.9782706766918
 41
628.4520000000001
 68
     1
 69
     1
1001
ACAD
1000
MVIEW
1002
{
1070
    16
1010
0.0
1020
0.0
1030
0.0
1010
0.0
1020
0.0
1030
1.0
1040
0.0
1040
628.4520000000001
1040
429.8380103383459
1040
277.0
1040
50.0
1040
0.0
1040
0.0
1070
     0
1070
   100
1070
     1
1070
     1
1070
     0
1070
     0
1070
     0
1070
     0
1040
0.0
1040
0.0
1040
0.0
1040
10.0
1040
10.0
1040
10.0
1040
10.0
1070
     0
1002
{
1002
}
1002
}
  0
VIEWPORT
  5
74
330
1B
100
AcDbEntity
 67
     1
  8
VIEWPORT
100
AcDbViewport
 10
414.3779638919211
 20
277.3177265058034
 30
0.0
 40
840.0353682728887
 41
567.2285469943826
 68
     2
 69
     2
1001
ACAD
1000
MVIEW
1002
{
1070
    16
1010
0.0
1020
0.0
1030
0.0
1010
0.0
1020
0.0
1030
1.0
1040
0.0
1040
579.5583043546323
1040
424.4938908624541
1040
286.1973242720074
1040
50.0
1040
0.0
1040
0.0
1070
     0
1070
   100
1070
     1
1070
     1
1070
     0
1070
     0
1070
     0
1070
     0
1040
0.0
1040
0.0
1040
0.0
1040
10.0
1040
10.0
1040
10.0
1040
10.0
1070
     0
1002
{
1002
}
1002
}
  0
ENDSEC
  0
SECTION
  2
OBJECTS
  0
DICTIONARY
  5
C
330
0
100
AcDbDictionary
  3
ACAD_GROUP
350
D
  3
ACAD_LAYOUT
350
1A
  3
ACAD_MLINESTYLE
350
17
  3
ACAD_PLOTSETTINGS
350
19
  3
DWGPROPS
350
4C7
1001
ACAD
1000
TREAT_AS_HARD
1070
     0
  0
DICTIONARY
  5
772
330
1F
100
AcDbDictionary
  3
ACAD_LAYOUTSELFREF
350
8A4
1001
ACAD
1000
TREAT_AS_HARD
1070
     1
  0
DICTIONARY
  5
774
330
1B
100
AcDbDictionary
  3
ACAD_LAYOUTSELFREF
350
8A3
1001
ACAD
1000
TREAT_AS_HARD
1070
     1
  0
DICTIONARY
  5
D
102
{ACAD_REACTORS
330
C
102
}
330
C
100
AcDbDictionary
1001
ACAD
1000
TREAT_AS_HARD
1070
     0
  0
DICTIONARY
  5
1A
102
{ACAD_REACTORS
330
C
102
}
330
C
100
AcDbDictionary
1001
ACAD
1000
TREAT_AS_HARD
1070
     0
  0
DICTIONARY
  5
17
102
{ACAD_REACTORS
330
C
102
}
330
C
100
AcDbDictionary
  3
STANDARD
350
18
1001
ACAD
1000
TREAT_AS_HARD
1070
     0
  0
DICTIONARY
  5
19
102
{ACAD_REACTORS
330
C
102
}
330
C
100
AcDbDictionary
1001
ACAD
1000
TREAT_AS_HARD
1070
     0
  0
XRECORD
  5
4C7
102
{ACAD_REACTORS
330
C
102
}
330
C
100
AcDbXrecord
  1
DWGPROPS COOKIE
  2
印刷用テスト
  3
AutoCAD2000による建築設計
  4
鈴木 裕二
  6

  7

  8
U2
  9

300
=
301
=
302
=
303
=
304
=
305
=
306
=
307
=
308
=
309
=
 40
0.7653446875
 41
2451285.4846114
 42
2451333.689743032
  1

 90
        0
  0
XRECORD
  5
8A4
102
{ACAD_REACTORS
330
772
102
}
330
772
100
AcDbXrecord
340
1F
  0
XRECORD
  5
8A3
102
{ACAD_REACTORS
330
774
102
}
330
774
100
AcDbXrecord
340
1B
  0
MLINESTYLE
  5
18
102
{ACAD_REACTORS
330
17
102
}
330
17
100
AcDbMlineStyle
  2
STANDARD
 70
     0
  3

 62
   256
 51
90.0
 52
90.0
 71
     2
 49
0.5
 62
   256
  6
BYLAYER
 49
-0.5
 62
   256
  6
BYLAYER
  0
ENDSEC
  0
EOF
