  0
SECTION
  2
HEADER
  9
$ACADVER
  1
AC1012
  9
$DWGCODEPAGE
  3
dos932
  9
$INSBASE
 10
0.0
 20
0.0
 30
0.0
  9
$EXTMIN
 10
0.0
 20
0.0
 30
0.0
  9
$EXTMAX
 10
5940.0
 20
4200.0
 30
0.0
  9
$LIMMIN
 10
0.0
 20
0.0
  9
$LIMMAX
 10
5940.0
 20
4200.0
  9
$ORTHOMODE
 70
     0
  9
$REGENMODE
 70
     1
  9
$FILLMODE
 70
     1
  9
$QTEXTMODE
 70
     0
  9
$MIRRTEXT
 70
     0
  9
$DRAGMODE
 70
     2
  9
$LTSCALE
 40
10.0
  9
$OSMODE
 70
  3071
  9
$ATTMODE
 70
     1
  9
$TEXTSIZE
 40
50.0
  9
$TRACEWID
 40
1.0
  9
$TEXTSTYLE
  7
ADD
  9
$CLAYER
  8
MOJI
  9
$CELTYPE
  6
BYLAYER
  9
$CECOLOR
 62
   256
  9
$CELTSCALE
 40
1.0
  9
$DELOBJ
 70
     1
  9
$DISPSILH
 70
     0
  9
$DIMSCALE
 40
20.0
  9
$DIMASZ
 40
2.5
  9
$DIMEXO
 40
1.0
  9
$DIMDLI
 40
7.0
  9
$DIMRND
 40
0.0
  9
$DIMDLE
 40
0.0
  9
$DIMEXE
 40
0.5
  9
$DIMTP
 40
0.0
  9
$DIMTM
 40
0.0
  9
$DIMTXT
 40
2.5
  9
$DIMCEN
 40
2.5
  9
$DIMTSZ
 40
0.0
  9
$DIMTOL
 70
     0
  9
$DIMLIM
 70
     0
  9
$DIMTIH
 70
     0
  9
$DIMTOH
 70
     0
  9
$DIMSE1
 70
     0
  9
$DIMSE2
 70
     0
  9
$DIMTAD
 70
     1
  9
$DIMZIN
 70
     8
  9
$DIMBLK
  1

  9
$DIMASO
 70
     1
  9
$DIMSHO
 70
     1
  9
$DIMPOST
  1

  9
$DIMAPOST
  1

  9
$DIMALT
 70
     0
  9
$DIMALTD
 70
     3
  9
$DIMALTF
 40
0.03937007874016
  9
$DIMLFAC
 40
1.0
  9
$DIMTOFL
 70
     1
  9
$DIMTVP
 40
0.7
  9
$DIMTIX
 70
     1
  9
$DIMSOXD
 70
     0
  9
$DIMSAH
 70
     0
  9
$DIMBLK1
  1

  9
$DIMBLK2
  1

  9
$DIMSTYLE
  2
ADD
  9
$DIMCLRD
 70
   144
  9
$DIMCLRE
 70
   144
  9
$DIMCLRT
 70
     7
  9
$DIMTFAC
 40
1.0
  9
$DIMGAP
 40
0.625
  9
$DIMJUST
 70
     0
  9
$DIMSD1
 70
     0
  9
$DIMSD2
 70
     0
  9
$DIMTOLJ
 70
     2
  9
$DIMTZIN
 70
     8
  9
$DIMALTZ
 70
     0
  9
$DIMALTTZ
 70
     0
  9
$DIMFIT
 70
     5
  9
$DIMUPT
 70
     0
  9
$DIMUNIT
 70
     2
  9
$DIMDEC
 70
     1
  9
$DIMTDEC
 70
     1
  9
$DIMALTU
 70
     2
  9
$DIMALTTD
 70
     3
  9
$DIMTXSTY
  7
ADD
  9
$DIMAUNIT
 70
     0
  9
$LUNITS
 70
     2
  9
$LUPREC
 70
     4
  9
$SKETCHINC
 40
1.0
  9
$FILLETRAD
 40
20.0
  9
$AUNITS
 70
     0
  9
$AUPREC
 70
     1
  9
$MENU
  1
.
  9
$ELEVATION
 40
0.0
  9
$PELEVATION
 40
0.0
  9
$THICKNESS
 40
0.0
  9
$LIMCHECK
 70
     0
  9
$BLIPMODE
 70
     0
  9
$CHAMFERA
 40
10.0
  9
$CHAMFERB
 40
10.0
  9
$CHAMFERC
 40
20.0
  9
$CHAMFERD
 40
0.0
  9
$SKPOLY
 70
     0
  9
$TDCREATE
 40
2451801.142532870
  9
$TDUPDATE
 40
2452523.644348576
  9
$TDINDWG
 40
0.2109107986
  9
$TDUSRTIMER
 40
0.2109107986
  9
$USRTIMER
 70
     1
  9
$ANGBASE
 50
0.0
  9
$ANGDIR
 70
     0
  9
$PDMODE
 70
     0
  9
$PDSIZE
 40
0.0
  9
$PLINEWID
 40
0.0
  9
$COORDS
 70
     1
  9
$SPLFRAME
 70
     0
  9
$SPLINETYPE
 70
     6
  9
$SPLINESEGS
 70
     8
  9
$ATTDIA
 70
     0
  9
$ATTREQ
 70
     1
  9
$HANDLING
 70
 22529
  9
$HANDSEED
  5
B83
  9
$SURFTAB1
 70
     6
  9
$SURFTAB2
 70
     6
  9
$SURFTYPE
 70
     6
  9
$SURFU
 70
     6
  9
$SURFV
 70
     6
  9
$UCSNAME
  2

  9
$UCSORG
 10
0.0
 20
0.0
 30
0.0
  9
$UCSXDIR
 10
1.0
 20
0.0
 30
0.0
  9
$UCSYDIR
 10
0.0
 20
1.0
 30
0.0
  9
$PUCSNAME
  2

  9
$PUCSORG
 10
0.0
 20
0.0
 30
0.0
  9
$PUCSXDIR
 10
1.0
 20
0.0
 30
0.0
  9
$PUCSYDIR
 10
0.0
 20
1.0
 30
0.0
  9
$USERI1
 70
     0
  9
$USERI2
 70
     0
  9
$USERI3
 70
     0
  9
$USERI4
 70
     0
  9
$USERI5
 70
     0
  9
$USERR1
 40
841.0
  9
$USERR2
 40
594.0
  9
$USERR3
 40
1.0
  9
$USERR4
 40
0.0
  9
$USERR5
 40
0.0
  9
$WORLDVIEW
 70
     1
  9
$SHADEDGE
 70
     3
  9
$SHADEDIF
 70
    70
  9
$TILEMODE
 70
     1
  9
$MAXACTVP
 70
    48
  9
$PINSBASE
 10
0.0
 20
0.0
 30
0.0
  9
$PLIMCHECK
 70
     0
  9
$PEXTMIN
 10
-5.662975978526674
 20
-6.331907780761866
 30
-0.0015258207003583
  9
$PEXTMAX
 10
834.4213426047982
 20
560.9663709967471
 30
0.0000000349246037
  9
$PLIMMIN
 10
-7.500000000000001
 20
-20.0
  9
$PLIMMAX
 10
833.5000000000002
 20
574.0000000000001
  9
$UNITMODE
 70
     0
  9
$VISRETAIN
 70
     1
  9
$PLINEGEN
 70
     0
  9
$PSLTSCALE
 70
     1
  9
$TREEDEPTH
 70
  3020
  9
$PICKSTYLE
 70
     1
  9
$CMLSTYLE
  2
STANDARD
  9
$CMLJUST
 70
     0
  9
$CMLSCALE
 40
20.0
  9
$SAVEIMAGES
 70
     1
  0
ENDSEC
  0
SECTION
  2
CLASSES
  0
CLASS
  1
ACDBDICTIONARYWDFLT
  2
AcDbDictionaryWithDefault
  3
AutoCAD 2000
 90
    32768
280
     0
281
     0
  0
CLASS
  1
ACDBPLACEHOLDER
  2
AcDbPlaceHolder
  3
AutoCAD 2000
 90
    32768
280
     0
281
     0
  0
CLASS
  1
LAYOUT
  2
AcDbLayout
  3
AutoCAD 2000
 90
    32768
280
     0
281
     0
  0
CLASS
  1
RTEXT
  2
RText
  3
RText|AutoCAD Express Tool|expresstools@autodesk.com
 90
    32768
280
     0
281
     1
  0
CLASS
  1
DICTIONARYVAR
  2
AcDbDictionaryVar
  3
AutoCAD 2000
 90
    32768
280
     0
281
     0
  0
CLASS
  1
LONG_TRANSACTION
  2
AcDbLongTransaction
  3
AutoCAD 2000
 90
    32768
280
     0
281
     0
  0
CLASS
  1
LWPOLYLINE
  2
AcDbPolyline
  3
AutoCAD 2000
 90
    32768
280
     0
281
     1
  0
CLASS
  1
HATCH
  2
AcDbHatch
  3
AutoCAD 2000
 90
    32768
280
     0
281
     1
  0
CLASS
  1
XRECORD
  2
AcDbXrecord
  3
AutoCAD 2000
 90
    32768
280
     0
281
     0
  0
CLASS
  1
LONG_TRANSACTION
  2
AcDbLongTransaction
  3
AutoCAD 2000
 90
    32768
280
     0
281
     0
  0
CLASS
  1
LWPOLYLINE
  2
AcDbPolyline
  3
AutoCAD 2000
 90
    32768
280
     0
281
     1
  0
CLASS
  1
HATCH
  2
AcDbHatch
  3
AutoCAD 2000
 90
    32768
280
     0
281
     1
  0
CLASS
  1
XRECORD
  2
AcDbXrecord
  3
AutoCAD 2000
 90
    32768
280
     0
281
     0
  0
ENDSEC
  0
SECTION
  2
TABLES
  0
TABLE
  2
VPORT
  5
8
330
0
100
AcDbSymbolTable
 70
     3
  0
VPORT
  5
B73
330
8
100
AcDbSymbolTableRecord
100
AcDbViewportTableRecord
  2
*ACTIVE
 70
     0
 10
0.0
 20
0.0
 11
1.0
 21
1.0
 12
3196.415114500695
 22
2150.20792554152
 13
0.0
 23
0.0
 14
10.0
 24
10.0
 15
10.0
 25
10.0
 16
0.0
 26
0.0
 36
1.0
 17
0.0
 27
0.0
 37
0.0
 40
4354.673178763794
 41
1.649098474341192
 42
50.0
 43
0.0
 44
0.0
 50
0.0
 51
0.0
 71
     0
 72
   100
 73
     1
 74
     1
 75
     1
 76
     0
 77
     0
 78
     0
  0
ENDTAB
  0
TABLE
  2
LTYPE
  5
5
330
0
100
AcDbSymbolTable
 70
     5
  0
LTYPE
  5
14
330
5
100
AcDbSymbolTableRecord
100
AcDbLinetypeTableRecord
  2
BYBLOCK
 70
     0
  3

 72
    65
 73
     0
 40
0.0
  0
LTYPE
  5
15
330
5
100
AcDbSymbolTableRecord
100
AcDbLinetypeTableRecord
  2
BYLAYER
 70
     0
  3

 72
    65
 73
     0
 40
0.0
  0
LTYPE
  5
16
330
5
100
AcDbSymbolTableRecord
100
AcDbLinetypeTableRecord
  2
CONTINUOUS
 70
     0
  3
Solid line
 72
    65
 73
     0
 40
0.0
  0
LTYPE
  5
555
330
5
100
AcDbSymbolTableRecord
100
AcDbLinetypeTableRecord
  2
CENTER
 70
     0
  3
Center ____ _ ____ _ ____ _ ____ _ ____ _ ____
 72
    65
 73
     4
 40
50.8
 49
31.75
 74
     0
 49
-6.349999999999999
 74
     0
 49
6.349999999999999
 74
     0
 49
-6.349999999999999
 74
     0
  0
LTYPE
  5
556
330
5
100
AcDbSymbolTableRecord
100
AcDbLinetypeTableRecord
  2
HIDDEN
 70
     0
  3
Hidden __ __ __ __ __ __ __ __ __ __ __ __ __ _
 72
    65
 73
     2
 40
9.524999999999998
 49
6.349999999999999
 74
     0
 49
-3.174999999999999
 74
     0
  0
LTYPE
  5
557
330
5
100
AcDbSymbolTableRecord
100
AcDbLinetypeTableRecord
  2
HIDDEN2
 70
     0
  3
Hidden (.5x) _ _ _ _ _ _ _ _ _ _ _ _ _ _ _ _ _
 72
    65
 73
     2
 40
4.762499999999999
 49
3.174999999999999
 74
     0
 49
-1.587499999999999
 74
     0
  0
LTYPE
  5
558
330
5
100
AcDbSymbolTableRecord
100
AcDbLinetypeTableRecord
  2
PHANTOM
 70
     0
  3
Phantom ______  __  __  ______  __  __  ______
 72
    65
 73
     6
 40
63.5
 49
31.75
 74
     0
 49
-6.349999999999999
 74
     0
 49
6.349999999999999
 74
     0
 49
-6.349999999999999
 74
     0
 49
6.349999999999999
 74
     0
 49
-6.349999999999999
 74
     0
  0
ENDTAB
  0
TABLE
  2
LAYER
  5
2
330
0
100
AcDbSymbolTable
 70
    22
  0
LAYER
  5
10
330
2
100
AcDbSymbolTableRecord
100
AcDbLayerTableRecord
  2
0
 70
     0
 62
     7
  6
CONTINUOUS
  0
LAYER
  5
75
330
2
100
AcDbSymbolTableRecord
100
AcDbLayerTableRecord
  2
VIEWPORT
 70
     0
 62
     1
  6
CONTINUOUS
  0
LAYER
  5
504
330
2
100
AcDbSymbolTableRecord
100
AcDbLayerTableRecord
  2
DEFPOINTS
 70
     0
 62
     7
  6
CONTINUOUS
  0
LAYER
  5
505
330
2
100
AcDbSymbolTableRecord
100
AcDbLayerTableRecord
  2
1C1
 70
     0
 62
   254
  6
CONTINUOUS
  0
LAYER
  5
506
330
2
100
AcDbSymbolTableRecord
100
AcDbLayerTableRecord
  2
1C2
 70
     0
 62
   254
  6
CONTINUOUS
  0
LAYER
  5
507
330
2
100
AcDbSymbolTableRecord
100
AcDbLayerTableRecord
  2
2C1
 70
     0
 62
   144
  6
CONTINUOUS
  0
LAYER
  5
508
330
2
100
AcDbSymbolTableRecord
100
AcDbLayerTableRecord
  2
2C2
 70
     0
 62
   144
  6
CONTINUOUS
  0
LAYER
  5
509
330
2
100
AcDbSymbolTableRecord
100
AcDbLayerTableRecord
  2
2H1
 70
     0
 62
   144
  6
HIDDEN
  0
LAYER
  5
50A
330
2
100
AcDbSymbolTableRecord
100
AcDbLayerTableRecord
  2
2H2
 70
     0
 62
   144
  6
HIDDEN2
  0
LAYER
  5
50B
330
2
100
AcDbSymbolTableRecord
100
AcDbLayerTableRecord
  2
2P1
 70
     0
 62
   144
  6
PHANTOM
  0
LAYER
  5
50C
330
2
100
AcDbSymbolTableRecord
100
AcDbLayerTableRecord
  2
3C1
 70
     0
 62
     7
  6
CONTINUOUS
  0
LAYER
  5
50D
330
2
100
AcDbSymbolTableRecord
100
AcDbLayerTableRecord
  2
3C2
 70
     0
 62
     7
  6
CONTINUOUS
  0
LAYER
  5
50E
330
2
100
AcDbSymbolTableRecord
100
AcDbLayerTableRecord
  2
3C3
 70
     0
 62
     7
  6
CONTINUOUS
  0
LAYER
  5
50F
330
2
100
AcDbSymbolTableRecord
100
AcDbLayerTableRecord
  2
4H1
 70
     0
 62
     6
  6
HIDDEN
  0
LAYER
  5
510
330
2
100
AcDbSymbolTableRecord
100
AcDbLayerTableRecord
  2
4H2
 70
     0
 62
     6
  6
HIDDEN2
  0
LAYER
  5
511
330
2
100
AcDbSymbolTableRecord
100
AcDbLayerTableRecord
  2
5C1
 70
     0
 62
    55
  6
CONTINUOUS
  0
LAYER
  5
512
330
2
100
AcDbSymbolTableRecord
100
AcDbLayerTableRecord
  2
5C2
 70
     0
 62
    55
  6
CONTINUOUS
  0
LAYER
  5
513
330
2
100
AcDbSymbolTableRecord
100
AcDbLayerTableRecord
  2
8C1
 70
     0
 62
    92
  6
CONTINUOUS
  0
LAYER
  5
514
330
2
100
AcDbSymbolTableRecord
100
AcDbLayerTableRecord
  2
HOJO
 70
     0
 62
     5
  6
CONTINUOUS
  0
LAYER
  5
515
330
2
100
AcDbSymbolTableRecord
100
AcDbLayerTableRecord
  2
KIJUN
 70
     0
 62
     1
  6
CENTER
  0
LAYER
  5
516
330
2
100
AcDbSymbolTableRecord
100
AcDbLayerTableRecord
  2
MOJI
 70
     0
 62
     7
  6
CONTINUOUS
  0
LAYER
  5
517
330
2
100
AcDbSymbolTableRecord
100
AcDbLayerTableRecord
  2
SUNPO
 70
     0
 62
   144
  6
CONTINUOUS
  0
ENDTAB
  0
TABLE
  2
STYLE
  5
3
330
0
100
AcDbSymbolTable
 70
     6
  0
STYLE
  5
11
330
3
100
AcDbSymbolTableRecord
100
AcDbTextStyleTableRecord
  2
STANDARD
 70
     0
 40
0.0
 41
1.0
 50
0.0
 71
     0
 42
2.5
  3
txt
  4

  0
STYLE
  5
2C
330
3
100
AcDbSymbolTableRecord
100
AcDbTextStyleTableRecord
  2

 70
     1
 40
0.0
 41
1.0
 50
0.0
 71
     0
 42
2.5
  3
ltypeshp.shx
  4

  0
STYLE
  5
18E
330
3
100
AcDbSymbolTableRecord
100
AcDbTextStyleTableRecord
  2
ADD
 70
     0
 40
0.0
 41
1.0
 50
0.0
 71
     0
 42
50.0
  3
romans.shx
  4
bigfont.shx
  0
STYLE
  5
191
330
3
100
AcDbSymbolTableRecord
100
AcDbTextStyleTableRecord
  2
MSG
 70
     0
 40
0.0
 41
1.0
 50
0.0
 71
     0
 42
2.5
  3
MS Gothic.ttf
  4

1001
ACAD
1000
MS Gothic
1071
    32817
  0
STYLE
  5
5C8
330
3
100
AcDbSymbolTableRecord
100
AcDbTextStyleTableRecord
  2
STANDARD15
 70
     0
 40
0.0
 41
1.0
 50
15.0
 71
     0
 42
2.5
  3
ROMANS
  4
bigfont
  0
STYLE
  5
5C9
330
3
100
AcDbSymbolTableRecord
100
AcDbTextStyleTableRecord
  2
ROMANS15
 70
     0
 40
0.0
 41
1.0
 50
15.0
 71
     0
 42
2.5
  3
romans
  4

  0
ENDTAB
  0
TABLE
  2
VIEW
  5
6
330
0
100
AcDbSymbolTable
 70
     1
  0
VIEW
  5
54D
330
6
100
AcDbSymbolTableRecord
100
AcDbViewTableRecord
  2
ALL
 70
     0
 40
594.0
 10
420.5
 20
297.0
 41
865.125
 11
0.0
 21
0.0
 31
1.0
 12
0.0
 22
0.0
 32
0.0
 42
50.0
 43
0.0
 44
0.0
 50
0.0
 71
     0
  0
ENDTAB
  0
TABLE
  2
UCS
  5
7
330
0
100
AcDbSymbolTable
 70
     0
  0
ENDTAB
  0
TABLE
  2
APPID
  5
9
330
0
100
AcDbSymbolTable
 70
     4
  0
APPID
  5
12
330
9
100
AcDbSymbolTableRecord
100
AcDbRegAppTableRecord
  2
ACAD
 70
     0
  0
APPID
  5
5CB
330
9
100
AcDbSymbolTableRecord
100
AcDbRegAppTableRecord
  2
ARAIGUMI_YOHEKI
 70
     0
  0
APPID
  5
5CC
330
9
100
AcDbSymbolTableRecord
100
AcDbRegAppTableRecord
  2
CONTENTTABDATA
 70
     0
  0
APPID
  5
5CD
330
9
100
AcDbSymbolTableRecord
100
AcDbRegAppTableRecord
  2
CONTENTCURRENTTAB
 70
     0
  0
ENDTAB
  0
TABLE
  2
DIMSTYLE
  5
A
330
0
100
AcDbSymbolTable
 70
    10
  0
DIMSTYLE
105
27
330
A
100
AcDbSymbolTableRecord
100
AcDbDimStyleTableRecord
  2
ISO-25
 70
     0
  3

  4

  5

  6

  7

 40
1.0
 41
2.5
 42
0.625
 43
3.75
 44
1.25
 45
0.0
 46
0.0
 47
0.0
 48
0.0
140
2.5
141
2.5
142
0.0
143
0.03937007874016
144
1.0
145
0.0
146
1.0
147
0.625
 71
     0
 72
     0
 73
     0
 74
     0
 75
     0
 76
     0
 77
     1
 78
     8
170
     0
171
     3
172
     1
173
     0
174
     0
175
     0
176
     0
177
     0
178
     0
270
     2
271
     2
272
     2
273
     2
274
     3
340
11
275
     0
280
     0
281
     0
282
     0
283
     0
284
     8
285
     0
286
     0
287
     3
288
     0
  0
DIMSTYLE
105
197
330
A
100
AcDbSymbolTableRecord
100
AcDbDimStyleTableRecord
  2
ADD
 70
     0
  3

  4

  5

  6

  7

 40
1.0
 41
2.5
 42
1.0
 43
7.0
 44
0.5
 45
0.0
 46
0.0
 47
0.0
 48
0.0
140
2.5
141
2.5
142
0.0
143
0.03937007874016
144
1.0
145
0.7
146
1.0
147
0.625
 71
     0
 72
     0
 73
     0
 74
     0
 75
     0
 76
     0
 77
     1
 78
     8
170
     0
171
     3
172
     1
173
     0
174
     1
175
     0
176
   144
177
   144
178
     7
270
     2
271
     1
272
     1
273
     2
274
     3
340
18E
275
     0
280
     0
281
     0
282
     0
283
     2
284
     8
285
     0
286
     0
287
     5
288
     0
  0
DIMSTYLE
105
3E6
330
A
100
AcDbSymbolTableRecord
100
AcDbDimStyleTableRecord
  2
ADD$2
 70
     0
  3

  4

  5

  6

  7

 40
1.0
 41
2.5
 42
1.0
 43
7.0
 44
0.5
 45
0.0
 46
0.0
 47
0.0
 48
0.0
140
2.5
141
2.5
142
0.0
143
0.03937007874016
144
1.0
145
0.7
146
1.0
147
0.625
 71
     0
 72
     0
 73
     0
 74
     0
 75
     0
 76
     0
 77
     1
 78
     8
170
     0
171
     3
172
     1
173
     0
174
     1
175
     0
176
   144
177
   144
178
     7
270
     2
271
     1
272
     1
273
     2
274
     3
340
18E
275
     0
280
     0
281
     0
282
     0
283
     2
284
     8
285
     0
286
     0
287
     5
288
     0
  0
DIMSTYLE
105
3E7
330
A
100
AcDbSymbolTableRecord
100
AcDbDimStyleTableRecord
  2
ADD$4
 70
     0
  3

  4

  5

  6

  7

 40
1.0
 41
2.5
 42
1.0
 43
7.0
 44
0.5
 45
0.0
 46
0.0
 47
0.0
 48
0.0
140
2.5
141
2.5
142
0.0
143
0.03937007874016
144
1.0
145
0.0
146
1.0
147
0.625
 71
     0
 72
     0
 73
     0
 74
     0
 75
     0
 76
     0
 77
     1
 78
     8
170
     0
171
     3
172
     1
173
     0
174
     1
175
     0
176
   144
177
   144
178
     7
270
     2
271
     1
272
     1
273
     2
274
     3
340
18E
275
     0
280
     0
281
     0
282
     0
283
     2
284
     8
285
     0
286
     0
287
     5
288
     0
  0
DIMSTYLE
105
3E8
330
A
100
AcDbSymbolTableRecord
100
AcDbDimStyleTableRecord
  2
ADD$3
 70
     0
  3

  4

  5

  6

  7

 40
1.0
 41
2.5
 42
1.0
 43
7.0
 44
0.5
 45
0.0
 46
0.0
 47
0.0
 48
0.0
140
2.5
141
2.5
142
0.0
143
0.03937007874016
144
1.0
145
0.0
146
1.0
147
0.625
 71
     0
 72
     0
 73
     0
 74
     0
 75
     0
 76
     0
 77
     1
 78
     8
170
     0
171
     3
172
     1
173
     0
174
     1
175
     0
176
   144
177
   144
178
     7
270
     2
271
     1
272
     1
273
     2
274
     3
340
18E
275
     0
280
     0
281
     0
282
     0
283
     2
284
     8
285
     0
286
     0
287
     5
288
     0
  0
DIMSTYLE
105
3E9
330
A
100
AcDbSymbolTableRecord
100
AcDbDimStyleTableRecord
  2
ADD$6
 70
     0
  3

  4

  5

  6

  7

 40
1.0
 41
2.5
 42
1.0
 43
7.0
 44
0.5
 45
0.0
 46
0.0
 47
0.0
 48
0.0
140
2.5
141
2.5
142
0.0
143
0.03937007874016
144
1.0
145
0.0
146
1.0
147
0.625
 71
     0
 72
     0
 73
     0
 74
     0
 75
     0
 76
     0
 77
     1
 78
     8
170
     0
171
     3
172
     1
173
     0
174
     1
175
     0
176
   144
177
   144
178
     7
270
     2
271
     1
272
     1
273
     2
274
     3
340
18E
275
     0
280
     0
281
     0
282
     0
283
     2
284
     8
285
     0
286
     0
287
     5
288
     0
  0
DIMSTYLE
105
3EA
330
A
100
AcDbSymbolTableRecord
100
AcDbDimStyleTableRecord
  2
ADD$7
 70
     0
  3

  4

  5

  6

  7

 40
1.0
 41
2.5
 42
1.0
 43
7.0
 44
0.5
 45
0.0
 46
0.0
 47
0.0
 48
0.0
140
2.5
141
2.5
142
0.0
143
0.03937007874016
144
1.0
145
0.0
146
1.0
147
0.625
 71
     0
 72
     0
 73
     0
 74
     0
 75
     0
 76
     0
 77
     0
 78
     8
170
     0
171
     3
172
     1
173
     0
174
     1
175
     0
176
   144
177
   144
178
     7
270
     2
271
     1
272
     1
273
     2
274
     3
340
18E
275
     0
280
     0
281
     0
282
     0
283
     2
284
     8
285
     0
286
     0
287
     5
288
     0
  0
DIMSTYLE
105
518
330
A
100
AcDbSymbolTableRecord
100
AcDbDimStyleTableRecord
  2
STANDARD
 70
     0
  3

  4

  5

  6

  7

 40
1.0
 41
0.18
 42
0.0625
 43
0.38
 44
0.18
 45
0.0
 46
0.0
 47
0.0
 48
0.0
140
0.18
141
0.09
142
0.0
143
25.4
144
1.0
145
0.0
146
1.0
147
0.09
 71
     0
 72
     0
 73
     1
 74
     1
 75
     0
 76
     0
 77
     0
 78
     0
170
     0
171
     2
172
     0
173
     0
174
     0
175
     0
176
     0
177
     0
178
     0
270
     2
271
     4
272
     4
273
     2
274
     2
340
11
275
     0
280
     0
281
     0
282
     0
283
     1
284
     0
285
     0
286
     0
287
     3
288
     0
  0
DIMSTYLE
105
550
330
A
100
AcDbSymbolTableRecord
100
AcDbDimStyleTableRecord
  2
ADD$0
 70
     0
  3

  4

  5

  6

  7

 40
1.0
 41
0.7
 42
1.0
 43
7.0
 44
0.5
 45
0.0
 46
0.0
 47
0.0
 48
0.0
140
2.5
141
2.5
142
0.0
143
0.03937007874016
144
1.0
145
0.7
146
1.0
147
0.625
 71
     0
 72
     0
 73
     0
 74
     0
 75
     0
 76
     0
 77
     1
 78
     8
170
     0
171
     3
172
     1
173
     0
174
     1
175
     0
176
   144
177
   144
178
     7
270
     2
271
     1
272
     1
273
     2
274
     3
340
18E
275
     0
280
     0
281
     0
282
     0
283
     2
284
     8
285
     0
286
     0
287
     5
288
     0
  0
DIMSTYLE
105
59B
330
A
100
AcDbSymbolTableRecord
100
AcDbDimStyleTableRecord
  2
ADD_M
 70
     0
  3

  4

  5

  6

  7

 40
1.0
 41
2.5
 42
1.0
 43
7.0
 44
0.5
 45
0.0
 46
0.0
 47
0.0
 48
0.0
140
2.5
141
2.5
142
0.0
143
0.03937007874016
144
1.0
145
0.7
146
1.0
147
0.625
 71
     0
 72
     0
 73
     0
 74
     0
 75
     0
 76
     0
 77
     1
 78
     8
170
     0
171
     3
172
     1
173
     0
174
     1
175
     0
176
   144
177
   144
178
     7
270
     2
271
     1
272
     1
273
     2
274
     3
340
18E
275
     0
280
     0
281
     0
282
     0
283
     2
284
     8
285
     0
286
     0
287
     5
288
     0
  0
ENDTAB
  0
TABLE
  2
BLOCK_RECORD
  5
1
330
0
100
AcDbSymbolTable
 70
    15
  0
BLOCK_RECORD
  5
1F
102
{ACAD_XDICTIONARY
360
A11
102
}
330
1
100
AcDbSymbolTableRecord
100
AcDbBlockTableRecord
  2
*MODEL_SPACE
  0
BLOCK_RECORD
  5
1B
102
{ACAD_XDICTIONARY
360
A13
102
}
330
1
100
AcDbSymbolTableRecord
100
AcDbBlockTableRecord
  2
*PAPER_SPACE
  0
BLOCK_RECORD
  5
192
330
1
100
AcDbSymbolTableRecord
100
AcDbBlockTableRecord
  2
_DOT
  0
BLOCK_RECORD
  5
5CE
330
1
100
AcDbSymbolTableRecord
100
AcDbBlockTableRecord
  2
A4
  0
BLOCK_RECORD
  5
6A4
330
1
100
AcDbSymbolTableRecord
100
AcDbBlockTableRecord
  2
*D2
  0
BLOCK_RECORD
  5
72E
330
1
100
AcDbSymbolTableRecord
100
AcDbBlockTableRecord
  2
*D3
  0
BLOCK_RECORD
  5
759
330
1
100
AcDbSymbolTableRecord
100
AcDbBlockTableRecord
  2
*D4
  0
BLOCK_RECORD
  5
768
330
1
100
AcDbSymbolTableRecord
100
AcDbBlockTableRecord
  2
*D5
  0
BLOCK_RECORD
  5
777
330
1
100
AcDbSymbolTableRecord
100
AcDbBlockTableRecord
  2
*D6
  0
BLOCK_RECORD
  5
8F0
330
1
100
AcDbSymbolTableRecord
100
AcDbBlockTableRecord
  2
*D7
  0
BLOCK_RECORD
  5
927
330
1
100
AcDbSymbolTableRecord
100
AcDbBlockTableRecord
  2
*D8
  0
BLOCK_RECORD
  5
934
330
1
100
AcDbSymbolTableRecord
100
AcDbBlockTableRecord
  2
*D9
  0
BLOCK_RECORD
  5
954
330
1
100
AcDbSymbolTableRecord
100
AcDbBlockTableRecord
  2
*D10
  0
BLOCK_RECORD
  5
966
330
1
100
AcDbSymbolTableRecord
100
AcDbBlockTableRecord
  2
*D11
  0
BLOCK_RECORD
  5
984
330
1
100
AcDbSymbolTableRecord
100
AcDbBlockTableRecord
  2
*D12
  0
BLOCK_RECORD
  5
9A0
330
1
100
AcDbSymbolTableRecord
100
AcDbBlockTableRecord
  2
*D13
  0
BLOCK_RECORD
  5
9C8
330
1
100
AcDbSymbolTableRecord
100
AcDbBlockTableRecord
  2
*D14
  0
ENDTAB
  0
ENDSEC
  0
SECTION
  2
BLOCKS
  0
BLOCK
  5
20
330
1F
100
AcDbEntity
  8
0
100
AcDbBlockBegin
  2
*MODEL_SPACE
 70
     0
 10
0.0
 20
0.0
 30
0.0
  3
*MODEL_SPACE
  1

  0
ENDBLK
  5
21
330
1F
100
AcDbEntity
  8
0
100
AcDbBlockEnd
  0
BLOCK
  5
1C
330
1B
100
AcDbEntity
 67
     1
  8
0
100
AcDbBlockBegin
  2
*PAPER_SPACE
 70
     0
 10
0.0
 20
0.0
 30
0.0
  3
*PAPER_SPACE
  1

  0
ENDBLK
  5
1D
330
1B
100
AcDbEntity
 67
     1
  8
0
100
AcDbBlockEnd
  0
BLOCK
  5
195
330
192
100
AcDbEntity
  8
0
100
AcDbBlockBegin
  2
_DOT
 70
     0
 10
0.0
 20
0.0
 30
0.0
  3
_DOT
  1

  0
POLYLINE
  5
193
330
192
100
AcDbEntity
  8
0
 62
     0
100
AcDb2dPolyline
 66
     1
 10
0.0
 20
0.0
 30
0.0
 70
     1
 40
0.5
 41
0.5
  0
VERTEX
  5
B76
330
193
100
AcDbEntity
  8
0
 62
     0
100
AcDbVertex
100
AcDb2dVertex
 10
-0.25
 20
0.0
 30
0.0
 42
1.0
  0
VERTEX
  5
B77
330
193
100
AcDbEntity
  8
0
 62
     0
100
AcDbVertex
100
AcDb2dVertex
 10
0.25
 20
0.0
 30
0.0
 42
1.0
  0
SEQEND
  5
B78
330
193
100
AcDbEntity
  8
0
 62
     0
  0
LINE
  5
194
330
192
100
AcDbEntity
  8
0
 62
     0
100
AcDbLine
 10
-0.5
 20
0.0
 30
0.0
 11
-1.0
 21
0.0
 31
0.0
  0
ENDBLK
  5
196
330
192
100
AcDbEntity
  8
0
100
AcDbBlockEnd
  0
BLOCK
  5
5D1
330
5CE
100
AcDbEntity
  8
0
100
AcDbBlockBegin
  2
A4
 70
     0
 10
0.0
 20
0.0
 30
0.0
  3
A4
  1

  0
POLYLINE
  5
5CF
330
5CE
100
AcDbEntity
  8
HOJO
100
AcDb2dPolyline
 66
     1
 10
0.0
 20
0.0
 30
0.0
 70
     1
  0
VERTEX
  5
B79
330
5CF
100
AcDbEntity
  8
HOJO
100
AcDbVertex
100
AcDb2dVertex
 10
0.0
 20
0.0
 30
0.0
  0
VERTEX
  5
B7A
330
5CF
100
AcDbEntity
  8
HOJO
100
AcDbVertex
100
AcDb2dVertex
 10
297.0
 20
0.0
 30
0.0
  0
VERTEX
  5
B7B
330
5CF
100
AcDbEntity
  8
HOJO
100
AcDbVertex
100
AcDb2dVertex
 10
297.0
 20
210.0
 30
0.0
  0
VERTEX
  5
B7C
330
5CF
100
AcDbEntity
  8
HOJO
100
AcDbVertex
100
AcDb2dVertex
 10
0.0
 20
210.0
 30
0.0
  0
SEQEND
  5
B7D
330
5CF
100
AcDbEntity
  8
HOJO
  0
POLYLINE
  5
5D0
330
5CE
100
AcDbEntity
  8
HOJO
100
AcDb2dPolyline
 66
     1
 10
0.0
 20
0.0
 30
0.0
 70
     1
  0
VERTEX
  5
B7E
330
5D0
100
AcDbEntity
  8
HOJO
100
AcDbVertex
100
AcDb2dVertex
 10
18.0
 20
13.0
 30
0.0
  0
VERTEX
  5
B7F
330
5D0
100
AcDbEntity
  8
HOJO
100
AcDbVertex
100
AcDb2dVertex
 10
279.0
 20
13.0
 30
0.0
  0
VERTEX
  5
B80
330
5D0
100
AcDbEntity
  8
HOJO
100
AcDbVertex
100
AcDb2dVertex
 10
279.0
 20
197.0
 30
0.0
  0
VERTEX
  5
B81
330
5D0
100
AcDbEntity
  8
HOJO
100
AcDbVertex
100
AcDb2dVertex
 10
18.0
 20
197.0
 30
0.0
  0
SEQEND
  5
B82
330
5D0
100
AcDbEntity
  8
HOJO
  0
ENDBLK
  5
5D2
330
5CE
100
AcDbEntity
  8
0
100
AcDbBlockEnd
  0
BLOCK
  5
6AE
330
6A4
100
AcDbEntity
  8
0
100
AcDbBlockBegin
  2
*D2
 70
     1
 10
0.0
 20
0.0
 30
0.0
  3
*D2
  1

  0
LINE
  5
6A5
330
6A4
100
AcDbEntity
  8
SUNPO
 62
   144
100
AcDbLine
 10
1500.0
 20
1980.0
 30
0.0
 11
1500.0
 21
1755.768892288026
 31
0.0
  0
LINE
  5
6A6
330
6A4
100
AcDbEntity
  8
SUNPO
 62
   144
100
AcDbLine
 10
2070.0
 20
1980.0
 30
0.0
 11
2070.0
 21
1755.768892288026
 31
0.0
  0
LINE
  5
6A7
330
6A4
100
AcDbEntity
  8
SUNPO
 62
   144
100
AcDbLine
 10
1514.0
 20
1765.768892288026
 30
0.0
 11
2056.0
 21
1765.768892288026
 31
0.0
  0
SOLID
  5
6A8
330
6A4
100
AcDbEntity
  8
SUNPO
 62
   144
100
AcDbTrace
 10
1514.0
 20
1768.102225621359
 30
0.0
 11
1514.0
 21
1763.435558954692
 31
0.0
 12
1500.0
 22
1765.768892288026
 32
0.0
 13
1500.0
 23
1765.768892288026
 33
0.0
  0
SOLID
  5
6A9
330
6A4
100
AcDbEntity
  8
SUNPO
 62
   144
100
AcDbTrace
 10
2056.0
 20
1768.102225621359
 30
0.0
 11
2056.0
 21
1763.435558954692
 31
0.0
 12
2070.0
 22
1765.768892288026
 32
0.0
 13
2070.0
 23
1765.768892288026
 33
0.0
  0
MTEXT
  5
6AA
330
6A4
100
AcDbEntity
  8
SUNPO
 62
     7
100
AcDbMText
 10
1785.0
 20
1803.268892288026
 30
0.0
 40
50.0
 41
0.0
 71
     5
 72
     1
  1
\A2;570
  7
ADD
1001
ACAD
1000
MTEXTBEGIN
1070
    73
1070
     1
1070
    44
1040
1.0
1070
    74
1070
     0
1000
MTEXTEND
  0
POINT
  5
6AB
330
6A4
100
AcDbEntity
  8
DEFPOINTS
 62
     0
100
AcDbPoint
 10
1500.0
 20
2000.0
 30
0.0
  0
POINT
  5
6AC
330
6A4
100
AcDbEntity
  8
DEFPOINTS
 62
     0
100
AcDbPoint
 10
2070.0
 20
2000.0
 30
0.0
  0
POINT
  5
6AD
330
6A4
100
AcDbEntity
  8
DEFPOINTS
 62
     0
100
AcDbPoint
 10
2070.0
 20
1765.768892288026
 30
0.0
  0
ENDBLK
  5
6AF
330
6A4
100
AcDbEntity
  8
0
100
AcDbBlockEnd
  0
BLOCK
  5
73A
330
72E
100
AcDbEntity
  8
0
100
AcDbBlockBegin
  2
*D3
 70
     1
 10
0.0
 20
0.0
 30
0.0
  3
*D3
  1

  0
LINE
  5
72F
330
72E
100
AcDbEntity
  8
SUNPO
 62
   144
100
AcDbLine
 10
2090.0
 20
2143.0
 30
0.0
 11
2340.833796133149
 21
2143.0
 31
0.0
  0
LINE
  5
730
330
72E
100
AcDbEntity
  8
SUNPO
 62
   144
100
AcDbLine
 10
2090.0
 20
2000.0
 30
0.0
 11
2340.833796133149
 21
2000.0
 31
0.0
  0
LINE
  5
731
330
72E
100
AcDbEntity
  8
SUNPO
 62
   144
100
AcDbLine
 10
2330.833796133148
 20
2157.0
 30
0.0
 11
2330.833796133148
 21
2171.0
 31
0.0
  0
LINE
  5
732
330
72E
100
AcDbEntity
  8
SUNPO
 62
   144
100
AcDbLine
 10
2330.833796133148
 20
1986.0
 30
0.0
 11
2330.833796133148
 21
1972.0
 31
0.0
  0
LINE
  5
733
330
72E
100
AcDbEntity
  8
SUNPO
 62
   144
100
AcDbLine
 10
2330.833796133148
 20
2143.0
 30
0.0
 11
2330.833796133148
 21
2000.0
 31
0.0
  0
SOLID
  5
734
330
72E
100
AcDbEntity
  8
SUNPO
 62
   144
100
AcDbTrace
 10
2328.500462799815
 20
2157.0
 30
0.0
 11
2333.167129466482
 21
2157.0
 31
0.0
 12
2330.833796133148
 22
2143.0
 32
0.0
 13
2330.833796133148
 23
2143.0
 33
0.0
  0
SOLID
  5
735
330
72E
100
AcDbEntity
  8
SUNPO
 62
   144
100
AcDbTrace
 10
2328.500462799815
 20
1986.0
 30
0.0
 11
2333.167129466482
 21
1986.0
 31
0.0
 12
2330.833796133148
 22
2000.0
 32
0.0
 13
2330.833796133148
 23
2000.0
 33
0.0
  0
MTEXT
  5
736
330
72E
100
AcDbEntity
  8
SUNPO
 62
     7
100
AcDbMText
 10
2293.333796133148
 20
2071.5
 30
0.0
 40
50.0
 41
0.0
 71
     5
 72
     1
  1
\A2;143
  7
ADD
 11
0.0000000000000001
 21
1.0
 31
0.0
1001
ACAD
1000
MTEXTBEGIN
1070
    73
1070
     1
1070
    44
1040
1.0
1070
    74
1070
     0
1000
MTEXTEND
  0
POINT
  5
737
330
72E
100
AcDbEntity
  8
DEFPOINTS
 62
     0
100
AcDbPoint
 10
2070.0
 20
2143.0
 30
0.0
  0
POINT
  5
738
330
72E
100
AcDbEntity
  8
DEFPOINTS
 62
     0
100
AcDbPoint
 10
2070.0
 20
2000.0
 30
0.0
  0
POINT
  5
739
330
72E
100
AcDbEntity
  8
DEFPOINTS
 62
     0
100
AcDbPoint
 10
2330.833796133148
 20
2000.0
 30
0.0
  0
ENDBLK
  5
73B
330
72E
100
AcDbEntity
  8
0
100
AcDbBlockEnd
  0
BLOCK
  5
765
330
759
100
AcDbEntity
  8
0
100
AcDbBlockBegin
  2
*D4
 70
     1
 10
0.0
 20
0.0
 30
0.0
  3
*D4
  1

  0
LINE
  5
75A
330
759
100
AcDbEntity
  8
SUNPO
 62
   144
100
AcDbLine
 10
2980.0
 20
2120.0
 30
0.0
 11
2789.76772268631
 21
2120.0
 31
0.0
  0
LINE
  5
75B
330
759
100
AcDbEntity
  8
SUNPO
 62
   144
100
AcDbLine
 10
2980.0
 20
2000.0
 30
0.0
 11
2789.76772268631
 21
2000.0
 31
0.0
  0
LINE
  5
75C
330
759
100
AcDbEntity
  8
SUNPO
 62
   144
100
AcDbLine
 10
2799.76772268631
 20
2134.0
 30
0.0
 11
2799.76772268631
 21
2148.0
 31
0.0
  0
LINE
  5
75D
330
759
100
AcDbEntity
  8
SUNPO
 62
   144
100
AcDbLine
 10
2799.76772268631
 20
1986.0
 30
0.0
 11
2799.76772268631
 21
1972.0
 31
0.0
  0
LINE
  5
75E
330
759
100
AcDbEntity
  8
SUNPO
 62
   144
100
AcDbLine
 10
2799.76772268631
 20
2120.0
 30
0.0
 11
2799.76772268631
 21
2000.0
 31
0.0
  0
SOLID
  5
75F
330
759
100
AcDbEntity
  8
SUNPO
 62
   144
100
AcDbTrace
 10
2797.434389352977
 20
2134.0
 30
0.0
 11
2802.101056019644
 21
2134.0
 31
0.0
 12
2799.76772268631
 22
2120.0
 32
0.0
 13
2799.76772268631
 23
2120.0
 33
0.0
  0
SOLID
  5
760
330
759
100
AcDbEntity
  8
SUNPO
 62
   144
100
AcDbTrace
 10
2797.434389352977
 20
1986.0
 30
0.0
 11
2802.101056019644
 21
1986.0
 31
0.0
 12
2799.76772268631
 22
2000.0
 32
0.0
 13
2799.76772268631
 23
2000.0
 33
0.0
  0
MTEXT
  5
761
330
759
100
AcDbEntity
  8
SUNPO
 62
     7
100
AcDbMText
 10
2762.26772268631
 20
2060.0
 30
0.0
 40
50.0
 41
0.0
 71
     5
 72
     1
  1
\A2;120
  7
ADD
 11
0.0000000000000001
 21
1.0
 31
0.0
1001
ACAD
1000
MTEXTBEGIN
1070
    73
1070
     1
1070
    44
1040
1.0
1070
    74
1070
     0
1000
MTEXTEND
  0
POINT
  5
762
330
759
100
AcDbEntity
  8
DEFPOINTS
 62
     0
100
AcDbPoint
 10
3000.0
 20
2120.0
 30
0.0
  0
POINT
  5
763
330
759
100
AcDbEntity
  8
DEFPOINTS
 62
     0
100
AcDbPoint
 10
3000.0
 20
2000.0
 30
0.0
  0
POINT
  5
764
330
759
100
AcDbEntity
  8
DEFPOINTS
 62
     0
100
AcDbPoint
 10
2799.76772268631
 20
2000.0
 30
0.0
  0
ENDBLK
  5
766
330
759
100
AcDbEntity
  8
0
100
AcDbBlockEnd
  0
BLOCK
  5
774
330
768
100
AcDbEntity
  8
0
100
AcDbBlockBegin
  2
*D5
 70
     1
 10
0.0
 20
0.0
 30
0.0
  3
*D5
  1

  0
LINE
  5
769
330
768
100
AcDbEntity
  8
SUNPO
 62
   144
100
AcDbLine
 10
5020.0
 20
2143.0
 30
0.0
 11
5324.120863089082
 21
2142.999999999999
 31
0.0
  0
LINE
  5
76A
330
768
100
AcDbEntity
  8
SUNPO
 62
   144
100
AcDbLine
 10
5020.0
 20
2000.0
 30
0.0
 11
5324.120863089081
 21
2000.0
 31
0.0
  0
LINE
  5
76B
330
768
100
AcDbEntity
  8
SUNPO
 62
   144
100
AcDbLine
 10
5314.120863089082
 20
2156.999999999999
 30
0.0
 11
5314.120863089082
 21
2170.999999999999
 31
0.0
  0
LINE
  5
76C
330
768
100
AcDbEntity
  8
SUNPO
 62
   144
100
AcDbLine
 10
5314.120863089081
 20
1986.0
 30
0.0
 11
5314.120863089081
 21
1972.0
 31
0.0
  0
LINE
  5
76D
330
768
100
AcDbEntity
  8
SUNPO
 62
   144
100
AcDbLine
 10
5314.120863089082
 20
2142.999999999999
 30
0.0
 11
5314.120863089081
 21
2000.0
 31
0.0
  0
SOLID
  5
76E
330
768
100
AcDbEntity
  8
SUNPO
 62
   144
100
AcDbTrace
 10
5311.78752975575
 20
2156.999999999999
 30
0.0
 11
5316.454196422416
 21
2156.999999999999
 31
0.0
 12
5314.120863089082
 22
2142.999999999999
 32
0.0
 13
5314.120863089082
 23
2142.999999999999
 33
0.0
  0
SOLID
  5
76F
330
768
100
AcDbEntity
  8
SUNPO
 62
   144
100
AcDbTrace
 10
5311.787529755748
 20
1986.0
 30
0.0
 11
5316.454196422415
 21
1986.0
 31
0.0
 12
5314.120863089081
 22
2000.0
 32
0.0
 13
5314.120863089081
 23
2000.0
 33
0.0
  0
MTEXT
  5
770
330
768
100
AcDbEntity
  8
SUNPO
 62
     7
100
AcDbMText
 10
5276.620863089082
 20
2071.5
 30
0.0
 40
50.0
 41
0.0
 71
     5
 72
     1
  1
\A2;143
  7
ADD
 11
0.0000000000000001
 21
1.0
 31
0.0
1001
ACAD
1000
MTEXTBEGIN
1070
    73
1070
     1
1070
    44
1040
1.0
1070
    74
1070
     0
1000
MTEXTEND
  0
POINT
  5
771
330
768
100
AcDbEntity
  8
DEFPOINTS
 62
     0
100
AcDbPoint
 10
5000.0
 20
2143.0
 30
0.0
  0
POINT
  5
772
330
768
100
AcDbEntity
  8
DEFPOINTS
 62
     0
100
AcDbPoint
 10
5000.0
 20
2000.0
 30
0.0
  0
POINT
  5
773
330
768
100
AcDbEntity
  8
DEFPOINTS
 62
     0
100
AcDbPoint
 10
5314.120863089081
 20
2000.0
 30
0.0
  0
ENDBLK
  5
775
330
768
100
AcDbEntity
  8
0
100
AcDbBlockEnd
  0
BLOCK
  5
781
330
777
100
AcDbEntity
  8
0
100
AcDbBlockBegin
  2
*D6
 70
     1
 10
0.0
 20
0.0
 30
0.0
  3
*D6
  1

  0
LINE
  5
778
330
777
100
AcDbEntity
  8
SUNPO
 62
   144
100
AcDbLine
 10
3000.0
 20
1980.0
 30
0.0
 11
3000.0
 21
1745.768892288026
 31
0.0
  0
LINE
  5
779
330
777
100
AcDbEntity
  8
SUNPO
 62
   144
100
AcDbLine
 10
5000.0
 20
1980.0
 30
0.0
 11
5000.0
 21
1745.768892288026
 31
0.0
  0
LINE
  5
77A
330
777
100
AcDbEntity
  8
SUNPO
 62
   144
100
AcDbLine
 10
3014.0
 20
1755.768892288026
 30
0.0
 11
4986.0
 21
1755.768892288026
 31
0.0
  0
SOLID
  5
77B
330
777
100
AcDbEntity
  8
SUNPO
 62
   144
100
AcDbTrace
 10
3014.0
 20
1758.102225621359
 30
0.0
 11
3014.0
 21
1753.435558954693
 31
0.0
 12
3000.0
 22
1755.768892288026
 32
0.0
 13
3000.0
 23
1755.768892288026
 33
0.0
  0
SOLID
  5
77C
330
777
100
AcDbEntity
  8
SUNPO
 62
   144
100
AcDbTrace
 10
4986.0
 20
1758.102225621359
 30
0.0
 11
4986.0
 21
1753.435558954693
 31
0.0
 12
5000.0
 22
1755.768892288026
 32
0.0
 13
5000.0
 23
1755.768892288026
 33
0.0
  0
MTEXT
  5
77D
330
777
100
AcDbEntity
  8
SUNPO
 62
     7
100
AcDbMText
 10
4000.0
 20
1793.268892288025
 30
0.0
 40
50.0
 41
0.0
 71
     5
 72
     1
  1
\A2;2000
  7
ADD
1001
ACAD
1000
MTEXTBEGIN
1070
    73
1070
     1
1070
    44
1040
1.0
1070
    74
1070
     0
1000
MTEXTEND
  0
POINT
  5
77E
330
777
100
AcDbEntity
  8
DEFPOINTS
 62
     0
100
AcDbPoint
 10
3000.0
 20
2000.0
 30
0.0
  0
POINT
  5
77F
330
777
100
AcDbEntity
  8
DEFPOINTS
 62
     0
100
AcDbPoint
 10
5000.0
 20
2000.0
 30
0.0
  0
POINT
  5
780
330
777
100
AcDbEntity
  8
DEFPOINTS
 62
     0
100
AcDbPoint
 10
5000.0
 20
1755.768892288026
 30
0.0
  0
ENDBLK
  5
782
330
777
100
AcDbEntity
  8
0
100
AcDbBlockEnd
  0
BLOCK
  5
8FC
330
8F0
100
AcDbEntity
  8
0
100
AcDbBlockBegin
  2
*D7
 70
     1
 10
0.0
 20
0.0
 30
0.0
  3
*D7
  1

  0
LINE
  5
8F1
330
8F0
100
AcDbEntity
  8
SUNPO
 62
   144
100
AcDbLine
 10
4020.0
 20
2120.0
 30
0.0
 11
4272.387357755721
 21
2120.0
 31
0.0
  0
LINE
  5
8F2
330
8F0
100
AcDbEntity
  8
SUNPO
 62
   144
100
AcDbLine
 10
4020.0
 20
2000.0
 30
0.0
 11
4272.38735775572
 21
2000.0
 31
0.0
  0
LINE
  5
8F3
330
8F0
100
AcDbEntity
  8
SUNPO
 62
   144
100
AcDbLine
 10
4262.38735775572
 20
2134.0
 30
0.0
 11
4262.38735775572
 21
2148.0
 31
0.0
  0
LINE
  5
8F4
330
8F0
100
AcDbEntity
  8
SUNPO
 62
   144
100
AcDbLine
 10
4262.387357755719
 20
1986.0
 30
0.0
 11
4262.387357755719
 21
1972.0
 31
0.0
  0
LINE
  5
8F5
330
8F0
100
AcDbEntity
  8
SUNPO
 62
   144
100
AcDbLine
 10
4262.38735775572
 20
2120.0
 30
0.0
 11
4262.387357755719
 21
2000.0
 31
0.0
  0
SOLID
  5
8F6
330
8F0
100
AcDbEntity
  8
SUNPO
 62
   144
100
AcDbTrace
 10
4260.054024422387
 20
2134.0
 30
0.0
 11
4264.720691089054
 21
2134.0
 31
0.0
 12
4262.38735775572
 22
2120.0
 32
0.0
 13
4262.38735775572
 23
2120.0
 33
0.0
  0
SOLID
  5
8F7
330
8F0
100
AcDbEntity
  8
SUNPO
 62
   144
100
AcDbTrace
 10
4260.054024422387
 20
1986.0
 30
0.0
 11
4264.720691089052
 21
1986.0
 31
0.0
 12
4262.387357755719
 22
2000.0
 32
0.0
 13
4262.387357755719
 23
2000.0
 33
0.0
  0
MTEXT
  5
8F8
330
8F0
100
AcDbEntity
  8
SUNPO
 62
     7
100
AcDbMText
 10
4224.887357755719
 20
2060.0
 30
0.0
 40
50.0
 41
0.0
 71
     5
 72
     1
  1
\A2;120
  7
ADD
 11
0.0000000000000001
 21
1.0
 31
0.0
1001
ACAD
1000
MTEXTBEGIN
1070
    73
1070
     1
1070
    44
1040
1.0
1070
    74
1070
     0
1000
MTEXTEND
  0
POINT
  5
8F9
330
8F0
100
AcDbEntity
  8
DEFPOINTS
 62
     0
100
AcDbPoint
 10
4000.0
 20
2120.0
 30
0.0
  0
POINT
  5
8FA
330
8F0
100
AcDbEntity
  8
DEFPOINTS
 62
     0
100
AcDbPoint
 10
4000.0
 20
2000.0
 30
0.0
  0
POINT
  5
8FB
330
8F0
100
AcDbEntity
  8
DEFPOINTS
 62
     0
100
AcDbPoint
 10
4262.387357755719
 20
2000.0
 30
0.0
  0
ENDBLK
  5
8FD
330
8F0
100
AcDbEntity
  8
0
100
AcDbBlockEnd
  0
BLOCK
  5
931
330
927
100
AcDbEntity
  8
0
100
AcDbBlockBegin
  2
*D8
 70
     1
 10
0.0
 20
0.0
 30
0.0
  3
*D8
  1

  0
LINE
  5
928
330
927
100
AcDbEntity
  8
SUNPO
 62
   144
100
AcDbLine
 10
1500.0
 20
2140.0
 30
0.0
 11
1500.0
 21
2441.557497490343
 31
0.0
  0
LINE
  5
929
330
927
100
AcDbEntity
  8
SUNPO
 62
   144
100
AcDbLine
 10
1700.0
 20
2140.0
 30
0.0
 11
1700.0
 21
2441.557497490343
 31
0.0
  0
LINE
  5
92A
330
927
100
AcDbEntity
  8
SUNPO
 62
   144
100
AcDbLine
 10
1514.0
 20
2431.557497490343
 30
0.0
 11
1686.0
 21
2431.557497490343
 31
0.0
  0
SOLID
  5
92B
330
927
100
AcDbEntity
  8
SUNPO
 62
   144
100
AcDbTrace
 10
1514.0
 20
2433.890830823676
 30
0.0
 11
1514.0
 21
2429.224164157009
 31
0.0
 12
1500.0
 22
2431.557497490343
 32
0.0
 13
1500.0
 23
2431.557497490343
 33
0.0
  0
SOLID
  5
92C
330
927
100
AcDbEntity
  8
SUNPO
 62
   144
100
AcDbTrace
 10
1686.0
 20
2433.890830823676
 30
0.0
 11
1686.0
 21
2429.224164157009
 31
0.0
 12
1700.0
 22
2431.557497490343
 32
0.0
 13
1700.0
 23
2431.557497490343
 33
0.0
  0
MTEXT
  5
92D
330
927
100
AcDbEntity
  8
SUNPO
 62
     7
100
AcDbMText
 10
1600.0
 20
2469.057497490343
 30
0.0
 40
50.0
 41
0.0
 71
     5
 72
     1
  1
\A2;200
  7
ADD
1001
ACAD
1000
MTEXTBEGIN
1070
    73
1070
     1
1070
    44
1040
1.0
1070
    74
1070
     0
1000
MTEXTEND
  0
POINT
  5
92E
330
927
100
AcDbEntity
  8
DEFPOINTS
 62
     0
100
AcDbPoint
 10
1500.0
 20
2120.0
 30
0.0
  0
POINT
  5
92F
330
927
100
AcDbEntity
  8
DEFPOINTS
 62
     0
100
AcDbPoint
 10
1700.0
 20
2120.0
 30
0.0
  0
POINT
  5
930
330
927
100
AcDbEntity
  8
DEFPOINTS
 62
     0
100
AcDbPoint
 10
1700.0
 20
2431.557497490343
 30
0.0
  0
ENDBLK
  5
932
330
927
100
AcDbEntity
  8
0
100
AcDbBlockEnd
  0
BLOCK
  5
93E
330
934
100
AcDbEntity
  8
0
100
AcDbBlockBegin
  2
*D9
 70
     1
 10
0.0
 20
0.0
 30
0.0
  3
*D9
  1

  0
LINE
  5
935
330
934
100
AcDbEntity
  8
SUNPO
 62
   144
100
AcDbLine
 10
1700.0
 20
2140.0
 30
0.0
 11
1700.0
 21
2441.557497490343
 31
0.0
  0
LINE
  5
936
330
934
100
AcDbEntity
  8
SUNPO
 62
   144
100
AcDbLine
 10
2070.0
 20
2163.0
 30
0.0
 11
2070.0
 21
2441.557497490343
 31
0.0
  0
LINE
  5
937
330
934
100
AcDbEntity
  8
SUNPO
 62
   144
100
AcDbLine
 10
1714.0
 20
2431.557497490343
 30
0.0
 11
2056.0
 21
2431.557497490343
 31
0.0
  0
SOLID
  5
938
330
934
100
AcDbEntity
  8
SUNPO
 62
   144
100
AcDbTrace
 10
1714.0
 20
2433.890830823676
 30
0.0
 11
1714.0
 21
2429.224164157009
 31
0.0
 12
1700.0
 22
2431.557497490343
 32
0.0
 13
1700.0
 23
2431.557497490343
 33
0.0
  0
SOLID
  5
939
330
934
100
AcDbEntity
  8
SUNPO
 62
   144
100
AcDbTrace
 10
2056.0
 20
2433.890830823676
 30
0.0
 11
2056.0
 21
2429.224164157009
 31
0.0
 12
2070.0
 22
2431.557497490343
 32
0.0
 13
2070.0
 23
2431.557497490343
 33
0.0
  0
MTEXT
  5
93A
330
934
100
AcDbEntity
  8
SUNPO
 62
     7
100
AcDbMText
 10
1885.0
 20
2469.057497490343
 30
0.0
 40
50.0
 41
0.0
 71
     5
 72
     1
  1
\A2;370
  7
ADD
1001
ACAD
1000
MTEXTBEGIN
1070
    73
1070
     1
1070
    44
1040
1.0
1070
    74
1070
     0
1000
MTEXTEND
  0
POINT
  5
93B
330
934
100
AcDbEntity
  8
DEFPOINTS
 62
     0
100
AcDbPoint
 10
1700.0
 20
2120.0
 30
0.0
  0
POINT
  5
93C
330
934
100
AcDbEntity
  8
DEFPOINTS
 62
     0
100
AcDbPoint
 10
2070.0
 20
2143.0
 30
0.0
  0
POINT
  5
93D
330
934
100
AcDbEntity
  8
DEFPOINTS
 62
     0
100
AcDbPoint
 10
2070.0
 20
2431.557497490343
 30
0.0
  0
ENDBLK
  5
93F
330
934
100
AcDbEntity
  8
0
100
AcDbBlockEnd
  0
BLOCK
  5
95E
330
954
100
AcDbEntity
  8
0
100
AcDbBlockBegin
  2
*D10
 70
     1
 10
0.0
 20
0.0
 30
0.0
  3
*D10
  1

  0
LINE
  5
955
330
954
100
AcDbEntity
  8
SUNPO
 62
   144
100
AcDbLine
 10
1500.0
 20
2140.0
 30
0.0
 11
1500.0
 21
2595.414609529582
 31
0.0
  0
LINE
  5
956
330
954
100
AcDbEntity
  8
SUNPO
 62
   144
100
AcDbLine
 10
2070.0
 20
2163.0
 30
0.0
 11
2070.0
 21
2595.414609529582
 31
0.0
  0
LINE
  5
957
330
954
100
AcDbEntity
  8
SUNPO
 62
   144
100
AcDbLine
 10
1514.0
 20
2585.414609529582
 30
0.0
 11
2056.0
 21
2585.414609529582
 31
0.0
  0
SOLID
  5
958
330
954
100
AcDbEntity
  8
SUNPO
 62
   144
100
AcDbTrace
 10
1514.0
 20
2587.747942862915
 30
0.0
 11
1514.0
 21
2583.081276196248
 31
0.0
 12
1500.0
 22
2585.414609529582
 32
0.0
 13
1500.0
 23
2585.414609529582
 33
0.0
  0
SOLID
  5
959
330
954
100
AcDbEntity
  8
SUNPO
 62
   144
100
AcDbTrace
 10
2056.0
 20
2587.747942862915
 30
0.0
 11
2056.0
 21
2583.081276196248
 31
0.0
 12
2070.0
 22
2585.414609529582
 32
0.0
 13
2070.0
 23
2585.414609529582
 33
0.0
  0
MTEXT
  5
95A
330
954
100
AcDbEntity
  8
SUNPO
 62
     7
100
AcDbMText
 10
1785.0
 20
2622.914609529582
 30
0.0
 40
50.0
 41
0.0
 71
     5
 72
     1
  1
\A2;570
  7
ADD
1001
ACAD
1000
MTEXTBEGIN
1070
    73
1070
     1
1070
    44
1040
1.0
1070
    74
1070
     0
1000
MTEXTEND
  0
POINT
  5
95B
330
954
100
AcDbEntity
  8
DEFPOINTS
 62
     0
100
AcDbPoint
 10
1500.0
 20
2120.0
 30
0.0
  0
POINT
  5
95C
330
954
100
AcDbEntity
  8
DEFPOINTS
 62
     0
100
AcDbPoint
 10
2070.0
 20
2143.0
 30
0.0
  0
POINT
  5
95D
330
954
100
AcDbEntity
  8
DEFPOINTS
 62
     0
100
AcDbPoint
 10
2070.0
 20
2585.414609529582
 30
0.0
  0
ENDBLK
  5
95F
330
954
100
AcDbEntity
  8
0
100
AcDbBlockEnd
  0
BLOCK
  5
972
330
966
100
AcDbEntity
  8
0
100
AcDbBlockBegin
  2
*D11
 70
     1
 10
0.0
 20
0.0
 30
0.0
  3
*D11
  1

  0
LINE
  5
967
330
966
100
AcDbEntity
  8
SUNPO
 62
   144
100
AcDbLine
 10
1480.0
 20
2000.0
 30
0.0
 11
1267.812395828903
 21
2000.0
 31
0.0
  0
LINE
  5
968
330
966
100
AcDbEntity
  8
SUNPO
 62
   144
100
AcDbLine
 10
1480.0
 20
2120.0
 30
0.0
 11
1267.812395828903
 21
2120.0
 31
0.0
  0
LINE
  5
969
330
966
100
AcDbEntity
  8
SUNPO
 62
   144
100
AcDbLine
 10
1277.812395828903
 20
1986.0
 30
0.0
 11
1277.812395828903
 21
1972.0
 31
0.0
  0
LINE
  5
96A
330
966
100
AcDbEntity
  8
SUNPO
 62
   144
100
AcDbLine
 10
1277.812395828903
 20
2134.0
 30
0.0
 11
1277.812395828903
 21
2148.0
 31
0.0
  0
LINE
  5
96B
330
966
100
AcDbEntity
  8
SUNPO
 62
   144
100
AcDbLine
 10
1277.812395828903
 20
2000.0
 30
0.0
 11
1277.812395828903
 21
2120.0
 31
0.0
  0
SOLID
  5
96C
330
966
100
AcDbEntity
  8
SUNPO
 62
   144
100
AcDbTrace
 10
1275.47906249557
 20
1986.0
 30
0.0
 11
1280.145729162236
 21
1986.0
 31
0.0
 12
1277.812395828903
 22
2000.0
 32
0.0
 13
1277.812395828903
 23
2000.0
 33
0.0
  0
SOLID
  5
96D
330
966
100
AcDbEntity
  8
SUNPO
 62
   144
100
AcDbTrace
 10
1275.47906249557
 20
2134.0
 30
0.0
 11
1280.145729162236
 21
2134.0
 31
0.0
 12
1277.812395828903
 22
2120.0
 32
0.0
 13
1277.812395828903
 23
2120.0
 33
0.0
  0
MTEXT
  5
96E
330
966
100
AcDbEntity
  8
SUNPO
 62
     7
100
AcDbMText
 10
1240.312395828903
 20
2060.0
 30
0.0
 40
50.0
 41
0.0
 71
     5
 72
     1
  1
\A2;120
  7
ADD
 11
0.0000000000000001
 21
1.0
 31
0.0
1001
ACAD
1000
MTEXTBEGIN
1070
    73
1070
     1
1070
    44
1040
1.0
1070
    74
1070
     0
1000
MTEXTEND
  0
POINT
  5
96F
330
966
100
AcDbEntity
  8
DEFPOINTS
 62
     0
100
AcDbPoint
 10
1500.0
 20
2000.0
 30
0.0
  0
POINT
  5
970
330
966
100
AcDbEntity
  8
DEFPOINTS
 62
     0
100
AcDbPoint
 10
1500.0
 20
2120.0
 30
0.0
  0
POINT
  5
971
330
966
100
AcDbEntity
  8
DEFPOINTS
 62
     0
100
AcDbPoint
 10
1277.812395828903
 20
2120.0
 30
0.0
  0
ENDBLK
  5
973
330
966
100
AcDbEntity
  8
0
100
AcDbBlockEnd
  0
BLOCK
  5
98E
330
984
100
AcDbEntity
  8
0
100
AcDbBlockBegin
  2
*D12
 70
     1
 10
0.0
 20
0.0
 30
0.0
  3
*D12
  1

  0
LINE
  5
985
330
984
100
AcDbEntity
  8
SUNPO
 62
   144
100
AcDbLine
 10
1480.0
 20
2000.0
 30
0.0
 11
1076.272795551634
 21
2000.0
 31
0.0
  0
LINE
  5
986
330
984
100
AcDbEntity
  8
SUNPO
 62
   144
100
AcDbLine
 10
1485.625
 20
2170.0
 30
0.0
 11
1076.272795551634
 21
2170.0
 31
0.0
  0
LINE
  5
987
330
984
100
AcDbEntity
  8
SUNPO
 62
   144
100
AcDbLine
 10
1086.272795551634
 20
2014.0
 30
0.0
 11
1086.272795551634
 21
2156.0
 31
0.0
  0
SOLID
  5
988
330
984
100
AcDbEntity
  8
SUNPO
 62
   144
100
AcDbTrace
 10
1083.939462218301
 20
2014.0
 30
0.0
 11
1088.606128884967
 21
2014.0
 31
0.0
 12
1086.272795551634
 22
2000.0
 32
0.0
 13
1086.272795551634
 23
2000.0
 33
0.0
  0
SOLID
  5
989
330
984
100
AcDbEntity
  8
SUNPO
 62
   144
100
AcDbTrace
 10
1083.939462218301
 20
2156.0
 30
0.0
 11
1088.606128884967
 21
2156.0
 31
0.0
 12
1086.272795551634
 22
2170.0
 32
0.0
 13
1086.272795551634
 23
2170.0
 33
0.0
  0
MTEXT
  5
98A
330
984
100
AcDbEntity
  8
SUNPO
 62
     7
100
AcDbMText
 10
1048.772795551634
 20
2085.0
 30
0.0
 40
50.0
 41
0.0
 71
     5
 72
     1
  1
\A2;170
  7
ADD
 11
0.0000000000000001
 21
1.0
 31
0.0
1001
ACAD
1000
MTEXTBEGIN
1070
    73
1070
     1
1070
    44
1040
1.0
1070
    74
1070
     0
1000
MTEXTEND
  0
POINT
  5
98B
330
984
100
AcDbEntity
  8
DEFPOINTS
 62
     0
100
AcDbPoint
 10
1500.0
 20
2000.0
 30
0.0
  0
POINT
  5
98C
330
984
100
AcDbEntity
  8
DEFPOINTS
 62
     0
100
AcDbPoint
 10
1505.625
 20
2170.0
 30
0.0
  0
POINT
  5
98D
330
984
100
AcDbEntity
  8
DEFPOINTS
 62
     0
100
AcDbPoint
 10
1086.272795551634
 20
2170.0
 30
0.0
  0
ENDBLK
  5
98F
330
984
100
AcDbEntity
  8
0
100
AcDbBlockEnd
  0
BLOCK
  5
9A7
330
9A0
100
AcDbEntity
  8
0
100
AcDbBlockBegin
  2
*D13
 70
     1
 10
0.0
 20
0.0
 30
0.0
  3
*D13
  1

  0
LINE
  5
9A9
330
9A0
100
AcDbEntity
  8
SUNPO
 62
   144
100
AcDbLine
 10
1843.246175022548
 20
2340.261360705729
 30
0.0
 11
1735.41710656456
 21
2167.593417745564
 31
0.0
  0
MTEXT
  5
9AA
330
9A0
100
AcDbEntity
  8
SUNPO
 62
     7
100
AcDbMText
 10
1770.766554444856
 20
2294.995473778804
 30
0.0
 40
50.0
 41
0.0
 71
     5
 72
     1
  1
\A2;R20
  7
ADD
 11
0.5296866520743262
 21
0.8481934040148463
 31
0.0
1001
ACAD
1000
MTEXTBEGIN
1070
    73
1070
     1
1070
    44
1040
1.0
1070
    74
1070
     0
1000
MTEXTEND
  0
LINE
  5
9AB
330
9A0
100
AcDbEntity
  8
SUNPO
 62
   144
100
AcDbLine
 10
1698.339040919358
 20
2108.219879464524
 30
0.0
 11
1708.932773960844
 21
2125.183747544821
 31
0.0
  0
SOLID
  5
9AC
330
9A0
100
AcDbEntity
  8
SUNPO
 62
   144
100
AcDbTrace
 10
1728.34882819777
 20
2172.007473179517
 30
0.0
 11
1742.485384931351
 21
2163.179362311612
 31
0.0
 12
1708.932773960844
 22
2125.183747544821
 32
0.0
 13
1708.932773960844
 23
2125.183747544821
 33
0.0
  0
POINT
  5
9AD
330
9A0
100
AcDbEntity
  8
DEFPOINTS
 62
     0
100
AcDbPoint
 10
1708.932773960844
 20
2125.183747544821
 30
0.0
  0
POINT
  5
9AE
330
9A0
100
AcDbEntity
  8
DEFPOINTS
 62
     0
100
AcDbPoint
 10
1698.339040919358
 20
2108.219879464524
 30
0.0
  0
ENDBLK
  5
9A8
330
9A0
100
AcDbEntity
  8
0
100
AcDbBlockEnd
  0
BLOCK
  5
9D4
330
9C8
100
AcDbEntity
  8
0
100
AcDbBlockBegin
  2
*D14
 70
     1
 10
0.0
 20
0.0
 30
0.0
  3
*D14
  1

  0
LINE
  5
9C9
330
9C8
100
AcDbEntity
  8
SUNPO
 62
   144
100
AcDbLine
 10
1740.0
 20
2120.0
 30
0.0
 11
1981.558700664838
 21
2120.0
 31
0.0
  0
LINE
  5
9CA
330
9C8
100
AcDbEntity
  8
SUNPO
 62
   144
100
AcDbLine
 10
1740.0
 20
2000.0
 30
0.0
 11
1981.558700664838
 21
2000.0
 31
0.0
  0
LINE
  5
9CB
330
9C8
100
AcDbEntity
  8
SUNPO
 62
   144
100
AcDbLine
 10
1971.558700664838
 20
2134.0
 30
0.0
 11
1971.558700664838
 21
2148.0
 31
0.0
  0
LINE
  5
9CC
330
9C8
100
AcDbEntity
  8
SUNPO
 62
   144
100
AcDbLine
 10
1971.558700664838
 20
1986.0
 30
0.0
 11
1971.558700664838
 21
1972.0
 31
0.0
  0
LINE
  5
9CD
330
9C8
100
AcDbEntity
  8
SUNPO
 62
   144
100
AcDbLine
 10
1971.558700664838
 20
2120.0
 30
0.0
 11
1971.558700664838
 21
2000.0
 31
0.0
  0
SOLID
  5
9CE
330
9C8
100
AcDbEntity
  8
SUNPO
 62
   144
100
AcDbTrace
 10
1969.225367331505
 20
2134.0
 30
0.0
 11
1973.892033998171
 21
2134.0
 31
0.0
 12
1971.558700664838
 22
2120.0
 32
0.0
 13
1971.558700664838
 23
2120.0
 33
0.0
  0
SOLID
  5
9CF
330
9C8
100
AcDbEntity
  8
SUNPO
 62
   144
100
AcDbTrace
 10
1969.225367331505
 20
1986.0
 30
0.0
 11
1973.892033998171
 21
1986.0
 31
0.0
 12
1971.558700664838
 22
2000.0
 32
0.0
 13
1971.558700664838
 23
2000.0
 33
0.0
  0
MTEXT
  5
9D0
330
9C8
100
AcDbEntity
  8
SUNPO
 62
     7
100
AcDbMText
 10
1934.058700664838
 20
2060.0
 30
0.0
 40
50.0
 41
0.0
 71
     5
 72
     1
  1
\A2;120
  7
ADD
 11
0.0000000000000001
 21
1.0
 31
0.0
1001
ACAD
1000
MTEXTBEGIN
1070
    73
1070
     1
1070
    44
1040
1.0
1070
    74
1070
     0
1000
MTEXTEND
  0
POINT
  5
9D1
330
9C8
100
AcDbEntity
  8
DEFPOINTS
 62
     0
100
AcDbPoint
 10
1720.0
 20
2120.0
 30
0.0
  0
POINT
  5
9D2
330
9C8
100
AcDbEntity
  8
DEFPOINTS
 62
     0
100
AcDbPoint
 10
1720.0
 20
2000.0
 30
0.0
  0
POINT
  5
9D3
330
9C8
100
AcDbEntity
  8
DEFPOINTS
 62
     0
100
AcDbPoint
 10
1971.558700664838
 20
2000.0
 30
0.0
  0
ENDBLK
  5
9D5
330
9C8
100
AcDbEntity
  8
0
100
AcDbBlockEnd
  0
ENDSEC
  0
SECTION
  2
ENTITIES
  0
LINE
  5
60A
330
1F
100
AcDbEntity
  8
HOJO
100
AcDbLine
 10
360.0
 20
260.0
 30
0.0
 11
5580.0
 21
260.0
 31
0.0
  0
LINE
  5
60B
330
1F
100
AcDbEntity
  8
HOJO
100
AcDbLine
 10
360.0
 20
560.0
 30
0.0
 11
5580.0
 21
560.0
 31
0.0
  0
LINE
  5
60D
330
1F
100
AcDbEntity
  8
HOJO
100
AcDbLine
 10
2360.0
 20
260.0
 30
0.0
 11
2360.0
 21
560.0
 31
0.0
  0
LINE
  5
60F
330
1F
100
AcDbEntity
  8
HOJO
100
AcDbLine
 10
3160.0
 20
260.0
 30
0.0
 11
3160.0
 21
560.0
 31
0.0
  0
LINE
  5
610
330
1F
100
AcDbEntity
  8
HOJO
100
AcDbLine
 10
3660.0
 20
260.0
 30
0.0
 11
3660.0
 21
560.0
 31
0.0
  0
LINE
  5
62B
330
1F
100
AcDbEntity
  8
3C1
100
AcDbLine
 10
3000.0
 20
2000.0
 30
0.0
 11
5000.0
 21
2000.0
 31
0.0
  0
LINE
  5
62F
330
1F
100
AcDbEntity
  8
3C1
100
AcDbLine
 10
3000.0
 20
2000.0
 30
0.0
 11
3000.0
 21
2000.0
 31
0.0
  0
LINE
  5
630
330
1F
100
AcDbEntity
  8
3C1
100
AcDbLine
 10
3000.0
 20
2120.0
 30
0.0
 11
5000.0
 21
2120.0
 31
0.0
  0
LINE
  5
631
330
1F
100
AcDbEntity
  8
3C1
100
AcDbLine
 10
3000.0
 20
2143.0
 30
0.0
 11
5000.0
 21
2143.0
 31
0.0
  0
LINE
  5
638
330
1F
100
AcDbEntity
  8
3C1
100
AcDbLine
 10
1500.0
 20
2000.0
 30
0.0
 11
2070.0
 21
2000.0
 31
0.0
  0
LINE
  5
639
330
1F
100
AcDbEntity
  8
3C1
100
AcDbLine
 10
2070.0
 20
2000.0
 30
0.0
 11
2070.0
 21
2143.0
 31
0.0
  0
LINE
  5
8A8
330
1F
100
AcDbEntity
  8
HOJO
100
AcDbLine
 10
360.0
 20
260.0
 30
0.0
 11
360.0
 21
560.0
 31
0.0
  0
LINE
  5
8B1
330
1F
100
AcDbEntity
  8
3C1
100
AcDbLine
 10
3000.0
 20
2000.0
 30
0.0
 11
3000.0
 21
2170.0
 31
0.0
  0
LINE
  5
8B2
330
1F
100
AcDbEntity
  8
3C1
100
AcDbLine
 10
3000.0
 20
2170.0
 30
0.0
 11
5000.0
 21
2170.0
 31
0.0
  0
LINE
  5
8B3
330
1F
100
AcDbEntity
  8
3C1
100
AcDbLine
 10
5000.0
 20
2170.0
 30
0.0
 11
5000.0
 21
2000.0
 31
0.0
  0
LINE
  5
8B7
330
1F
100
AcDbEntity
  8
3C1
100
AcDbLine
 10
2070.0
 20
2143.0
 30
0.0
 11
1721.240848152731
 21
2121.320377047332
 31
0.0
  0
LINE
  5
8B8
330
1F
100
AcDbEntity
  8
3C1
100
AcDbLine
 10
1500.0
 20
2000.0
 30
0.0
 11
1500.0
 21
2120.0
 31
0.0
  0
LINE
  5
8DE
330
1F
100
AcDbEntity
  8
SUNPO
100
AcDbLine
 10
3000.0
 20
2000.0
 30
0.0
 11
3000.0
 21
2000.0
 31
0.0
  0
LINE
  5
8DF
330
1F
100
AcDbEntity
  8
3C1
100
AcDbLine
 10
3000.0
 20
2140.0
 30
0.0
 11
5000.0
 21
2140.0
 31
0.0
  0
LINE
  5
8FE
330
1F
100
AcDbEntity
  8
SUNPO
 62
   144
100
AcDbLine
 10
4020.0
 20
2140.0
 30
0.0
 11
4272.387357755721
 21
2140.0
 31
0.0
  0
LINE
  5
8FF
330
1F
100
AcDbEntity
  8
SUNPO
 62
   144
100
AcDbLine
 10
4020.0
 20
2120.0
 30
0.0
 11
4272.387357755721
 21
2120.0
 31
0.0
  0
LINE
  5
900
330
1F
100
AcDbEntity
  8
SUNPO
 62
   144
100
AcDbLine
 10
4262.38735775572
 20
2154.0
 30
0.0
 11
4262.38735775572
 21
2168.0
 31
0.0
  0
LINE
  5
901
330
1F
100
AcDbEntity
  8
SUNPO
 62
   144
100
AcDbLine
 10
4262.38735775572
 20
2106.0
 30
0.0
 11
4262.38735775572
 21
2092.0
 31
0.0
  0
LINE
  5
902
330
1F
100
AcDbEntity
  8
SUNPO
 62
   144
100
AcDbLine
 10
4262.38735775572
 20
2140.0
 30
0.0
 11
4262.38735775572
 21
2120.0
 31
0.0
  0
SOLID
  5
903
330
1F
100
AcDbEntity
  8
SUNPO
 62
   144
100
AcDbTrace
 10
4260.054024422387
 20
2154.0
 30
0.0
 11
4264.720691089054
 21
2154.0
 31
0.0
 12
4262.38735775572
 22
2140.0
 32
0.0
 13
4262.38735775572
 23
2140.0
 33
0.0
  0
SOLID
  5
904
330
1F
100
AcDbEntity
  8
SUNPO
 62
   144
100
AcDbTrace
 10
4260.054024422387
 20
2106.0
 30
0.0
 11
4264.720691089054
 21
2106.0
 31
0.0
 12
4262.38735775572
 22
2120.0
 32
0.0
 13
4262.38735775572
 23
2120.0
 33
0.0
  0
LINE
  5
914
330
1F
100
AcDbEntity
  8
SUNPO
 62
   144
100
AcDbLine
 10
2980.0
 20
2120.0
 30
0.0
 11
2789.76772268631
 21
2120.0
 31
0.0
  0
LINE
  5
915
330
1F
100
AcDbEntity
  8
SUNPO
 62
   144
100
AcDbLine
 10
2980.0
 20
2170.0
 30
0.0
 11
2789.76772268631
 21
2170.0
 31
0.0
  0
LINE
  5
916
330
1F
100
AcDbEntity
  8
SUNPO
 62
   144
100
AcDbLine
 10
2799.76772268631
 20
2106.0
 30
0.0
 11
2799.76772268631
 21
2092.0
 31
0.0
  0
LINE
  5
917
330
1F
100
AcDbEntity
  8
SUNPO
 62
   144
100
AcDbLine
 10
2799.76772268631
 20
2184.0
 30
0.0
 11
2799.76772268631
 21
2198.0
 31
0.0
  0
LINE
  5
918
330
1F
100
AcDbEntity
  8
SUNPO
 62
   144
100
AcDbLine
 10
2799.76772268631
 20
2120.0
 30
0.0
 11
2799.76772268631
 21
2170.0
 31
0.0
  0
SOLID
  5
919
330
1F
100
AcDbEntity
  8
SUNPO
 62
   144
100
AcDbTrace
 10
2797.434389352977
 20
2106.0
 30
0.0
 11
2802.101056019644
 21
2106.0
 31
0.0
 12
2799.76772268631
 22
2120.0
 32
0.0
 13
2799.76772268631
 23
2120.0
 33
0.0
  0
SOLID
  5
91A
330
1F
100
AcDbEntity
  8
SUNPO
 62
   144
100
AcDbTrace
 10
2797.434389352977
 20
2184.0
 30
0.0
 11
2802.101056019644
 21
2184.0
 31
0.0
 12
2799.76772268631
 22
2170.0
 32
0.0
 13
2799.76772268631
 23
2170.0
 33
0.0
  0
LINE
  5
91E
330
1F
100
AcDbEntity
  8
3C1
100
AcDbLine
 10
1505.625
 20
2170.0
 30
0.0
 11
1500.0
 21
2120.0
 31
0.0
  0
LINE
  5
924
330
1F
100
AcDbEntity
  8
3C1
100
AcDbLine
 10
1700.0
 20
2140.0
 30
0.0
 11
1505.625
 21
2170.0
 31
0.0
  0
LINE
  5
94D
330
1F
100
AcDbEntity
  8
SUNPO
 62
   144
100
AcDbLine
 10
2070.0
 20
2163.0
 30
0.0
 11
2070.0
 21
2441.557497490343
 31
0.0
  0
LINE
  5
94E
330
1F
100
AcDbEntity
  8
SUNPO
 62
   144
100
AcDbLine
 10
1500.0
 20
2140.0
 30
0.0
 11
1500.0
 21
2441.557497490343
 31
0.0
  0
LINE
  5
94F
330
1F
100
AcDbEntity
  8
SUNPO
 62
   144
100
AcDbLine
 10
2056.0
 20
2431.557497490343
 30
0.0
 11
1514.0
 21
2431.557497490343
 31
0.0
  0
SOLID
  5
950
330
1F
100
AcDbEntity
  8
SUNPO
 62
   144
100
AcDbTrace
 10
2056.0
 20
2433.890830823676
 30
0.0
 11
2056.0
 21
2429.224164157009
 31
0.0
 12
2070.0
 22
2431.557497490343
 32
0.0
 13
2070.0
 23
2431.557497490343
 33
0.0
  0
SOLID
  5
951
330
1F
100
AcDbEntity
  8
SUNPO
 62
   144
100
AcDbTrace
 10
1514.0
 20
2433.890830823676
 30
0.0
 11
1514.0
 21
2429.224164157009
 31
0.0
 12
1500.0
 22
2431.557497490343
 32
0.0
 13
1500.0
 23
2431.557497490343
 33
0.0
  0
LINE
  5
990
330
1F
100
AcDbEntity
  8
SUNPO
 62
   144
100
AcDbLine
 10
1480.0
 20
2120.0
 30
0.0
 11
1267.812395828903
 21
2120.0
 31
0.0
  0
LINE
  5
991
330
1F
100
AcDbEntity
  8
SUNPO
 62
   144
100
AcDbLine
 10
1485.625
 20
2170.0
 30
0.0
 11
1267.812395828903
 21
2170.0
 31
0.0
  0
LINE
  5
992
330
1F
100
AcDbEntity
  8
SUNPO
 62
   144
100
AcDbLine
 10
1277.812395828903
 20
2106.0
 30
0.0
 11
1277.812395828903
 21
2092.0
 31
0.0
  0
LINE
  5
993
330
1F
100
AcDbEntity
  8
SUNPO
 62
   144
100
AcDbLine
 10
1277.812395828903
 20
2184.0
 30
0.0
 11
1277.812395828903
 21
2198.0
 31
0.0
  0
LINE
  5
994
330
1F
100
AcDbEntity
  8
SUNPO
 62
   144
100
AcDbLine
 10
1277.812395828903
 20
2120.0
 30
0.0
 11
1277.812395828903
 21
2170.0
 31
0.0
  0
SOLID
  5
995
330
1F
100
AcDbEntity
  8
SUNPO
 62
   144
100
AcDbTrace
 10
1275.47906249557
 20
2106.0
 30
0.0
 11
1280.145729162236
 21
2106.0
 31
0.0
 12
1277.812395828903
 22
2120.0
 32
0.0
 13
1277.812395828903
 23
2120.0
 33
0.0
  0
SOLID
  5
996
330
1F
100
AcDbEntity
  8
SUNPO
 62
   144
100
AcDbTrace
 10
1275.47906249557
 20
2184.0
 30
0.0
 11
1280.145729162236
 21
2184.0
 31
0.0
 12
1277.812395828903
 22
2170.0
 32
0.0
 13
1277.812395828903
 23
2170.0
 33
0.0
  0
ARC
  5
99E
330
1F
100
AcDbEntity
  8
3C1
100
AcDbCircle
 10
1720.0
 20
2141.281847330401
 30
0.0
 40
20.0
100
AcDbArc
 50
180.0
 51
273.5570526057393
  0
LINE
  5
9BE
330
1F
100
AcDbEntity
  8
SUNPO
 62
   144
100
AcDbLine
 10
1720.0
 20
2140.0
 30
0.0
 11
1981.558700664838
 21
2140.0
 31
0.0
  0
LINE
  5
9BF
330
1F
100
AcDbEntity
  8
SUNPO
 62
   144
100
AcDbLine
 10
1720.0
 20
2120.0
 30
0.0
 11
1981.558700664838
 21
2120.0
 31
0.0
  0
LINE
  5
9C0
330
1F
100
AcDbEntity
  8
SUNPO
 62
   144
100
AcDbLine
 10
1971.558700664838
 20
2154.0
 30
0.0
 11
1971.558700664838
 21
2168.0
 31
0.0
  0
LINE
  5
9C1
330
1F
100
AcDbEntity
  8
SUNPO
 62
   144
100
AcDbLine
 10
1971.558700664838
 20
2106.0
 30
0.0
 11
1971.558700664838
 21
2092.0
 31
0.0
  0
LINE
  5
9C2
330
1F
100
AcDbEntity
  8
SUNPO
 62
   144
100
AcDbLine
 10
1971.558700664838
 20
2140.0
 30
0.0
 11
1971.558700664838
 21
2120.0
 31
0.0
  0
SOLID
  5
9C3
330
1F
100
AcDbEntity
  8
SUNPO
 62
   144
100
AcDbTrace
 10
1969.225367331505
 20
2154.0
 30
0.0
 11
1973.892033998171
 21
2154.0
 31
0.0
 12
1971.558700664838
 22
2140.0
 32
0.0
 13
1971.558700664838
 23
2140.0
 33
0.0
  0
SOLID
  5
9C4
330
1F
100
AcDbEntity
  8
SUNPO
 62
   144
100
AcDbTrace
 10
1969.225367331505
 20
2106.0
 30
0.0
 11
1973.892033998171
 21
2106.0
 31
0.0
 12
1971.558700664838
 22
2120.0
 32
0.0
 13
1971.558700664838
 23
2120.0
 33
0.0
  0
TEXT
  5
AFB
330
1F
100
AcDbEntity
  8
MOJI
100
AcDbText
 10
2429.758838159796
 20
343.1797334696257
 30
0.0
 40
85.0
  1
ＣＢＬ１－Ｄ１
  7
ADD
100
AcDbText
  0
TEXT
  5
AFC
330
1F
100
AcDbEntity
  8
MOJI
100
AcDbText
 10
676.7988485206188
 20
342.3857081146525
 30
0.0
 40
85.0
  1
千葉市型Ｌ１型　平切下げ（車）
  7
ADD
100
AcDbText
  0
LINE
  5
AFD
330
1F
100
AcDbEntity
  8
SUNPO
 62
   144
100
AcDbLine
 10
1740.0
 20
2120.0
 30
0.0
 11
1981.558700664838
 21
2120.0
 31
0.0
  0
LINE
  5
AFE
330
1F
100
AcDbEntity
  8
SUNPO
 62
   144
100
AcDbLine
 10
1740.0
 20
2000.0
 30
0.0
 11
1981.558700664838
 21
2000.0
 31
0.0
  0
LINE
  5
AFF
330
1F
100
AcDbEntity
  8
SUNPO
 62
   144
100
AcDbLine
 10
1971.558700664838
 20
2134.0
 30
0.0
 11
1971.558700664838
 21
2148.0
 31
0.0
  0
LINE
  5
B00
330
1F
100
AcDbEntity
  8
SUNPO
 62
   144
100
AcDbLine
 10
1971.558700664838
 20
1986.0
 30
0.0
 11
1971.558700664838
 21
1972.0
 31
0.0
  0
LINE
  5
B01
330
1F
100
AcDbEntity
  8
SUNPO
 62
   144
100
AcDbLine
 10
1971.558700664838
 20
2120.0
 30
0.0
 11
1971.558700664838
 21
2000.0
 31
0.0
  0
SOLID
  5
B02
330
1F
100
AcDbEntity
  8
SUNPO
 62
   144
100
AcDbTrace
 10
1969.225367331505
 20
2134.0
 30
0.0
 11
1973.892033998171
 21
2134.0
 31
0.0
 12
1971.558700664838
 22
2120.0
 32
0.0
 13
1971.558700664838
 23
2120.0
 33
0.0
  0
SOLID
  5
B03
330
1F
100
AcDbEntity
  8
SUNPO
 62
   144
100
AcDbTrace
 10
1969.225367331505
 20
1986.0
 30
0.0
 11
1973.892033998171
 21
1986.0
 31
0.0
 12
1971.558700664838
 22
2000.0
 32
0.0
 13
1971.558700664838
 23
2000.0
 33
0.0
  0
TEXT
  5
B05
330
1F
100
AcDbEntity
  8
MOJI
 62
     7
100
AcDbText
 10
1958.467785734617
 20
2152.670333516668
 30
0.0
 40
50.0
  1
20
 50
90.0
  7
ADD
100
AcDbText
  0
LINE
  5
B06
330
1F
100
AcDbEntity
  8
SUNPO
 62
   144
100
AcDbLine
 10
1843.246175022548
 20
2340.261360705729
 30
0.0
 11
1735.41710656456
 21
2167.593417745564
 31
0.0
  0
LINE
  5
B08
330
1F
100
AcDbEntity
  8
SUNPO
 62
   144
100
AcDbLine
 10
1698.339040919358
 20
2108.219879464524
 30
0.0
 11
1708.932773960844
 21
2125.183747544821
 31
0.0
  0
SOLID
  5
B09
330
1F
100
AcDbEntity
  8
SUNPO
 62
   144
100
AcDbTrace
 10
1728.34882819777
 20
2172.007473179517
 30
0.0
 11
1742.485384931351
 21
2163.179362311612
 31
0.0
 12
1708.932773960844
 22
2125.183747544821
 32
0.0
 13
1708.932773960844
 23
2125.183747544821
 33
0.0
  0
TEXT
  5
B0A
330
1F
100
AcDbEntity
  8
MOJI
 62
     7
100
AcDbText
 10
1271.654784558126
 20
2187.402528007076
 30
0.0
 40
50.0
  1
50
 50
90.0
  7
ADD
100
AcDbText
  0
LINE
  5
B0B
330
1F
100
AcDbEntity
  8
SUNPO
 62
   144
100
AcDbLine
 10
1480.0
 20
2000.0
 30
0.0
 11
1076.272795551634
 21
2000.0
 31
0.0
  0
LINE
  5
B0C
330
1F
100
AcDbEntity
  8
SUNPO
 62
   144
100
AcDbLine
 10
1485.625
 20
2170.0
 30
0.0
 11
1076.272795551634
 21
2170.0
 31
0.0
  0
LINE
  5
B0D
330
1F
100
AcDbEntity
  8
SUNPO
 62
   144
100
AcDbLine
 10
1086.272795551634
 20
2014.0
 30
0.0
 11
1086.272795551634
 21
2156.0
 31
0.0
  0
SOLID
  5
B0E
330
1F
100
AcDbEntity
  8
SUNPO
 62
   144
100
AcDbTrace
 10
1083.939462218301
 20
2014.0
 30
0.0
 11
1088.606128884967
 21
2014.0
 31
0.0
 12
1086.272795551634
 22
2000.0
 32
0.0
 13
1086.272795551634
 23
2000.0
 33
0.0
  0
SOLID
  5
B0F
330
1F
100
AcDbEntity
  8
SUNPO
 62
   144
100
AcDbTrace
 10
1083.939462218301
 20
2156.0
 30
0.0
 11
1088.606128884967
 21
2156.0
 31
0.0
 12
1086.272795551634
 22
2170.0
 32
0.0
 13
1086.272795551634
 23
2170.0
 33
0.0
  0
LINE
  5
B11
330
1F
100
AcDbEntity
  8
SUNPO
 62
   144
100
AcDbLine
 10
1480.0
 20
2000.0
 30
0.0
 11
1267.812395828903
 21
2000.0
 31
0.0
  0
LINE
  5
B12
330
1F
100
AcDbEntity
  8
SUNPO
 62
   144
100
AcDbLine
 10
1480.0
 20
2120.0
 30
0.0
 11
1267.812395828903
 21
2120.0
 31
0.0
  0
LINE
  5
B13
330
1F
100
AcDbEntity
  8
SUNPO
 62
   144
100
AcDbLine
 10
1277.812395828903
 20
1986.0
 30
0.0
 11
1277.812395828903
 21
1972.0
 31
0.0
  0
LINE
  5
B14
330
1F
100
AcDbEntity
  8
SUNPO
 62
   144
100
AcDbLine
 10
1277.812395828903
 20
2134.0
 30
0.0
 11
1277.812395828903
 21
2148.0
 31
0.0
  0
LINE
  5
B15
330
1F
100
AcDbEntity
  8
SUNPO
 62
   144
100
AcDbLine
 10
1277.812395828903
 20
2000.0
 30
0.0
 11
1277.812395828903
 21
2120.0
 31
0.0
  0
SOLID
  5
B16
330
1F
100
AcDbEntity
  8
SUNPO
 62
   144
100
AcDbTrace
 10
1275.47906249557
 20
1986.0
 30
0.0
 11
1280.145729162236
 21
1986.0
 31
0.0
 12
1277.812395828903
 22
2000.0
 32
0.0
 13
1277.812395828903
 23
2000.0
 33
0.0
  0
SOLID
  5
B17
330
1F
100
AcDbEntity
  8
SUNPO
 62
   144
100
AcDbTrace
 10
1275.47906249557
 20
2134.0
 30
0.0
 11
1280.145729162236
 21
2134.0
 31
0.0
 12
1277.812395828903
 22
2120.0
 32
0.0
 13
1277.812395828903
 23
2120.0
 33
0.0
  0
LINE
  5
B19
330
1F
100
AcDbEntity
  8
SUNPO
 62
   144
100
AcDbLine
 10
1500.0
 20
2140.0
 30
0.0
 11
1500.0
 21
2595.414609529582
 31
0.0
  0
LINE
  5
B1A
330
1F
100
AcDbEntity
  8
SUNPO
 62
   144
100
AcDbLine
 10
2070.0
 20
2163.0
 30
0.0
 11
2070.0
 21
2595.414609529582
 31
0.0
  0
LINE
  5
B1B
330
1F
100
AcDbEntity
  8
SUNPO
 62
   144
100
AcDbLine
 10
1514.0
 20
2585.414609529582
 30
0.0
 11
2056.0
 21
2585.414609529582
 31
0.0
  0
SOLID
  5
B1C
330
1F
100
AcDbEntity
  8
SUNPO
 62
   144
100
AcDbTrace
 10
1514.0
 20
2587.747942862915
 30
0.0
 11
1514.0
 21
2583.081276196248
 31
0.0
 12
1500.0
 22
2585.414609529582
 32
0.0
 13
1500.0
 23
2585.414609529582
 33
0.0
  0
SOLID
  5
B1D
330
1F
100
AcDbEntity
  8
SUNPO
 62
   144
100
AcDbTrace
 10
2056.0
 20
2587.747942862915
 30
0.0
 11
2056.0
 21
2583.081276196248
 31
0.0
 12
2070.0
 22
2585.414609529582
 32
0.0
 13
2070.0
 23
2585.414609529582
 33
0.0
  0
LINE
  5
B1F
330
1F
100
AcDbEntity
  8
SUNPO
 62
   144
100
AcDbLine
 10
1700.0
 20
2140.0
 30
0.0
 11
1700.0
 21
2441.557497490343
 31
0.0
  0
LINE
  5
B20
330
1F
100
AcDbEntity
  8
SUNPO
 62
   144
100
AcDbLine
 10
2070.0
 20
2163.0
 30
0.0
 11
2070.0
 21
2441.557497490343
 31
0.0
  0
LINE
  5
B21
330
1F
100
AcDbEntity
  8
SUNPO
 62
   144
100
AcDbLine
 10
1714.0
 20
2431.557497490343
 30
0.0
 11
2056.0
 21
2431.557497490343
 31
0.0
  0
SOLID
  5
B22
330
1F
100
AcDbEntity
  8
SUNPO
 62
   144
100
AcDbTrace
 10
1714.0
 20
2433.890830823676
 30
0.0
 11
1714.0
 21
2429.224164157009
 31
0.0
 12
1700.0
 22
2431.557497490343
 32
0.0
 13
1700.0
 23
2431.557497490343
 33
0.0
  0
SOLID
  5
B23
330
1F
100
AcDbEntity
  8
SUNPO
 62
   144
100
AcDbTrace
 10
2056.0
 20
2433.890830823676
 30
0.0
 11
2056.0
 21
2429.224164157009
 31
0.0
 12
2070.0
 22
2431.557497490343
 32
0.0
 13
2070.0
 23
2431.557497490343
 33
0.0
  0
LINE
  5
B25
330
1F
100
AcDbEntity
  8
SUNPO
 62
   144
100
AcDbLine
 10
1500.0
 20
2140.0
 30
0.0
 11
1500.0
 21
2441.557497490343
 31
0.0
  0
LINE
  5
B26
330
1F
100
AcDbEntity
  8
SUNPO
 62
   144
100
AcDbLine
 10
1700.0
 20
2140.0
 30
0.0
 11
1700.0
 21
2441.557497490343
 31
0.0
  0
LINE
  5
B27
330
1F
100
AcDbEntity
  8
SUNPO
 62
   144
100
AcDbLine
 10
1514.0
 20
2431.557497490343
 30
0.0
 11
1686.0
 21
2431.557497490343
 31
0.0
  0
SOLID
  5
B28
330
1F
100
AcDbEntity
  8
SUNPO
 62
   144
100
AcDbTrace
 10
1514.0
 20
2433.890830823676
 30
0.0
 11
1514.0
 21
2429.224164157009
 31
0.0
 12
1500.0
 22
2431.557497490343
 32
0.0
 13
1500.0
 23
2431.557497490343
 33
0.0
  0
SOLID
  5
B29
330
1F
100
AcDbEntity
  8
SUNPO
 62
   144
100
AcDbTrace
 10
1686.0
 20
2433.890830823676
 30
0.0
 11
1686.0
 21
2429.224164157009
 31
0.0
 12
1700.0
 22
2431.557497490343
 32
0.0
 13
1700.0
 23
2431.557497490343
 33
0.0
  0
TEXT
  5
B2B
330
1F
100
AcDbEntity
  8
MOJI
 62
     7
100
AcDbText
 10
2788.378919065837
 20
2185.682491102701
 30
0.0
 40
50.0
  1
50
 50
90.0
  7
ADD
100
AcDbText
  0
TEXT
  5
B2C
330
1F
100
AcDbEntity
  8
MOJI
 62
     7
100
AcDbText
 10
4249.331749193934
 20
2172.348558384292
 30
0.0
 40
50.0
  1
20
 50
90.0
  7
ADD
100
AcDbText
  0
LINE
  5
B2D
330
1F
100
AcDbEntity
  8
SUNPO
 62
   144
100
AcDbLine
 10
4020.0
 20
2120.0
 30
0.0
 11
4272.387357755721
 21
2120.0
 31
0.0
  0
LINE
  5
B2E
330
1F
100
AcDbEntity
  8
SUNPO
 62
   144
100
AcDbLine
 10
4020.0
 20
2000.0
 30
0.0
 11
4272.38735775572
 21
2000.0
 31
0.0
  0
LINE
  5
B2F
330
1F
100
AcDbEntity
  8
SUNPO
 62
   144
100
AcDbLine
 10
4262.38735775572
 20
2134.0
 30
0.0
 11
4262.38735775572
 21
2148.0
 31
0.0
  0
LINE
  5
B30
330
1F
100
AcDbEntity
  8
SUNPO
 62
   144
100
AcDbLine
 10
4262.387357755719
 20
1986.0
 30
0.0
 11
4262.387357755719
 21
1972.0
 31
0.0
  0
LINE
  5
B31
330
1F
100
AcDbEntity
  8
SUNPO
 62
   144
100
AcDbLine
 10
4262.38735775572
 20
2120.0
 30
0.0
 11
4262.387357755719
 21
2000.0
 31
0.0
  0
SOLID
  5
B32
330
1F
100
AcDbEntity
  8
SUNPO
 62
   144
100
AcDbTrace
 10
4260.054024422387
 20
2134.0
 30
0.0
 11
4264.720691089054
 21
2134.0
 31
0.0
 12
4262.38735775572
 22
2120.0
 32
0.0
 13
4262.38735775572
 23
2120.0
 33
0.0
  0
SOLID
  5
B33
330
1F
100
AcDbEntity
  8
SUNPO
 62
   144
100
AcDbTrace
 10
4260.054024422387
 20
1986.0
 30
0.0
 11
4264.720691089052
 21
1986.0
 31
0.0
 12
4262.387357755719
 22
2000.0
 32
0.0
 13
4262.387357755719
 23
2000.0
 33
0.0
  0
LINE
  5
B35
330
1F
100
AcDbEntity
  8
SUNPO
 62
   144
100
AcDbLine
 10
3000.0
 20
1980.0
 30
0.0
 11
3000.0
 21
1745.768892288026
 31
0.0
  0
LINE
  5
B36
330
1F
100
AcDbEntity
  8
SUNPO
 62
   144
100
AcDbLine
 10
5000.0
 20
1980.0
 30
0.0
 11
5000.0
 21
1745.768892288026
 31
0.0
  0
LINE
  5
B37
330
1F
100
AcDbEntity
  8
SUNPO
 62
   144
100
AcDbLine
 10
3014.0
 20
1755.768892288026
 30
0.0
 11
4986.0
 21
1755.768892288026
 31
0.0
  0
SOLID
  5
B38
330
1F
100
AcDbEntity
  8
SUNPO
 62
   144
100
AcDbTrace
 10
3014.0
 20
1758.102225621359
 30
0.0
 11
3014.0
 21
1753.435558954693
 31
0.0
 12
3000.0
 22
1755.768892288026
 32
0.0
 13
3000.0
 23
1755.768892288026
 33
0.0
  0
SOLID
  5
B39
330
1F
100
AcDbEntity
  8
SUNPO
 62
   144
100
AcDbTrace
 10
4986.0
 20
1758.102225621359
 30
0.0
 11
4986.0
 21
1753.435558954693
 31
0.0
 12
5000.0
 22
1755.768892288026
 32
0.0
 13
5000.0
 23
1755.768892288026
 33
0.0
  0
LINE
  5
B3B
330
1F
100
AcDbEntity
  8
SUNPO
 62
   144
100
AcDbLine
 10
5020.0
 20
2143.0
 30
0.0
 11
5324.120863089082
 21
2142.999999999999
 31
0.0
  0
LINE
  5
B3C
330
1F
100
AcDbEntity
  8
SUNPO
 62
   144
100
AcDbLine
 10
5020.0
 20
2000.0
 30
0.0
 11
5324.120863089081
 21
2000.0
 31
0.0
  0
LINE
  5
B3D
330
1F
100
AcDbEntity
  8
SUNPO
 62
   144
100
AcDbLine
 10
5314.120863089082
 20
2156.999999999999
 30
0.0
 11
5314.120863089082
 21
2170.999999999999
 31
0.0
  0
LINE
  5
B3E
330
1F
100
AcDbEntity
  8
SUNPO
 62
   144
100
AcDbLine
 10
5314.120863089081
 20
1986.0
 30
0.0
 11
5314.120863089081
 21
1972.0
 31
0.0
  0
LINE
  5
B3F
330
1F
100
AcDbEntity
  8
SUNPO
 62
   144
100
AcDbLine
 10
5314.120863089082
 20
2142.999999999999
 30
0.0
 11
5314.120863089081
 21
2000.0
 31
0.0
  0
SOLID
  5
B40
330
1F
100
AcDbEntity
  8
SUNPO
 62
   144
100
AcDbTrace
 10
5311.78752975575
 20
2156.999999999999
 30
0.0
 11
5316.454196422416
 21
2156.999999999999
 31
0.0
 12
5314.120863089082
 22
2142.999999999999
 32
0.0
 13
5314.120863089082
 23
2142.999999999999
 33
0.0
  0
SOLID
  5
B41
330
1F
100
AcDbEntity
  8
SUNPO
 62
   144
100
AcDbTrace
 10
5311.787529755748
 20
1986.0
 30
0.0
 11
5316.454196422415
 21
1986.0
 31
0.0
 12
5314.120863089081
 22
2000.0
 32
0.0
 13
5314.120863089081
 23
2000.0
 33
0.0
  0
LINE
  5
B43
330
1F
100
AcDbEntity
  8
SUNPO
 62
   144
100
AcDbLine
 10
2980.0
 20
2120.0
 30
0.0
 11
2789.76772268631
 21
2120.0
 31
0.0
  0
LINE
  5
B44
330
1F
100
AcDbEntity
  8
SUNPO
 62
   144
100
AcDbLine
 10
2980.0
 20
2000.0
 30
0.0
 11
2789.76772268631
 21
2000.0
 31
0.0
  0
LINE
  5
B45
330
1F
100
AcDbEntity
  8
SUNPO
 62
   144
100
AcDbLine
 10
2799.76772268631
 20
2134.0
 30
0.0
 11
2799.76772268631
 21
2148.0
 31
0.0
  0
LINE
  5
B46
330
1F
100
AcDbEntity
  8
SUNPO
 62
   144
100
AcDbLine
 10
2799.76772268631
 20
1986.0
 30
0.0
 11
2799.76772268631
 21
1972.0
 31
0.0
  0
LINE
  5
B47
330
1F
100
AcDbEntity
  8
SUNPO
 62
   144
100
AcDbLine
 10
2799.76772268631
 20
2120.0
 30
0.0
 11
2799.76772268631
 21
2000.0
 31
0.0
  0
SOLID
  5
B48
330
1F
100
AcDbEntity
  8
SUNPO
 62
   144
100
AcDbTrace
 10
2797.434389352977
 20
2134.0
 30
0.0
 11
2802.101056019644
 21
2134.0
 31
0.0
 12
2799.76772268631
 22
2120.0
 32
0.0
 13
2799.76772268631
 23
2120.0
 33
0.0
  0
SOLID
  5
B49
330
1F
100
AcDbEntity
  8
SUNPO
 62
   144
100
AcDbTrace
 10
2797.434389352977
 20
1986.0
 30
0.0
 11
2802.101056019644
 21
1986.0
 31
0.0
 12
2799.76772268631
 22
2000.0
 32
0.0
 13
2799.76772268631
 23
2000.0
 33
0.0
  0
LINE
  5
B4B
330
1F
100
AcDbEntity
  8
SUNPO
 62
   144
100
AcDbLine
 10
2090.0
 20
2143.0
 30
0.0
 11
2340.833796133149
 21
2143.0
 31
0.0
  0
LINE
  5
B4C
330
1F
100
AcDbEntity
  8
SUNPO
 62
   144
100
AcDbLine
 10
2090.0
 20
2000.0
 30
0.0
 11
2340.833796133149
 21
2000.0
 31
0.0
  0
LINE
  5
B4D
330
1F
100
AcDbEntity
  8
SUNPO
 62
   144
100
AcDbLine
 10
2330.833796133148
 20
2157.0
 30
0.0
 11
2330.833796133148
 21
2171.0
 31
0.0
  0
LINE
  5
B4E
330
1F
100
AcDbEntity
  8
SUNPO
 62
   144
100
AcDbLine
 10
2330.833796133148
 20
1986.0
 30
0.0
 11
2330.833796133148
 21
1972.0
 31
0.0
  0
LINE
  5
B4F
330
1F
100
AcDbEntity
  8
SUNPO
 62
   144
100
AcDbLine
 10
2330.833796133148
 20
2143.0
 30
0.0
 11
2330.833796133148
 21
2000.0
 31
0.0
  0
SOLID
  5
B50
330
1F
100
AcDbEntity
  8
SUNPO
 62
   144
100
AcDbTrace
 10
2328.500462799815
 20
2157.0
 30
0.0
 11
2333.167129466482
 21
2157.0
 31
0.0
 12
2330.833796133148
 22
2143.0
 32
0.0
 13
2330.833796133148
 23
2143.0
 33
0.0
  0
SOLID
  5
B51
330
1F
100
AcDbEntity
  8
SUNPO
 62
   144
100
AcDbTrace
 10
2328.500462799815
 20
1986.0
 30
0.0
 11
2333.167129466482
 21
1986.0
 31
0.0
 12
2330.833796133148
 22
2000.0
 32
0.0
 13
2330.833796133148
 23
2000.0
 33
0.0
  0
LINE
  5
B53
330
1F
100
AcDbEntity
  8
SUNPO
 62
   144
100
AcDbLine
 10
1500.0
 20
1980.0
 30
0.0
 11
1500.0
 21
1755.768892288026
 31
0.0
  0
LINE
  5
B54
330
1F
100
AcDbEntity
  8
SUNPO
 62
   144
100
AcDbLine
 10
2070.0
 20
1980.0
 30
0.0
 11
2070.0
 21
1755.768892288026
 31
0.0
  0
LINE
  5
B55
330
1F
100
AcDbEntity
  8
SUNPO
 62
   144
100
AcDbLine
 10
1514.0
 20
1765.768892288026
 30
0.0
 11
2056.0
 21
1765.768892288026
 31
0.0
  0
SOLID
  5
B56
330
1F
100
AcDbEntity
  8
SUNPO
 62
   144
100
AcDbTrace
 10
1514.0
 20
1768.102225621359
 30
0.0
 11
1514.0
 21
1763.435558954692
 31
0.0
 12
1500.0
 22
1765.768892288026
 32
0.0
 13
1500.0
 23
1765.768892288026
 33
0.0
  0
SOLID
  5
B57
330
1F
100
AcDbEntity
  8
SUNPO
 62
   144
100
AcDbTrace
 10
2056.0
 20
1768.102225621359
 30
0.0
 11
2056.0
 21
1763.435558954692
 31
0.0
 12
2070.0
 22
1765.768892288026
 32
0.0
 13
2070.0
 23
1765.768892288026
 33
0.0
  0
TEXT
  5
B59
330
1F
100
AcDbEntity
  8
MOJI
100
AcDbText
 10
3246.680311730542
 20
359.2274732162223
 30
0.0
 40
70.0
  1
１／２０
  7
ADD
100
AcDbText
  0
TEXT
  5
B5A
330
1F
100
AcDbEntity
  8
MOJI
100
AcDbText
 10
381.8862574011546
 20
488.6918916770627
 30
0.0
 40
50.0
  1
製品名
  7
ADD
100
AcDbText
  0
TEXT
  5
B5B
330
1F
100
AcDbEntity
  8
MOJI
100
AcDbText
 10
2376.290169028722
 20
494.4531736811823
 30
0.0
 40
50.0
  1
型式
  7
ADD
100
AcDbText
  0
TEXT
  5
B5C
330
1F
100
AcDbEntity
  8
MOJI
100
AcDbText
 10
3177.510249231658
 20
488.6918916770627
 30
0.0
 40
50.0
  1
縮尺
  7
ADD
100
AcDbText
  0
TEXT
  5
B5D
330
1F
100
AcDbEntity
  8
MOJI
100
AcDbText
 10
3730.870883051572
 20
352.2726133092145
 30
0.0
 40
100.0
  1
千葉県コンクリート製品協同組合
  7
ADD
100
AcDbText
  0
LINE
  5
B5E
330
1F
100
AcDbEntity
  8
HOJO
100
AcDbLine
 10
360.0
 20
260.0
 30
0.0
 11
5580.0
 21
260.0
 31
0.0
  0
LINE
  5
B5F
330
1F
100
AcDbEntity
  8
HOJO
100
AcDbLine
 10
5580.0
 20
260.0
 30
0.0
 11
5580.0
 21
3940.0
 31
0.0
  0
LINE
  5
B60
330
1F
100
AcDbEntity
  8
HOJO
100
AcDbLine
 10
5580.0
 20
3940.0
 30
0.0
 11
360.0
 21
3940.0
 31
0.0
  0
LINE
  5
B61
330
1F
100
AcDbEntity
  8
HOJO
100
AcDbLine
 10
360.0
 20
3940.0
 30
0.0
 11
360.0
 21
260.0
 31
0.0
  0
LINE
  5
B62
330
1F
100
AcDbEntity
  8
HOJO
100
AcDbLine
 10
0.0
 20
0.0
 30
0.0
 11
5940.0
 21
0.0
 31
0.0
  0
LINE
  5
B63
330
1F
100
AcDbEntity
  8
HOJO
100
AcDbLine
 10
5940.0
 20
0.0
 30
0.0
 11
5940.0
 21
4200.0
 31
0.0
  0
LINE
  5
B64
330
1F
100
AcDbEntity
  8
HOJO
100
AcDbLine
 10
5940.0
 20
4200.0
 30
0.0
 11
0.0
 21
4200.0
 31
0.0
  0
LINE
  5
B65
330
1F
100
AcDbEntity
  8
HOJO
100
AcDbLine
 10
0.0
 20
4200.0
 30
0.0
 11
0.0
 21
0.0
 31
0.0
  0
TEXT
  5
B66
330
1F
100
AcDbEntity
  8
MOJI
 62
     7
100
AcDbText
 10
1713.571428571428
 20
1778.268892288026
 30
0.0
 40
50.0
  1
570
  7
ADD
100
AcDbText
  0
TEXT
  5
B67
330
1F
100
AcDbEntity
  8
MOJI
 62
     7
100
AcDbText
 10
2318.333796133148
 20
1996.5
 30
0.0
 40
50.0
  1
143
 50
90.0
  7
ADD
100
AcDbText
  0
TEXT
  5
B68
330
1F
100
AcDbEntity
  8
MOJI
 62
     7
100
AcDbText
 10
2787.26772268631
 20
1985.0
 30
0.0
 40
50.0
  1
120
 50
90.0
  7
ADD
100
AcDbText
  0
TEXT
  5
B69
330
1F
100
AcDbEntity
  8
MOJI
 62
     7
100
AcDbText
 10
5301.620863089081
 20
1996.5
 30
0.0
 40
50.0
  1
143
 50
90.0
  7
ADD
100
AcDbText
  0
TEXT
  5
B6A
330
1F
100
AcDbEntity
  8
MOJI
 62
     7
100
AcDbText
 10
3904.761904761904
 20
1768.268892288026
 30
0.0
 40
50.0
  1
2000
  7
ADD
100
AcDbText
  0
TEXT
  5
B6B
330
1F
100
AcDbEntity
  8
MOJI
 62
     7
100
AcDbText
 10
4249.88735775572
 20
1985.0
 30
0.0
 40
50.0
  1
120
 50
90.0
  7
ADD
100
AcDbText
  0
TEXT
  5
B6C
330
1F
100
AcDbEntity
  8
MOJI
 62
     7
100
AcDbText
 10
1528.571428571428
 20
2444.057497490343
 30
0.0
 40
50.0
  1
200
  7
ADD
100
AcDbText
  0
TEXT
  5
B6D
330
1F
100
AcDbEntity
  8
MOJI
 62
     7
100
AcDbText
 10
1813.571428571428
 20
2444.057497490343
 30
0.0
 40
50.0
  1
370
  7
ADD
100
AcDbText
  0
TEXT
  5
B6E
330
1F
100
AcDbEntity
  8
MOJI
 62
     7
100
AcDbText
 10
1713.571428571428
 20
2597.914609529581
 30
0.0
 40
50.0
  1
570
  7
ADD
100
AcDbText
  0
TEXT
  5
B6F
330
1F
100
AcDbEntity
  8
MOJI
 62
     7
100
AcDbText
 10
1265.312395828903
 20
1985.0
 30
0.0
 40
50.0
  1
120
 50
90.0
  7
ADD
100
AcDbText
  0
TEXT
  5
B70
330
1F
100
AcDbEntity
  8
MOJI
 62
     7
100
AcDbText
 10
1073.772795551634
 20
2010.0
 30
0.0
 40
50.0
  1
170
 50
90.0
  7
ADD
100
AcDbText
  0
TEXT
  5
B71
330
1F
100
AcDbEntity
  8
MOJI
 62
     7
100
AcDbText
 10
1752.87546998736
 20
2219.148556228231
 30
0.0
 40
50.0
  1
R20
 50
58.01571438369158
  7
ADD
100
AcDbText
  0
TEXT
  5
B72
330
1F
100
AcDbEntity
  8
MOJI
 62
     7
100
AcDbText
 10
1959.058700664838
 20
1985.0
 30
0.0
 40
50.0
  1
120
 50
90.0
  7
ADD
100
AcDbText
  0
VIEWPORT
  5
72
330
1B
100
AcDbEntity
 67
     1
  8
0
100
AcDbViewport
 10
429.8380103383459
 20
277.0
 30
0.0
 40
948.9782706766918
 41
628.4520000000001
 68
     1
 69
     1
1001
ACAD
1000
MVIEW
1002
{
1070
    16
1010
0.0
1020
0.0
1030
0.0
1010
0.0
1020
0.0
1030
1.0
1040
0.0
1040
628.4520000000001
1040
429.8380103383459
1040
277.0
1040
50.0
1040
0.0
1040
0.0
1070
     0
1070
   100
1070
     1
1070
     1
1070
     0
1070
     0
1070
     0
1070
     0
1040
0.0
1040
0.0
1040
0.0
1040
10.0
1040
10.0
1040
10.0
1040
10.0
1070
     0
1002
{
1002
}
1002
}
  0
VIEWPORT
  5
74
330
1B
100
AcDbEntity
 67
     1
  8
VIEWPORT
100
AcDbViewport
 10
414.3779638919211
 20
277.3177265058034
 30
0.0
 40
840.0353682728887
 41
567.2285469943826
 68
     2
 69
     2
1001
ACAD
1000
MVIEW
1002
{
1070
    16
1010
0.0
1020
0.0
1030
0.0
1010
0.0
1020
0.0
1030
1.0
1040
0.0
1040
579.5583043546323
1040
424.4938908624541
1040
286.1973242720074
1040
50.0
1040
0.0
1040
0.0
1070
     0
1070
   100
1070
     1
1070
     1
1070
     0
1070
     0
1070
     0
1070
     0
1040
0.0
1040
0.0
1040
0.0
1040
10.0
1040
10.0
1040
10.0
1040
10.0
1070
     0
1002
{
1002
}
1002
}
  0
ENDSEC
  0
SECTION
  2
OBJECTS
  0
DICTIONARY
  5
C
330
0
100
AcDbDictionary
  3
ACAD_GROUP
350
D
  3
ACAD_LAYOUT
350
1A
  3
ACAD_MLINESTYLE
350
17
  3
ACAD_PLOTSETTINGS
350
19
  3
DWGPROPS
350
4C7
1001
ACAD
1000
TREAT_AS_HARD
1070
     0
  0
DICTIONARY
  5
A11
330
1F
100
AcDbDictionary
  3
ACAD_LAYOUTSELFREF
350
B75
1001
ACAD
1000
TREAT_AS_HARD
1070
     1
  0
DICTIONARY
  5
A13
330
1B
100
AcDbDictionary
  3
ACAD_LAYOUTSELFREF
350
B74
1001
ACAD
1000
TREAT_AS_HARD
1070
     1
  0
DICTIONARY
  5
D
102
{ACAD_REACTORS
330
C
102
}
330
C
100
AcDbDictionary
1001
ACAD
1000
TREAT_AS_HARD
1070
     0
  0
DICTIONARY
  5
1A
102
{ACAD_REACTORS
330
C
102
}
330
C
100
AcDbDictionary
1001
ACAD
1000
TREAT_AS_HARD
1070
     0
  0
DICTIONARY
  5
17
102
{ACAD_REACTORS
330
C
102
}
330
C
100
AcDbDictionary
  3
STANDARD
350
18
1001
ACAD
1000
TREAT_AS_HARD
1070
     0
  0
DICTIONARY
  5
19
102
{ACAD_REACTORS
330
C
102
}
330
C
100
AcDbDictionary
1001
ACAD
1000
TREAT_AS_HARD
1070
     0
  0
XRECORD
  5
4C7
102
{ACAD_REACTORS
330
C
102
}
330
C
100
AcDbXrecord
  1
DWGPROPS COOKIE
  2
印刷用テスト
  3
AutoCAD2000による建築設計
  4
鈴木 裕二
  6

  7

  8
U2
  9

300
=
301
=
302
=
303
=
304
=
305
=
306
=
307
=
308
=
309
=
 40
0.7653446875
 41
2451285.4846114
 42
2451333.689743032
  1

 90
        0
  0
XRECORD
  5
B75
102
{ACAD_REACTORS
330
A11
102
}
330
A11
100
AcDbXrecord
340
1F
  0
XRECORD
  5
B74
102
{ACAD_REACTORS
330
A13
102
}
330
A13
100
AcDbXrecord
340
1B
  0
MLINESTYLE
  5
18
102
{ACAD_REACTORS
330
17
102
}
330
17
100
AcDbMlineStyle
  2
STANDARD
 70
     0
  3

 62
   256
 51
90.0
 52
90.0
 71
     2
 49
0.5
 62
   256
  6
BYLAYER
 49
-0.5
 62
   256
  6
BYLAYER
  0
ENDSEC
  0
EOF
