  0
SECTION
  2
HEADER
  9
$ACADVER
  1
AC1012
  9
$DWGCODEPAGE
  3
dos932
  9
$INSBASE
 10
0.0
 20
0.0
 30
0.0
  9
$EXTMIN
 10
0.0
 20
0.0
 30
0.0
  9
$EXTMAX
 10
5940.0
 20
4200.0
 30
0.0
  9
$LIMMIN
 10
0.0
 20
0.0
  9
$LIMMAX
 10
5940.0
 20
4200.0
  9
$ORTHOMODE
 70
     0
  9
$REGENMODE
 70
     1
  9
$FILLMODE
 70
     1
  9
$QTEXTMODE
 70
     0
  9
$MIRRTEXT
 70
     0
  9
$DRAGMODE
 70
     2
  9
$LTSCALE
 40
10.0
  9
$OSMODE
 70
  3071
  9
$ATTMODE
 70
     1
  9
$TEXTSIZE
 40
50.0
  9
$TRACEWID
 40
1.0
  9
$TEXTSTYLE
  7
ADD
  9
$CLAYER
  8
SUNPO
  9
$CELTYPE
  6
BYLAYER
  9
$CECOLOR
 62
   256
  9
$CELTSCALE
 40
1.0
  9
$DELOBJ
 70
     1
  9
$DISPSILH
 70
     0
  9
$DIMSCALE
 40
20.0
  9
$DIMASZ
 40
2.5
  9
$DIMEXO
 40
1.0
  9
$DIMDLI
 40
7.0
  9
$DIMRND
 40
0.0
  9
$DIMDLE
 40
0.0
  9
$DIMEXE
 40
0.5
  9
$DIMTP
 40
0.0
  9
$DIMTM
 40
0.0
  9
$DIMTXT
 40
2.5
  9
$DIMCEN
 40
2.5
  9
$DIMTSZ
 40
0.0
  9
$DIMTOL
 70
     0
  9
$DIMLIM
 70
     0
  9
$DIMTIH
 70
     0
  9
$DIMTOH
 70
     0
  9
$DIMSE1
 70
     0
  9
$DIMSE2
 70
     0
  9
$DIMTAD
 70
     1
  9
$DIMZIN
 70
     8
  9
$DIMBLK
  1

  9
$DIMASO
 70
     1
  9
$DIMSHO
 70
     1
  9
$DIMPOST
  1

  9
$DIMAPOST
  1

  9
$DIMALT
 70
     0
  9
$DIMALTD
 70
     3
  9
$DIMALTF
 40
0.03937007874016
  9
$DIMLFAC
 40
1.0
  9
$DIMTOFL
 70
     1
  9
$DIMTVP
 40
0.7
  9
$DIMTIX
 70
     1
  9
$DIMSOXD
 70
     0
  9
$DIMSAH
 70
     0
  9
$DIMBLK1
  1

  9
$DIMBLK2
  1

  9
$DIMSTYLE
  2
ADD
  9
$DIMCLRD
 70
   144
  9
$DIMCLRE
 70
   144
  9
$DIMCLRT
 70
     7
  9
$DIMTFAC
 40
1.0
  9
$DIMGAP
 40
0.625
  9
$DIMJUST
 70
     0
  9
$DIMSD1
 70
     0
  9
$DIMSD2
 70
     0
  9
$DIMTOLJ
 70
     2
  9
$DIMTZIN
 70
     8
  9
$DIMALTZ
 70
     0
  9
$DIMALTTZ
 70
     0
  9
$DIMFIT
 70
     5
  9
$DIMUPT
 70
     0
  9
$DIMUNIT
 70
     2
  9
$DIMDEC
 70
     1
  9
$DIMTDEC
 70
     1
  9
$DIMALTU
 70
     2
  9
$DIMALTTD
 70
     3
  9
$DIMTXSTY
  7
ADD
  9
$DIMAUNIT
 70
     0
  9
$LUNITS
 70
     2
  9
$LUPREC
 70
     4
  9
$SKETCHINC
 40
1.0
  9
$FILLETRAD
 40
20.0
  9
$AUNITS
 70
     0
  9
$AUPREC
 70
     1
  9
$MENU
  1
.
  9
$ELEVATION
 40
0.0
  9
$PELEVATION
 40
0.0
  9
$THICKNESS
 40
0.0
  9
$LIMCHECK
 70
     0
  9
$BLIPMODE
 70
     0
  9
$CHAMFERA
 40
10.0
  9
$CHAMFERB
 40
10.0
  9
$CHAMFERC
 40
20.0
  9
$CHAMFERD
 40
0.0
  9
$SKPOLY
 70
     0
  9
$TDCREATE
 40
2451801.142532870
  9
$TDUPDATE
 40
2452523.651416991
  9
$TDINDWG
 40
0.1752751968
  9
$TDUSRTIMER
 40
0.1752751968
  9
$USRTIMER
 70
     1
  9
$ANGBASE
 50
0.0
  9
$ANGDIR
 70
     0
  9
$PDMODE
 70
     0
  9
$PDSIZE
 40
0.0
  9
$PLINEWID
 40
0.0
  9
$COORDS
 70
     1
  9
$SPLFRAME
 70
     0
  9
$SPLINETYPE
 70
     6
  9
$SPLINESEGS
 70
     8
  9
$ATTDIA
 70
     0
  9
$ATTREQ
 70
     1
  9
$HANDLING
 70
 22529
  9
$HANDSEED
  5
DCD
  9
$SURFTAB1
 70
     6
  9
$SURFTAB2
 70
     6
  9
$SURFTYPE
 70
     6
  9
$SURFU
 70
     6
  9
$SURFV
 70
     6
  9
$UCSNAME
  2

  9
$UCSORG
 10
0.0
 20
0.0
 30
0.0
  9
$UCSXDIR
 10
1.0
 20
0.0
 30
0.0
  9
$UCSYDIR
 10
0.0
 20
1.0
 30
0.0
  9
$PUCSNAME
  2

  9
$PUCSORG
 10
0.0
 20
0.0
 30
0.0
  9
$PUCSXDIR
 10
1.0
 20
0.0
 30
0.0
  9
$PUCSYDIR
 10
0.0
 20
1.0
 30
0.0
  9
$USERI1
 70
     0
  9
$USERI2
 70
     0
  9
$USERI3
 70
     0
  9
$USERI4
 70
     0
  9
$USERI5
 70
     0
  9
$USERR1
 40
841.0
  9
$USERR2
 40
594.0
  9
$USERR3
 40
1.0
  9
$USERR4
 40
0.0
  9
$USERR5
 40
0.0
  9
$WORLDVIEW
 70
     1
  9
$SHADEDGE
 70
     3
  9
$SHADEDIF
 70
    70
  9
$TILEMODE
 70
     1
  9
$MAXACTVP
 70
    48
  9
$PINSBASE
 10
0.0
 20
0.0
 30
0.0
  9
$PLIMCHECK
 70
     0
  9
$PEXTMIN
 10
-5.662975978526674
 20
-6.331907780761866
 30
-0.0015258207003583
  9
$PEXTMAX
 10
834.4213426047982
 20
560.9663709967471
 30
0.0000000349246037
  9
$PLIMMIN
 10
-7.500000000000001
 20
-20.0
  9
$PLIMMAX
 10
833.5000000000002
 20
574.0000000000001
  9
$UNITMODE
 70
     0
  9
$VISRETAIN
 70
     1
  9
$PLINEGEN
 70
     0
  9
$PSLTSCALE
 70
     1
  9
$TREEDEPTH
 70
  3020
  9
$PICKSTYLE
 70
     1
  9
$CMLSTYLE
  2
STANDARD
  9
$CMLJUST
 70
     0
  9
$CMLSCALE
 40
20.0
  9
$SAVEIMAGES
 70
     1
  0
ENDSEC
  0
SECTION
  2
CLASSES
  0
CLASS
  1
ACDBDICTIONARYWDFLT
  2
AcDbDictionaryWithDefault
  3
AutoCAD 2000
 90
    32768
280
     0
281
     0
  0
CLASS
  1
ACDBPLACEHOLDER
  2
AcDbPlaceHolder
  3
AutoCAD 2000
 90
    32768
280
     0
281
     0
  0
CLASS
  1
LAYOUT
  2
AcDbLayout
  3
AutoCAD 2000
 90
    32768
280
     0
281
     0
  0
CLASS
  1
RTEXT
  2
RText
  3
RText|AutoCAD Express Tool|expresstools@autodesk.com
 90
    32768
280
     0
281
     1
  0
CLASS
  1
DICTIONARYVAR
  2
AcDbDictionaryVar
  3
AutoCAD 2000
 90
    32768
280
     0
281
     0
  0
CLASS
  1
LONG_TRANSACTION
  2
AcDbLongTransaction
  3
AutoCAD 2000
 90
    32768
280
     0
281
     0
  0
CLASS
  1
LWPOLYLINE
  2
AcDbPolyline
  3
AutoCAD 2000
 90
    32768
280
     0
281
     1
  0
CLASS
  1
HATCH
  2
AcDbHatch
  3
AutoCAD 2000
 90
    32768
280
     0
281
     1
  0
CLASS
  1
XRECORD
  2
AcDbXrecord
  3
AutoCAD 2000
 90
    32768
280
     0
281
     0
  0
CLASS
  1
LONG_TRANSACTION
  2
AcDbLongTransaction
  3
AutoCAD 2000
 90
    32768
280
     0
281
     0
  0
CLASS
  1
LWPOLYLINE
  2
AcDbPolyline
  3
AutoCAD 2000
 90
    32768
280
     0
281
     1
  0
CLASS
  1
HATCH
  2
AcDbHatch
  3
AutoCAD 2000
 90
    32768
280
     0
281
     1
  0
CLASS
  1
XRECORD
  2
AcDbXrecord
  3
AutoCAD 2000
 90
    32768
280
     0
281
     0
  0
ENDSEC
  0
SECTION
  2
TABLES
  0
TABLE
  2
VPORT
  5
8
330
0
100
AcDbSymbolTable
 70
     2
  0
VPORT
  5
DBD
330
8
100
AcDbSymbolTableRecord
100
AcDbViewportTableRecord
  2
*ACTIVE
 70
     0
 10
0.0
 20
0.0
 11
1.0
 21
1.0
 12
3024.398195244948
 22
2403.711078070648
 13
0.0
 23
0.0
 14
10.0
 24
10.0
 15
10.0
 25
10.0
 16
0.0
 26
0.0
 36
1.0
 17
0.0
 27
0.0
 37
0.0
 40
4831.838044556799
 41
1.77727952167414
 42
50.0
 43
0.0
 44
0.0
 50
0.0
 51
0.0
 71
     0
 72
   100
 73
     1
 74
     1
 75
     1
 76
     0
 77
     0
 78
     0
  0
ENDTAB
  0
TABLE
  2
LTYPE
  5
5
330
0
100
AcDbSymbolTable
 70
     5
  0
LTYPE
  5
14
330
5
100
AcDbSymbolTableRecord
100
AcDbLinetypeTableRecord
  2
BYBLOCK
 70
     0
  3

 72
    65
 73
     0
 40
0.0
  0
LTYPE
  5
15
330
5
100
AcDbSymbolTableRecord
100
AcDbLinetypeTableRecord
  2
BYLAYER
 70
     0
  3

 72
    65
 73
     0
 40
0.0
  0
LTYPE
  5
16
330
5
100
AcDbSymbolTableRecord
100
AcDbLinetypeTableRecord
  2
CONTINUOUS
 70
     0
  3
Solid line
 72
    65
 73
     0
 40
0.0
  0
LTYPE
  5
555
330
5
100
AcDbSymbolTableRecord
100
AcDbLinetypeTableRecord
  2
CENTER
 70
     0
  3
Center ____ _ ____ _ ____ _ ____ _ ____ _ ____
 72
    65
 73
     4
 40
50.8
 49
31.75
 74
     0
 49
-6.349999999999999
 74
     0
 49
6.349999999999999
 74
     0
 49
-6.349999999999999
 74
     0
  0
LTYPE
  5
556
330
5
100
AcDbSymbolTableRecord
100
AcDbLinetypeTableRecord
  2
HIDDEN
 70
     0
  3
Hidden __ __ __ __ __ __ __ __ __ __ __ __ __ _
 72
    65
 73
     2
 40
9.524999999999998
 49
6.349999999999999
 74
     0
 49
-3.174999999999999
 74
     0
  0
LTYPE
  5
557
330
5
100
AcDbSymbolTableRecord
100
AcDbLinetypeTableRecord
  2
HIDDEN2
 70
     0
  3
Hidden (.5x) _ _ _ _ _ _ _ _ _ _ _ _ _ _ _ _ _
 72
    65
 73
     2
 40
4.762499999999999
 49
3.174999999999999
 74
     0
 49
-1.587499999999999
 74
     0
  0
LTYPE
  5
558
330
5
100
AcDbSymbolTableRecord
100
AcDbLinetypeTableRecord
  2
PHANTOM
 70
     0
  3
Phantom ______  __  __  ______  __  __  ______
 72
    65
 73
     6
 40
63.5
 49
31.75
 74
     0
 49
-6.349999999999999
 74
     0
 49
6.349999999999999
 74
     0
 49
-6.349999999999999
 74
     0
 49
6.349999999999999
 74
     0
 49
-6.349999999999999
 74
     0
  0
ENDTAB
  0
TABLE
  2
LAYER
  5
2
330
0
100
AcDbSymbolTable
 70
    22
  0
LAYER
  5
10
330
2
100
AcDbSymbolTableRecord
100
AcDbLayerTableRecord
  2
0
 70
     0
 62
     7
  6
CONTINUOUS
  0
LAYER
  5
75
330
2
100
AcDbSymbolTableRecord
100
AcDbLayerTableRecord
  2
VIEWPORT
 70
     0
 62
     1
  6
CONTINUOUS
  0
LAYER
  5
504
330
2
100
AcDbSymbolTableRecord
100
AcDbLayerTableRecord
  2
DEFPOINTS
 70
     0
 62
     7
  6
CONTINUOUS
  0
LAYER
  5
505
330
2
100
AcDbSymbolTableRecord
100
AcDbLayerTableRecord
  2
1C1
 70
     0
 62
   254
  6
CONTINUOUS
  0
LAYER
  5
506
330
2
100
AcDbSymbolTableRecord
100
AcDbLayerTableRecord
  2
1C2
 70
     0
 62
   254
  6
CONTINUOUS
  0
LAYER
  5
507
330
2
100
AcDbSymbolTableRecord
100
AcDbLayerTableRecord
  2
2C1
 70
     0
 62
   144
  6
CONTINUOUS
  0
LAYER
  5
508
330
2
100
AcDbSymbolTableRecord
100
AcDbLayerTableRecord
  2
2C2
 70
     0
 62
   144
  6
CONTINUOUS
  0
LAYER
  5
509
330
2
100
AcDbSymbolTableRecord
100
AcDbLayerTableRecord
  2
2H1
 70
     0
 62
   144
  6
HIDDEN
  0
LAYER
  5
50A
330
2
100
AcDbSymbolTableRecord
100
AcDbLayerTableRecord
  2
2H2
 70
     0
 62
   144
  6
HIDDEN2
  0
LAYER
  5
50B
330
2
100
AcDbSymbolTableRecord
100
AcDbLayerTableRecord
  2
2P1
 70
     0
 62
   144
  6
PHANTOM
  0
LAYER
  5
50C
330
2
100
AcDbSymbolTableRecord
100
AcDbLayerTableRecord
  2
3C1
 70
     0
 62
     7
  6
CONTINUOUS
  0
LAYER
  5
50D
330
2
100
AcDbSymbolTableRecord
100
AcDbLayerTableRecord
  2
3C2
 70
     0
 62
     7
  6
CONTINUOUS
  0
LAYER
  5
50E
330
2
100
AcDbSymbolTableRecord
100
AcDbLayerTableRecord
  2
3C3
 70
     0
 62
     7
  6
CONTINUOUS
  0
LAYER
  5
50F
330
2
100
AcDbSymbolTableRecord
100
AcDbLayerTableRecord
  2
4H1
 70
     0
 62
     6
  6
HIDDEN
  0
LAYER
  5
510
330
2
100
AcDbSymbolTableRecord
100
AcDbLayerTableRecord
  2
4H2
 70
     0
 62
     6
  6
HIDDEN2
  0
LAYER
  5
511
330
2
100
AcDbSymbolTableRecord
100
AcDbLayerTableRecord
  2
5C1
 70
     0
 62
    55
  6
CONTINUOUS
  0
LAYER
  5
512
330
2
100
AcDbSymbolTableRecord
100
AcDbLayerTableRecord
  2
5C2
 70
     0
 62
    55
  6
CONTINUOUS
  0
LAYER
  5
513
330
2
100
AcDbSymbolTableRecord
100
AcDbLayerTableRecord
  2
8C1
 70
     0
 62
    92
  6
CONTINUOUS
  0
LAYER
  5
514
330
2
100
AcDbSymbolTableRecord
100
AcDbLayerTableRecord
  2
HOJO
 70
     0
 62
     5
  6
CONTINUOUS
  0
LAYER
  5
515
330
2
100
AcDbSymbolTableRecord
100
AcDbLayerTableRecord
  2
KIJUN
 70
     0
 62
     1
  6
CENTER
  0
LAYER
  5
516
330
2
100
AcDbSymbolTableRecord
100
AcDbLayerTableRecord
  2
MOJI
 70
     0
 62
     7
  6
CONTINUOUS
  0
LAYER
  5
517
330
2
100
AcDbSymbolTableRecord
100
AcDbLayerTableRecord
  2
SUNPO
 70
     0
 62
   144
  6
CONTINUOUS
  0
ENDTAB
  0
TABLE
  2
STYLE
  5
3
330
0
100
AcDbSymbolTable
 70
     6
  0
STYLE
  5
11
330
3
100
AcDbSymbolTableRecord
100
AcDbTextStyleTableRecord
  2
STANDARD
 70
     0
 40
0.0
 41
1.0
 50
0.0
 71
     0
 42
2.5
  3
txt
  4

  0
STYLE
  5
2C
330
3
100
AcDbSymbolTableRecord
100
AcDbTextStyleTableRecord
  2

 70
     1
 40
0.0
 41
1.0
 50
0.0
 71
     0
 42
2.5
  3
ltypeshp.shx
  4

  0
STYLE
  5
18E
330
3
100
AcDbSymbolTableRecord
100
AcDbTextStyleTableRecord
  2
ADD
 70
     0
 40
0.0
 41
1.0
 50
0.0
 71
     0
 42
50.0
  3
romans.shx
  4
bigfont.shx
  0
STYLE
  5
191
330
3
100
AcDbSymbolTableRecord
100
AcDbTextStyleTableRecord
  2
MSG
 70
     0
 40
0.0
 41
1.0
 50
0.0
 71
     0
 42
2.5
  3
MS Gothic.ttf
  4

1001
ACAD
1000
MS Gothic
1071
    32817
  0
STYLE
  5
5C8
330
3
100
AcDbSymbolTableRecord
100
AcDbTextStyleTableRecord
  2
STANDARD15
 70
     0
 40
0.0
 41
1.0
 50
15.0
 71
     0
 42
2.5
  3
ROMANS
  4
bigfont
  0
STYLE
  5
5C9
330
3
100
AcDbSymbolTableRecord
100
AcDbTextStyleTableRecord
  2
ROMANS15
 70
     0
 40
0.0
 41
1.0
 50
15.0
 71
     0
 42
2.5
  3
romans
  4

  0
ENDTAB
  0
TABLE
  2
VIEW
  5
6
330
0
100
AcDbSymbolTable
 70
     1
  0
VIEW
  5
54D
330
6
100
AcDbSymbolTableRecord
100
AcDbViewTableRecord
  2
ALL
 70
     0
 40
594.0
 10
420.5
 20
297.0
 41
865.125
 11
0.0
 21
0.0
 31
1.0
 12
0.0
 22
0.0
 32
0.0
 42
50.0
 43
0.0
 44
0.0
 50
0.0
 71
     0
  0
ENDTAB
  0
TABLE
  2
UCS
  5
7
330
0
100
AcDbSymbolTable
 70
     0
  0
ENDTAB
  0
TABLE
  2
APPID
  5
9
330
0
100
AcDbSymbolTable
 70
     4
  0
APPID
  5
12
330
9
100
AcDbSymbolTableRecord
100
AcDbRegAppTableRecord
  2
ACAD
 70
     0
  0
APPID
  5
5CB
330
9
100
AcDbSymbolTableRecord
100
AcDbRegAppTableRecord
  2
ARAIGUMI_YOHEKI
 70
     0
  0
APPID
  5
5CC
330
9
100
AcDbSymbolTableRecord
100
AcDbRegAppTableRecord
  2
CONTENTTABDATA
 70
     0
  0
APPID
  5
5CD
330
9
100
AcDbSymbolTableRecord
100
AcDbRegAppTableRecord
  2
CONTENTCURRENTTAB
 70
     0
  0
ENDTAB
  0
TABLE
  2
DIMSTYLE
  5
A
330
0
100
AcDbSymbolTable
 70
    10
  0
DIMSTYLE
105
27
330
A
100
AcDbSymbolTableRecord
100
AcDbDimStyleTableRecord
  2
ISO-25
 70
     0
  3

  4

  5

  6

  7

 40
1.0
 41
2.5
 42
0.625
 43
3.75
 44
1.25
 45
0.0
 46
0.0
 47
0.0
 48
0.0
140
2.5
141
2.5
142
0.0
143
0.03937007874016
144
1.0
145
0.0
146
1.0
147
0.625
 71
     0
 72
     0
 73
     0
 74
     0
 75
     0
 76
     0
 77
     1
 78
     8
170
     0
171
     3
172
     1
173
     0
174
     0
175
     0
176
     0
177
     0
178
     0
270
     2
271
     2
272
     2
273
     2
274
     3
340
11
275
     0
280
     0
281
     0
282
     0
283
     0
284
     8
285
     0
286
     0
287
     3
288
     0
  0
DIMSTYLE
105
197
330
A
100
AcDbSymbolTableRecord
100
AcDbDimStyleTableRecord
  2
ADD
 70
     0
  3

  4

  5

  6

  7

 40
1.0
 41
2.5
 42
1.0
 43
7.0
 44
0.5
 45
0.0
 46
0.0
 47
0.0
 48
0.0
140
2.5
141
2.5
142
0.0
143
0.03937007874016
144
1.0
145
0.7
146
1.0
147
0.625
 71
     0
 72
     0
 73
     0
 74
     0
 75
     0
 76
     0
 77
     1
 78
     8
170
     0
171
     3
172
     1
173
     0
174
     1
175
     0
176
   144
177
   144
178
     7
270
     2
271
     1
272
     1
273
     2
274
     3
340
18E
275
     0
280
     0
281
     0
282
     0
283
     2
284
     8
285
     0
286
     0
287
     5
288
     0
  0
DIMSTYLE
105
3E6
330
A
100
AcDbSymbolTableRecord
100
AcDbDimStyleTableRecord
  2
ADD$2
 70
     0
  3

  4

  5

  6

  7

 40
1.0
 41
2.5
 42
1.0
 43
7.0
 44
0.5
 45
0.0
 46
0.0
 47
0.0
 48
0.0
140
2.5
141
2.5
142
0.0
143
0.03937007874016
144
1.0
145
0.7
146
1.0
147
0.625
 71
     0
 72
     0
 73
     0
 74
     0
 75
     0
 76
     0
 77
     1
 78
     8
170
     0
171
     3
172
     1
173
     0
174
     1
175
     0
176
   144
177
   144
178
     7
270
     2
271
     1
272
     1
273
     2
274
     3
340
18E
275
     0
280
     0
281
     0
282
     0
283
     2
284
     8
285
     0
286
     0
287
     5
288
     0
  0
DIMSTYLE
105
3E7
330
A
100
AcDbSymbolTableRecord
100
AcDbDimStyleTableRecord
  2
ADD$4
 70
     0
  3

  4

  5

  6

  7

 40
1.0
 41
2.5
 42
1.0
 43
7.0
 44
0.5
 45
0.0
 46
0.0
 47
0.0
 48
0.0
140
2.5
141
2.5
142
0.0
143
0.03937007874016
144
1.0
145
0.0
146
1.0
147
0.625
 71
     0
 72
     0
 73
     0
 74
     0
 75
     0
 76
     0
 77
     1
 78
     8
170
     0
171
     3
172
     1
173
     0
174
     1
175
     0
176
   144
177
   144
178
     7
270
     2
271
     1
272
     1
273
     2
274
     3
340
18E
275
     0
280
     0
281
     0
282
     0
283
     2
284
     8
285
     0
286
     0
287
     5
288
     0
  0
DIMSTYLE
105
3E8
330
A
100
AcDbSymbolTableRecord
100
AcDbDimStyleTableRecord
  2
ADD$3
 70
     0
  3

  4

  5

  6

  7

 40
1.0
 41
2.5
 42
1.0
 43
7.0
 44
0.5
 45
0.0
 46
0.0
 47
0.0
 48
0.0
140
2.5
141
2.5
142
0.0
143
0.03937007874016
144
1.0
145
0.0
146
1.0
147
0.625
 71
     0
 72
     0
 73
     0
 74
     0
 75
     0
 76
     0
 77
     1
 78
     8
170
     0
171
     3
172
     1
173
     0
174
     1
175
     0
176
   144
177
   144
178
     7
270
     2
271
     1
272
     1
273
     2
274
     3
340
18E
275
     0
280
     0
281
     0
282
     0
283
     2
284
     8
285
     0
286
     0
287
     5
288
     0
  0
DIMSTYLE
105
3E9
330
A
100
AcDbSymbolTableRecord
100
AcDbDimStyleTableRecord
  2
ADD$6
 70
     0
  3

  4

  5

  6

  7

 40
1.0
 41
2.5
 42
1.0
 43
7.0
 44
0.5
 45
0.0
 46
0.0
 47
0.0
 48
0.0
140
2.5
141
2.5
142
0.0
143
0.03937007874016
144
1.0
145
0.0
146
1.0
147
0.625
 71
     0
 72
     0
 73
     0
 74
     0
 75
     0
 76
     0
 77
     1
 78
     8
170
     0
171
     3
172
     1
173
     0
174
     1
175
     0
176
   144
177
   144
178
     7
270
     2
271
     1
272
     1
273
     2
274
     3
340
18E
275
     0
280
     0
281
     0
282
     0
283
     2
284
     8
285
     0
286
     0
287
     5
288
     0
  0
DIMSTYLE
105
3EA
330
A
100
AcDbSymbolTableRecord
100
AcDbDimStyleTableRecord
  2
ADD$7
 70
     0
  3

  4

  5

  6

  7

 40
1.0
 41
2.5
 42
1.0
 43
7.0
 44
0.5
 45
0.0
 46
0.0
 47
0.0
 48
0.0
140
2.5
141
2.5
142
0.0
143
0.03937007874016
144
1.0
145
0.0
146
1.0
147
0.625
 71
     0
 72
     0
 73
     0
 74
     0
 75
     0
 76
     0
 77
     0
 78
     8
170
     0
171
     3
172
     1
173
     0
174
     1
175
     0
176
   144
177
   144
178
     7
270
     2
271
     1
272
     1
273
     2
274
     3
340
18E
275
     0
280
     0
281
     0
282
     0
283
     2
284
     8
285
     0
286
     0
287
     5
288
     0
  0
DIMSTYLE
105
518
330
A
100
AcDbSymbolTableRecord
100
AcDbDimStyleTableRecord
  2
STANDARD
 70
     0
  3

  4

  5

  6

  7

 40
1.0
 41
0.18
 42
0.0625
 43
0.38
 44
0.18
 45
0.0
 46
0.0
 47
0.0
 48
0.0
140
0.18
141
0.09
142
0.0
143
25.4
144
1.0
145
0.0
146
1.0
147
0.09
 71
     0
 72
     0
 73
     1
 74
     1
 75
     0
 76
     0
 77
     0
 78
     0
170
     0
171
     2
172
     0
173
     0
174
     0
175
     0
176
     0
177
     0
178
     0
270
     2
271
     4
272
     4
273
     2
274
     2
340
11
275
     0
280
     0
281
     0
282
     0
283
     1
284
     0
285
     0
286
     0
287
     3
288
     0
  0
DIMSTYLE
105
550
330
A
100
AcDbSymbolTableRecord
100
AcDbDimStyleTableRecord
  2
ADD$0
 70
     0
  3

  4

  5

  6

  7

 40
1.0
 41
0.7
 42
1.0
 43
7.0
 44
0.5
 45
0.0
 46
0.0
 47
0.0
 48
0.0
140
2.5
141
2.5
142
0.0
143
0.03937007874016
144
1.0
145
0.7
146
1.0
147
0.625
 71
     0
 72
     0
 73
     0
 74
     0
 75
     0
 76
     0
 77
     1
 78
     8
170
     0
171
     3
172
     1
173
     0
174
     1
175
     0
176
   144
177
   144
178
     7
270
     2
271
     1
272
     1
273
     2
274
     3
340
18E
275
     0
280
     0
281
     0
282
     0
283
     2
284
     8
285
     0
286
     0
287
     5
288
     0
  0
DIMSTYLE
105
59B
330
A
100
AcDbSymbolTableRecord
100
AcDbDimStyleTableRecord
  2
ADD_M
 70
     0
  3

  4

  5

  6

  7

 40
1.0
 41
2.5
 42
1.0
 43
7.0
 44
0.5
 45
0.0
 46
0.0
 47
0.0
 48
0.0
140
2.5
141
2.5
142
0.0
143
0.03937007874016
144
1.0
145
0.7
146
1.0
147
0.625
 71
     0
 72
     0
 73
     0
 74
     0
 75
     0
 76
     0
 77
     1
 78
     8
170
     0
171
     3
172
     1
173
     0
174
     1
175
     0
176
   144
177
   144
178
     7
270
     2
271
     1
272
     1
273
     2
274
     3
340
18E
275
     0
280
     0
281
     0
282
     0
283
     2
284
     8
285
     0
286
     0
287
     5
288
     0
  0
ENDTAB
  0
TABLE
  2
BLOCK_RECORD
  5
1
330
0
100
AcDbSymbolTable
 70
    21
  0
BLOCK_RECORD
  5
1F
102
{ACAD_XDICTIONARY
360
C9E
102
}
330
1
100
AcDbSymbolTableRecord
100
AcDbBlockTableRecord
  2
*MODEL_SPACE
  0
BLOCK_RECORD
  5
1B
102
{ACAD_XDICTIONARY
360
CA0
102
}
330
1
100
AcDbSymbolTableRecord
100
AcDbBlockTableRecord
  2
*PAPER_SPACE
  0
BLOCK_RECORD
  5
192
330
1
100
AcDbSymbolTableRecord
100
AcDbBlockTableRecord
  2
_DOT
  0
BLOCK_RECORD
  5
5CE
330
1
100
AcDbSymbolTableRecord
100
AcDbBlockTableRecord
  2
A4
  0
BLOCK_RECORD
  5
6A4
330
1
100
AcDbSymbolTableRecord
100
AcDbBlockTableRecord
  2
*D2
  0
BLOCK_RECORD
  5
72E
330
1
100
AcDbSymbolTableRecord
100
AcDbBlockTableRecord
  2
*D3
  0
BLOCK_RECORD
  5
768
330
1
100
AcDbSymbolTableRecord
100
AcDbBlockTableRecord
  2
*D4
  0
BLOCK_RECORD
  5
777
330
1
100
AcDbSymbolTableRecord
100
AcDbBlockTableRecord
  2
*D5
  0
BLOCK_RECORD
  5
87C
330
1
100
AcDbSymbolTableRecord
100
AcDbBlockTableRecord
  2
*D6
  0
BLOCK_RECORD
  5
88A
330
1
100
AcDbSymbolTableRecord
100
AcDbBlockTableRecord
  2
*D7
  0
BLOCK_RECORD
  5
AD6
330
1
100
AcDbSymbolTableRecord
100
AcDbBlockTableRecord
  2
*D8
  0
BLOCK_RECORD
  5
B6B
330
1
100
AcDbSymbolTableRecord
100
AcDbBlockTableRecord
  2
*D9
  0
BLOCK_RECORD
  5
B87
330
1
100
AcDbSymbolTableRecord
100
AcDbBlockTableRecord
  2
*D10
  0
BLOCK_RECORD
  5
B96
330
1
100
AcDbSymbolTableRecord
100
AcDbBlockTableRecord
  2
*D11
  0
BLOCK_RECORD
  5
BA3
330
1
100
AcDbSymbolTableRecord
100
AcDbBlockTableRecord
  2
*D12
  0
BLOCK_RECORD
  5
BC2
330
1
100
AcDbSymbolTableRecord
100
AcDbBlockTableRecord
  2
*D13
  0
BLOCK_RECORD
  5
BCF
330
1
100
AcDbSymbolTableRecord
100
AcDbBlockTableRecord
  2
*D14
  0
BLOCK_RECORD
  5
BDC
330
1
100
AcDbSymbolTableRecord
100
AcDbBlockTableRecord
  2
*D15
  0
BLOCK_RECORD
  5
BE9
330
1
100
AcDbSymbolTableRecord
100
AcDbBlockTableRecord
  2
*D16
  0
BLOCK_RECORD
  5
C1F
330
1
100
AcDbSymbolTableRecord
100
AcDbBlockTableRecord
  2
*D17
  0
BLOCK_RECORD
  5
C2C
330
1
100
AcDbSymbolTableRecord
100
AcDbBlockTableRecord
  2
*D18
  0
BLOCK_RECORD
  5
C3B
330
1
100
AcDbSymbolTableRecord
100
AcDbBlockTableRecord
  2
*D19
  0
BLOCK_RECORD
  5
C48
330
1
100
AcDbSymbolTableRecord
100
AcDbBlockTableRecord
  2
*D20
  0
ENDTAB
  0
ENDSEC
  0
SECTION
  2
BLOCKS
  0
BLOCK
  5
20
330
1F
100
AcDbEntity
  8
0
100
AcDbBlockBegin
  2
*MODEL_SPACE
 70
     0
 10
0.0
 20
0.0
 30
0.0
  3
*MODEL_SPACE
  1

  0
ENDBLK
  5
21
330
1F
100
AcDbEntity
  8
0
100
AcDbBlockEnd
  0
BLOCK
  5
1C
330
1B
100
AcDbEntity
 67
     1
  8
0
100
AcDbBlockBegin
  2
*PAPER_SPACE
 70
     0
 10
0.0
 20
0.0
 30
0.0
  3
*PAPER_SPACE
  1

  0
ENDBLK
  5
1D
330
1B
100
AcDbEntity
 67
     1
  8
0
100
AcDbBlockEnd
  0
BLOCK
  5
195
330
192
100
AcDbEntity
  8
0
100
AcDbBlockBegin
  2
_DOT
 70
     0
 10
0.0
 20
0.0
 30
0.0
  3
_DOT
  1

  0
POLYLINE
  5
193
330
192
100
AcDbEntity
  8
0
 62
     0
100
AcDb2dPolyline
 66
     1
 10
0.0
 20
0.0
 30
0.0
 70
     1
 40
0.5
 41
0.5
  0
VERTEX
  5
DC0
330
193
100
AcDbEntity
  8
0
 62
     0
100
AcDbVertex
100
AcDb2dVertex
 10
-0.25
 20
0.0
 30
0.0
 42
1.0
  0
VERTEX
  5
DC1
330
193
100
AcDbEntity
  8
0
 62
     0
100
AcDbVertex
100
AcDb2dVertex
 10
0.25
 20
0.0
 30
0.0
 42
1.0
  0
SEQEND
  5
DC2
330
193
100
AcDbEntity
  8
0
 62
     0
  0
LINE
  5
194
330
192
100
AcDbEntity
  8
0
 62
     0
100
AcDbLine
 10
-0.5
 20
0.0
 30
0.0
 11
-1.0
 21
0.0
 31
0.0
  0
ENDBLK
  5
196
330
192
100
AcDbEntity
  8
0
100
AcDbBlockEnd
  0
BLOCK
  5
5D1
330
5CE
100
AcDbEntity
  8
0
100
AcDbBlockBegin
  2
A4
 70
     0
 10
0.0
 20
0.0
 30
0.0
  3
A4
  1

  0
POLYLINE
  5
5CF
330
5CE
100
AcDbEntity
  8
HOJO
100
AcDb2dPolyline
 66
     1
 10
0.0
 20
0.0
 30
0.0
 70
     1
  0
VERTEX
  5
DC3
330
5CF
100
AcDbEntity
  8
HOJO
100
AcDbVertex
100
AcDb2dVertex
 10
0.0
 20
0.0
 30
0.0
  0
VERTEX
  5
DC4
330
5CF
100
AcDbEntity
  8
HOJO
100
AcDbVertex
100
AcDb2dVertex
 10
297.0
 20
0.0
 30
0.0
  0
VERTEX
  5
DC5
330
5CF
100
AcDbEntity
  8
HOJO
100
AcDbVertex
100
AcDb2dVertex
 10
297.0
 20
210.0
 30
0.0
  0
VERTEX
  5
DC6
330
5CF
100
AcDbEntity
  8
HOJO
100
AcDbVertex
100
AcDb2dVertex
 10
0.0
 20
210.0
 30
0.0
  0
SEQEND
  5
DC7
330
5CF
100
AcDbEntity
  8
HOJO
  0
POLYLINE
  5
5D0
330
5CE
100
AcDbEntity
  8
HOJO
100
AcDb2dPolyline
 66
     1
 10
0.0
 20
0.0
 30
0.0
 70
     1
  0
VERTEX
  5
DC8
330
5D0
100
AcDbEntity
  8
HOJO
100
AcDbVertex
100
AcDb2dVertex
 10
18.0
 20
13.0
 30
0.0
  0
VERTEX
  5
DC9
330
5D0
100
AcDbEntity
  8
HOJO
100
AcDbVertex
100
AcDb2dVertex
 10
279.0
 20
13.0
 30
0.0
  0
VERTEX
  5
DCA
330
5D0
100
AcDbEntity
  8
HOJO
100
AcDbVertex
100
AcDb2dVertex
 10
279.0
 20
197.0
 30
0.0
  0
VERTEX
  5
DCB
330
5D0
100
AcDbEntity
  8
HOJO
100
AcDbVertex
100
AcDb2dVertex
 10
18.0
 20
197.0
 30
0.0
  0
SEQEND
  5
DCC
330
5D0
100
AcDbEntity
  8
HOJO
  0
ENDBLK
  5
5D2
330
5CE
100
AcDbEntity
  8
0
100
AcDbBlockEnd
  0
BLOCK
  5
6AE
330
6A4
100
AcDbEntity
  8
0
100
AcDbBlockBegin
  2
*D2
 70
     1
 10
0.0
 20
0.0
 30
0.0
  3
*D2
  1

  0
LINE
  5
6A5
330
6A4
100
AcDbEntity
  8
SUNPO
 62
   144
100
AcDbLine
 10
1500.0
 20
1980.0
 30
0.0
 11
1500.0
 21
1755.768892288026
 31
0.0
  0
LINE
  5
6A6
330
6A4
100
AcDbEntity
  8
SUNPO
 62
   144
100
AcDbLine
 10
2070.0
 20
1980.0
 30
0.0
 11
2070.0
 21
1755.768892288026
 31
0.0
  0
LINE
  5
6A7
330
6A4
100
AcDbEntity
  8
SUNPO
 62
   144
100
AcDbLine
 10
1514.0
 20
1765.768892288026
 30
0.0
 11
2056.0
 21
1765.768892288026
 31
0.0
  0
SOLID
  5
6A8
330
6A4
100
AcDbEntity
  8
SUNPO
 62
   144
100
AcDbTrace
 10
1514.0
 20
1768.102225621359
 30
0.0
 11
1514.0
 21
1763.435558954692
 31
0.0
 12
1500.0
 22
1765.768892288026
 32
0.0
 13
1500.0
 23
1765.768892288026
 33
0.0
  0
SOLID
  5
6A9
330
6A4
100
AcDbEntity
  8
SUNPO
 62
   144
100
AcDbTrace
 10
2056.0
 20
1768.102225621359
 30
0.0
 11
2056.0
 21
1763.435558954692
 31
0.0
 12
2070.0
 22
1765.768892288026
 32
0.0
 13
2070.0
 23
1765.768892288026
 33
0.0
  0
MTEXT
  5
6AA
330
6A4
100
AcDbEntity
  8
SUNPO
 62
     7
100
AcDbMText
 10
1785.0
 20
1803.268892288026
 30
0.0
 40
50.0
 41
0.0
 71
     5
 72
     1
  1
\A2;570
  7
ADD
1001
ACAD
1000
MTEXTBEGIN
1070
    73
1070
     1
1070
    44
1040
1.0
1070
    74
1070
     0
1000
MTEXTEND
  0
POINT
  5
6AB
330
6A4
100
AcDbEntity
  8
DEFPOINTS
 62
     0
100
AcDbPoint
 10
1500.0
 20
2000.0
 30
0.0
  0
POINT
  5
6AC
330
6A4
100
AcDbEntity
  8
DEFPOINTS
 62
     0
100
AcDbPoint
 10
2070.0
 20
2000.0
 30
0.0
  0
POINT
  5
6AD
330
6A4
100
AcDbEntity
  8
DEFPOINTS
 62
     0
100
AcDbPoint
 10
2070.0
 20
1765.768892288026
 30
0.0
  0
ENDBLK
  5
6AF
330
6A4
100
AcDbEntity
  8
0
100
AcDbBlockEnd
  0
BLOCK
  5
73A
330
72E
100
AcDbEntity
  8
0
100
AcDbBlockBegin
  2
*D3
 70
     1
 10
0.0
 20
0.0
 30
0.0
  3
*D3
  1

  0
LINE
  5
72F
330
72E
100
AcDbEntity
  8
SUNPO
 62
   144
100
AcDbLine
 10
2090.0
 20
2143.0
 30
0.0
 11
2340.833796133149
 21
2143.0
 31
0.0
  0
LINE
  5
730
330
72E
100
AcDbEntity
  8
SUNPO
 62
   144
100
AcDbLine
 10
2090.0
 20
2000.0
 30
0.0
 11
2340.833796133149
 21
2000.0
 31
0.0
  0
LINE
  5
731
330
72E
100
AcDbEntity
  8
SUNPO
 62
   144
100
AcDbLine
 10
2330.833796133148
 20
2157.0
 30
0.0
 11
2330.833796133148
 21
2171.0
 31
0.0
  0
LINE
  5
732
330
72E
100
AcDbEntity
  8
SUNPO
 62
   144
100
AcDbLine
 10
2330.833796133148
 20
1986.0
 30
0.0
 11
2330.833796133148
 21
1972.0
 31
0.0
  0
LINE
  5
733
330
72E
100
AcDbEntity
  8
SUNPO
 62
   144
100
AcDbLine
 10
2330.833796133148
 20
2143.0
 30
0.0
 11
2330.833796133148
 21
2000.0
 31
0.0
  0
SOLID
  5
734
330
72E
100
AcDbEntity
  8
SUNPO
 62
   144
100
AcDbTrace
 10
2328.500462799815
 20
2157.0
 30
0.0
 11
2333.167129466482
 21
2157.0
 31
0.0
 12
2330.833796133148
 22
2143.0
 32
0.0
 13
2330.833796133148
 23
2143.0
 33
0.0
  0
SOLID
  5
735
330
72E
100
AcDbEntity
  8
SUNPO
 62
   144
100
AcDbTrace
 10
2328.500462799815
 20
1986.0
 30
0.0
 11
2333.167129466482
 21
1986.0
 31
0.0
 12
2330.833796133148
 22
2000.0
 32
0.0
 13
2330.833796133148
 23
2000.0
 33
0.0
  0
MTEXT
  5
736
330
72E
100
AcDbEntity
  8
SUNPO
 62
     7
100
AcDbMText
 10
2293.333796133148
 20
2071.5
 30
0.0
 40
50.0
 41
0.0
 71
     5
 72
     1
  1
\A2;143
  7
ADD
 11
0.0000000000000001
 21
1.0
 31
0.0
1001
ACAD
1000
MTEXTBEGIN
1070
    73
1070
     1
1070
    44
1040
1.0
1070
    74
1070
     0
1000
MTEXTEND
  0
POINT
  5
737
330
72E
100
AcDbEntity
  8
DEFPOINTS
 62
     0
100
AcDbPoint
 10
2070.0
 20
2143.0
 30
0.0
  0
POINT
  5
738
330
72E
100
AcDbEntity
  8
DEFPOINTS
 62
     0
100
AcDbPoint
 10
2070.0
 20
2000.0
 30
0.0
  0
POINT
  5
739
330
72E
100
AcDbEntity
  8
DEFPOINTS
 62
     0
100
AcDbPoint
 10
2330.833796133148
 20
2000.0
 30
0.0
  0
ENDBLK
  5
73B
330
72E
100
AcDbEntity
  8
0
100
AcDbBlockEnd
  0
BLOCK
  5
774
330
768
100
AcDbEntity
  8
0
100
AcDbBlockBegin
  2
*D4
 70
     1
 10
0.0
 20
0.0
 30
0.0
  3
*D4
  1

  0
LINE
  5
769
330
768
100
AcDbEntity
  8
SUNPO
 62
   144
100
AcDbLine
 10
5020.0
 20
2143.0
 30
0.0
 11
5324.120863089082
 21
2142.999999999999
 31
0.0
  0
LINE
  5
76A
330
768
100
AcDbEntity
  8
SUNPO
 62
   144
100
AcDbLine
 10
5020.0
 20
2000.0
 30
0.0
 11
5324.120863089081
 21
2000.0
 31
0.0
  0
LINE
  5
76B
330
768
100
AcDbEntity
  8
SUNPO
 62
   144
100
AcDbLine
 10
5314.120863089082
 20
2156.999999999999
 30
0.0
 11
5314.120863089082
 21
2170.999999999999
 31
0.0
  0
LINE
  5
76C
330
768
100
AcDbEntity
  8
SUNPO
 62
   144
100
AcDbLine
 10
5314.120863089081
 20
1986.0
 30
0.0
 11
5314.120863089081
 21
1972.0
 31
0.0
  0
LINE
  5
76D
330
768
100
AcDbEntity
  8
SUNPO
 62
   144
100
AcDbLine
 10
5314.120863089082
 20
2142.999999999999
 30
0.0
 11
5314.120863089081
 21
2000.0
 31
0.0
  0
SOLID
  5
76E
330
768
100
AcDbEntity
  8
SUNPO
 62
   144
100
AcDbTrace
 10
5311.78752975575
 20
2156.999999999999
 30
0.0
 11
5316.454196422416
 21
2156.999999999999
 31
0.0
 12
5314.120863089082
 22
2142.999999999999
 32
0.0
 13
5314.120863089082
 23
2142.999999999999
 33
0.0
  0
SOLID
  5
76F
330
768
100
AcDbEntity
  8
SUNPO
 62
   144
100
AcDbTrace
 10
5311.787529755748
 20
1986.0
 30
0.0
 11
5316.454196422415
 21
1986.0
 31
0.0
 12
5314.120863089081
 22
2000.0
 32
0.0
 13
5314.120863089081
 23
2000.0
 33
0.0
  0
MTEXT
  5
770
330
768
100
AcDbEntity
  8
SUNPO
 62
     7
100
AcDbMText
 10
5276.620863089082
 20
2071.5
 30
0.0
 40
50.0
 41
0.0
 71
     5
 72
     1
  1
\A2;143
  7
ADD
 11
0.0000000000000001
 21
1.0
 31
0.0
1001
ACAD
1000
MTEXTBEGIN
1070
    73
1070
     1
1070
    44
1040
1.0
1070
    74
1070
     0
1000
MTEXTEND
  0
POINT
  5
771
330
768
100
AcDbEntity
  8
DEFPOINTS
 62
     0
100
AcDbPoint
 10
5000.0
 20
2143.0
 30
0.0
  0
POINT
  5
772
330
768
100
AcDbEntity
  8
DEFPOINTS
 62
     0
100
AcDbPoint
 10
5000.0
 20
2000.0
 30
0.0
  0
POINT
  5
773
330
768
100
AcDbEntity
  8
DEFPOINTS
 62
     0
100
AcDbPoint
 10
5314.120863089081
 20
2000.0
 30
0.0
  0
ENDBLK
  5
775
330
768
100
AcDbEntity
  8
0
100
AcDbBlockEnd
  0
BLOCK
  5
781
330
777
100
AcDbEntity
  8
0
100
AcDbBlockBegin
  2
*D5
 70
     1
 10
0.0
 20
0.0
 30
0.0
  3
*D5
  1

  0
LINE
  5
778
330
777
100
AcDbEntity
  8
SUNPO
 62
   144
100
AcDbLine
 10
3000.0
 20
1980.0
 30
0.0
 11
3000.0
 21
1745.768892288026
 31
0.0
  0
LINE
  5
779
330
777
100
AcDbEntity
  8
SUNPO
 62
   144
100
AcDbLine
 10
5000.0
 20
1980.0
 30
0.0
 11
5000.0
 21
1745.768892288026
 31
0.0
  0
LINE
  5
77A
330
777
100
AcDbEntity
  8
SUNPO
 62
   144
100
AcDbLine
 10
3014.0
 20
1755.768892288026
 30
0.0
 11
4986.0
 21
1755.768892288026
 31
0.0
  0
SOLID
  5
77B
330
777
100
AcDbEntity
  8
SUNPO
 62
   144
100
AcDbTrace
 10
3014.0
 20
1758.102225621359
 30
0.0
 11
3014.0
 21
1753.435558954693
 31
0.0
 12
3000.0
 22
1755.768892288026
 32
0.0
 13
3000.0
 23
1755.768892288026
 33
0.0
  0
SOLID
  5
77C
330
777
100
AcDbEntity
  8
SUNPO
 62
   144
100
AcDbTrace
 10
4986.0
 20
1758.102225621359
 30
0.0
 11
4986.0
 21
1753.435558954693
 31
0.0
 12
5000.0
 22
1755.768892288026
 32
0.0
 13
5000.0
 23
1755.768892288026
 33
0.0
  0
MTEXT
  5
77D
330
777
100
AcDbEntity
  8
SUNPO
 62
     7
100
AcDbMText
 10
4000.0
 20
1793.268892288025
 30
0.0
 40
50.0
 41
0.0
 71
     5
 72
     1
  1
\A2;2000
  7
ADD
1001
ACAD
1000
MTEXTBEGIN
1070
    73
1070
     1
1070
    44
1040
1.0
1070
    74
1070
     0
1000
MTEXTEND
  0
POINT
  5
77E
330
777
100
AcDbEntity
  8
DEFPOINTS
 62
     0
100
AcDbPoint
 10
3000.0
 20
2000.0
 30
0.0
  0
POINT
  5
77F
330
777
100
AcDbEntity
  8
DEFPOINTS
 62
     0
100
AcDbPoint
 10
5000.0
 20
2000.0
 30
0.0
  0
POINT
  5
780
330
777
100
AcDbEntity
  8
DEFPOINTS
 62
     0
100
AcDbPoint
 10
5000.0
 20
1755.768892288026
 30
0.0
  0
ENDBLK
  5
782
330
777
100
AcDbEntity
  8
0
100
AcDbBlockEnd
  0
BLOCK
  5
883
330
87C
100
AcDbEntity
  8
0
100
AcDbBlockBegin
  2
*D6
 70
     1
 10
0.0
 20
0.0
 30
0.0
  3
*D6
  1

  0
LINE
  5
899
330
87C
100
AcDbEntity
  8
SUNPO
 62
   144
100
AcDbLine
 10
1851.89068691969
 20
2488.815115188717
 30
0.0
 11
1703.664139126047
 21
2349.279395533169
 31
0.0
  0
MTEXT
  5
89A
330
87C
100
AcDbEntity
  8
SUNPO
 62
     7
100
AcDbMText
 10
1770.276724920628
 20
2463.488111315716
 30
0.0
 40
50.0
 41
0.0
 71
     5
 72
     1
  1
\A2;R30
  7
ADD
 11
0.7281304102143823
 21
0.6854386228693532
 31
0.0
1001
ACAD
1000
MTEXTBEGIN
1070
    73
1070
     1
1070
    44
1040
1.0
1070
    74
1070
     0
1000
MTEXTEND
  0
LINE
  5
89B
330
87C
100
AcDbEntity
  8
SUNPO
 62
   144
100
AcDbLine
 10
1645.413706308898
 20
2294.444305703622
 30
0.0
 11
1667.257618615329
 21
2315.007464389702
 31
0.0
  0
SOLID
  5
89C
330
87C
100
AcDbEntity
  8
SUNPO
 62
   144
100
AcDbTrace
 10
1697.952150602136
 20
2355.347148951623
 30
0.0
 11
1709.376127649959
 21
2343.211642114716
 31
0.0
 12
1667.257618615329
 22
2315.007464389702
 32
0.0
 13
1667.257618615329
 23
2315.007464389702
 33
0.0
  0
POINT
  5
89D
330
87C
100
AcDbEntity
  8
DEFPOINTS
 62
     0
100
AcDbPoint
 10
1667.257618615329
 20
2315.007464389702
 30
0.0
  0
POINT
  5
89E
330
87C
100
AcDbEntity
  8
DEFPOINTS
 62
     0
100
AcDbPoint
 10
1645.413706308898
 20
2294.444305703622
 30
0.0
  0
ENDBLK
  5
884
330
87C
100
AcDbEntity
  8
0
100
AcDbBlockEnd
  0
BLOCK
  5
891
330
88A
100
AcDbEntity
  8
0
100
AcDbBlockBegin
  2
*D7
 70
     1
 10
0.0
 20
0.0
 30
0.0
  3
*D7
  1

  0
LINE
  5
C6F
330
88A
100
AcDbEntity
  8
SUNPO
 62
   144
100
AcDbLine
 10
1866.571962139886
 20
2321.279394981891
 30
0.0
 11
1735.687545899239
 21
2165.360838947155
 31
0.0
  0
MTEXT
  5
C70
330
88A
100
AcDbEntity
  8
SUNPO
 62
     7
100
AcDbMText
 10
1788.481439551489
 20
2286.578297013119
 30
0.0
 40
50.0
 41
0.0
 71
     5
 72
     1
  1
\A2;R20
  7
ADD
 11
0.6429409920593212
 21
0.7659157138548445
 31
0.0
1001
ACAD
1000
MTEXTBEGIN
1070
    73
1070
     1
1070
    44
1040
1.0
1070
    74
1070
     0
1000
MTEXTEND
  0
LINE
  5
C71
330
88A
100
AcDbEntity
  8
SUNPO
 62
   144
100
AcDbLine
 10
1690.681676455087
 20
2111.746738977316
 30
0.0
 11
1703.540496296273
 21
2127.065053254413
 31
0.0
  0
SOLID
  5
C72
330
88A
100
AcDbEntity
  8
SUNPO
 62
   144
100
AcDbTrace
 10
1729.304914950449
 20
2170.71868054765
 30
0.0
 11
1742.07017684803
 21
2160.002997346661
 31
0.0
 12
1703.540496296273
 22
2127.065053254413
 32
0.0
 13
1703.540496296273
 23
2127.065053254413
 33
0.0
  0
POINT
  5
C73
330
88A
100
AcDbEntity
  8
DEFPOINTS
 62
     0
100
AcDbPoint
 10
1703.540496296273
 20
2127.065053254413
 30
0.0
  0
POINT
  5
C74
330
88A
100
AcDbEntity
  8
DEFPOINTS
 62
     0
100
AcDbPoint
 10
1690.681676455087
 20
2111.746738977316
 30
0.0
  0
ENDBLK
  5
892
330
88A
100
AcDbEntity
  8
0
100
AcDbBlockEnd
  0
BLOCK
  5
AE2
330
AD6
100
AcDbEntity
  8
0
100
AcDbBlockBegin
  2
*D8
 70
     1
 10
0.0
 20
0.0
 30
0.0
  3
*D8
  1

  0
LINE
  5
B2A
330
AD6
100
AcDbEntity
  8
SUNPO
 62
   144
100
AcDbLine
 10
1740.0
 20
2120.0
 30
0.0
 11
1981.558700664838
 21
2120.0
 31
0.0
  0
LINE
  5
B2B
330
AD6
100
AcDbEntity
  8
SUNPO
 62
   144
100
AcDbLine
 10
1740.0
 20
2000.0
 30
0.0
 11
1981.558700664838
 21
2000.0
 31
0.0
  0
LINE
  5
B2C
330
AD6
100
AcDbEntity
  8
SUNPO
 62
   144
100
AcDbLine
 10
1971.558700664838
 20
2134.0
 30
0.0
 11
1971.558700664838
 21
2148.0
 31
0.0
  0
LINE
  5
B2D
330
AD6
100
AcDbEntity
  8
SUNPO
 62
   144
100
AcDbLine
 10
1971.558700664838
 20
1986.0
 30
0.0
 11
1971.558700664838
 21
1972.0
 31
0.0
  0
LINE
  5
B2E
330
AD6
100
AcDbEntity
  8
SUNPO
 62
   144
100
AcDbLine
 10
1971.558700664838
 20
2120.0
 30
0.0
 11
1971.558700664838
 21
2000.0
 31
0.0
  0
SOLID
  5
B2F
330
AD6
100
AcDbEntity
  8
SUNPO
 62
   144
100
AcDbTrace
 10
1969.225367331505
 20
2134.0
 30
0.0
 11
1973.892033998171
 21
2134.0
 31
0.0
 12
1971.558700664838
 22
2120.0
 32
0.0
 13
1971.558700664838
 23
2120.0
 33
0.0
  0
SOLID
  5
B30
330
AD6
100
AcDbEntity
  8
SUNPO
 62
   144
100
AcDbTrace
 10
1969.225367331505
 20
1986.0
 30
0.0
 11
1973.892033998171
 21
1986.0
 31
0.0
 12
1971.558700664838
 22
2000.0
 32
0.0
 13
1971.558700664838
 23
2000.0
 33
0.0
  0
MTEXT
  5
B31
330
AD6
100
AcDbEntity
  8
SUNPO
 62
     7
100
AcDbMText
 10
1934.058700664838
 20
2060.0
 30
0.0
 40
50.0
 41
0.0
 71
     5
 72
     1
  1
\A2;120
  7
ADD
 11
0.0000000000000001
 21
1.0
 31
0.0
1001
ACAD
1000
MTEXTBEGIN
1070
    73
1070
     1
1070
    44
1040
1.0
1070
    74
1070
     0
1000
MTEXTEND
  0
POINT
  5
B32
330
AD6
100
AcDbEntity
  8
DEFPOINTS
 62
     0
100
AcDbPoint
 10
1720.0
 20
2120.0
 30
0.0
  0
POINT
  5
B33
330
AD6
100
AcDbEntity
  8
DEFPOINTS
 62
     0
100
AcDbPoint
 10
1720.0
 20
2000.0
 30
0.0
  0
POINT
  5
B34
330
AD6
100
AcDbEntity
  8
DEFPOINTS
 62
     0
100
AcDbPoint
 10
1971.558700664838
 20
2000.0
 30
0.0
  0
ENDBLK
  5
AE3
330
AD6
100
AcDbEntity
  8
0
100
AcDbBlockEnd
  0
BLOCK
  5
B75
330
B6B
100
AcDbEntity
  8
0
100
AcDbBlockBegin
  2
*D9
 70
     1
 10
0.0
 20
0.0
 30
0.0
  3
*D9
  1

  0
LINE
  5
B6C
330
B6B
100
AcDbEntity
  8
SUNPO
 62
   144
100
AcDbLine
 10
1485.625
 20
2170.0
 30
0.0
 11
1304.063780026477
 21
2170.0
 31
0.0
  0
LINE
  5
B6D
330
B6B
100
AcDbEntity
  8
SUNPO
 62
   144
100
AcDbLine
 10
1529.314246843868
 20
2320.0
 30
0.0
 11
1304.063780026477
 21
2320.0
 31
0.0
  0
LINE
  5
B6E
330
B6B
100
AcDbEntity
  8
SUNPO
 62
   144
100
AcDbLine
 10
1314.063780026477
 20
2184.0
 30
0.0
 11
1314.063780026477
 21
2306.0
 31
0.0
  0
SOLID
  5
B6F
330
B6B
100
AcDbEntity
  8
SUNPO
 62
   144
100
AcDbTrace
 10
1311.730446693144
 20
2184.0
 30
0.0
 11
1316.39711335981
 21
2184.0
 31
0.0
 12
1314.063780026477
 22
2170.0
 32
0.0
 13
1314.063780026477
 23
2170.0
 33
0.0
  0
SOLID
  5
B70
330
B6B
100
AcDbEntity
  8
SUNPO
 62
   144
100
AcDbTrace
 10
1311.730446693144
 20
2306.0
 30
0.0
 11
1316.39711335981
 21
2306.0
 31
0.0
 12
1314.063780026477
 22
2320.0
 32
0.0
 13
1314.063780026477
 23
2320.0
 33
0.0
  0
MTEXT
  5
B71
330
B6B
100
AcDbEntity
  8
SUNPO
 62
     7
100
AcDbMText
 10
1276.563780026477
 20
2245.0
 30
0.0
 40
50.0
 41
0.0
 71
     5
 72
     1
  1
\A2;150
  7
ADD
 11
0.0000000000000001
 21
1.0
 31
0.0
1001
ACAD
1000
MTEXTBEGIN
1070
    73
1070
     1
1070
    44
1040
1.0
1070
    74
1070
     0
1000
MTEXTEND
  0
POINT
  5
B72
330
B6B
100
AcDbEntity
  8
DEFPOINTS
 62
     0
100
AcDbPoint
 10
1505.625
 20
2170.0
 30
0.0
  0
POINT
  5
B73
330
B6B
100
AcDbEntity
  8
DEFPOINTS
 62
     0
100
AcDbPoint
 10
1549.314246843868
 20
2320.0
 30
0.0
  0
POINT
  5
B74
330
B6B
100
AcDbEntity
  8
DEFPOINTS
 62
     0
100
AcDbPoint
 10
1314.063780026477
 20
2320.0
 30
0.0
  0
ENDBLK
  5
B76
330
B6B
100
AcDbEntity
  8
0
100
AcDbBlockEnd
  0
BLOCK
  5
B93
330
B87
100
AcDbEntity
  8
0
100
AcDbBlockBegin
  2
*D10
 70
     1
 10
0.0
 20
0.0
 30
0.0
  3
*D10
  1

  0
LINE
  5
B88
330
B87
100
AcDbEntity
  8
SUNPO
 62
   144
100
AcDbLine
 10
1480.0
 20
2000.0
 30
0.0
 11
1135.08763370111
 21
2000.0
 31
0.0
  0
LINE
  5
B89
330
B87
100
AcDbEntity
  8
SUNPO
 62
   144
100
AcDbLine
 10
1480.0
 20
2120.0
 30
0.0
 11
1135.08763370111
 21
2120.0
 31
0.0
  0
LINE
  5
B8A
330
B87
100
AcDbEntity
  8
SUNPO
 62
   144
100
AcDbLine
 10
1145.08763370111
 20
1986.0
 30
0.0
 11
1145.08763370111
 21
1972.0
 31
0.0
  0
LINE
  5
B8B
330
B87
100
AcDbEntity
  8
SUNPO
 62
   144
100
AcDbLine
 10
1145.08763370111
 20
2134.0
 30
0.0
 11
1145.08763370111
 21
2148.0
 31
0.0
  0
LINE
  5
B8C
330
B87
100
AcDbEntity
  8
SUNPO
 62
   144
100
AcDbLine
 10
1145.08763370111
 20
2000.0
 30
0.0
 11
1145.08763370111
 21
2120.0
 31
0.0
  0
SOLID
  5
B8D
330
B87
100
AcDbEntity
  8
SUNPO
 62
   144
100
AcDbTrace
 10
1142.754300367777
 20
1986.0
 30
0.0
 11
1147.420967034443
 21
1986.0
 31
0.0
 12
1145.08763370111
 22
2000.0
 32
0.0
 13
1145.08763370111
 23
2000.0
 33
0.0
  0
SOLID
  5
B8E
330
B87
100
AcDbEntity
  8
SUNPO
 62
   144
100
AcDbTrace
 10
1142.754300367777
 20
2134.0
 30
0.0
 11
1147.420967034443
 21
2134.0
 31
0.0
 12
1145.08763370111
 22
2120.0
 32
0.0
 13
1145.08763370111
 23
2120.0
 33
0.0
  0
MTEXT
  5
B8F
330
B87
100
AcDbEntity
  8
SUNPO
 62
     7
100
AcDbMText
 10
1107.58763370111
 20
2060.0
 30
0.0
 40
50.0
 41
0.0
 71
     5
 72
     1
  1
\A2;120
  7
ADD
 11
0.0000000000000001
 21
1.0
 31
0.0
1001
ACAD
1000
MTEXTBEGIN
1070
    73
1070
     1
1070
    44
1040
1.0
1070
    74
1070
     0
1000
MTEXTEND
  0
POINT
  5
B90
330
B87
100
AcDbEntity
  8
DEFPOINTS
 62
     0
100
AcDbPoint
 10
1500.0
 20
2000.0
 30
0.0
  0
POINT
  5
B91
330
B87
100
AcDbEntity
  8
DEFPOINTS
 62
     0
100
AcDbPoint
 10
1500.0
 20
2120.0
 30
0.0
  0
POINT
  5
B92
330
B87
100
AcDbEntity
  8
DEFPOINTS
 62
     0
100
AcDbPoint
 10
1145.08763370111
 20
2120.0
 30
0.0
  0
ENDBLK
  5
B94
330
B87
100
AcDbEntity
  8
0
100
AcDbBlockEnd
  0
BLOCK
  5
BA0
330
B96
100
AcDbEntity
  8
0
100
AcDbBlockBegin
  2
*D11
 70
     1
 10
0.0
 20
0.0
 30
0.0
  3
*D11
  1

  0
LINE
  5
B97
330
B96
100
AcDbEntity
  8
SUNPO
 62
   144
100
AcDbLine
 10
1480.0
 20
2120.0
 30
0.0
 11
1135.08763370111
 21
2120.0
 31
0.0
  0
LINE
  5
B98
330
B96
100
AcDbEntity
  8
SUNPO
 62
   144
100
AcDbLine
 10
1529.314246843868
 20
2320.0
 30
0.0
 11
1135.08763370111
 21
2320.0
 31
0.0
  0
LINE
  5
B99
330
B96
100
AcDbEntity
  8
SUNPO
 62
   144
100
AcDbLine
 10
1145.08763370111
 20
2134.0
 30
0.0
 11
1145.08763370111
 21
2306.0
 31
0.0
  0
SOLID
  5
B9A
330
B96
100
AcDbEntity
  8
SUNPO
 62
   144
100
AcDbTrace
 10
1142.754300367777
 20
2134.0
 30
0.0
 11
1147.420967034443
 21
2134.0
 31
0.0
 12
1145.08763370111
 22
2120.0
 32
0.0
 13
1145.08763370111
 23
2120.0
 33
0.0
  0
SOLID
  5
B9B
330
B96
100
AcDbEntity
  8
SUNPO
 62
   144
100
AcDbTrace
 10
1142.754300367777
 20
2306.0
 30
0.0
 11
1147.420967034443
 21
2306.0
 31
0.0
 12
1145.08763370111
 22
2320.0
 32
0.0
 13
1145.08763370111
 23
2320.0
 33
0.0
  0
MTEXT
  5
B9C
330
B96
100
AcDbEntity
  8
SUNPO
 62
     7
100
AcDbMText
 10
1107.58763370111
 20
2220.0
 30
0.0
 40
50.0
 41
0.0
 71
     5
 72
     1
  1
\A2;200
  7
ADD
 11
0.0000000000000001
 21
1.0
 31
0.0
1001
ACAD
1000
MTEXTBEGIN
1070
    73
1070
     1
1070
    44
1040
1.0
1070
    74
1070
     0
1000
MTEXTEND
  0
POINT
  5
B9D
330
B96
100
AcDbEntity
  8
DEFPOINTS
 62
     0
100
AcDbPoint
 10
1500.0
 20
2120.0
 30
0.0
  0
POINT
  5
B9E
330
B96
100
AcDbEntity
  8
DEFPOINTS
 62
     0
100
AcDbPoint
 10
1549.314246843868
 20
2320.0
 30
0.0
  0
POINT
  5
B9F
330
B96
100
AcDbEntity
  8
DEFPOINTS
 62
     0
100
AcDbPoint
 10
1145.08763370111
 20
2320.0
 30
0.0
  0
ENDBLK
  5
BA1
330
B96
100
AcDbEntity
  8
0
100
AcDbBlockEnd
  0
BLOCK
  5
BAD
330
BA3
100
AcDbEntity
  8
0
100
AcDbBlockBegin
  2
*D12
 70
     1
 10
0.0
 20
0.0
 30
0.0
  3
*D12
  1

  0
LINE
  5
BA4
330
BA3
100
AcDbEntity
  8
SUNPO
 62
   144
100
AcDbLine
 10
1480.0
 20
2000.0
 30
0.0
 11
954.7399048420956
 21
2000.0
 31
0.0
  0
LINE
  5
BA5
330
BA3
100
AcDbEntity
  8
SUNPO
 62
   144
100
AcDbLine
 10
1529.314246843868
 20
2320.0
 30
0.0
 11
954.7399048420958
 21
2320.0
 31
0.0
  0
LINE
  5
BA6
330
BA3
100
AcDbEntity
  8
SUNPO
 62
   144
100
AcDbLine
 10
964.7399048420957
 20
2014.0
 30
0.0
 11
964.7399048420957
 21
2306.0
 31
0.0
  0
SOLID
  5
BA7
330
BA3
100
AcDbEntity
  8
SUNPO
 62
   144
100
AcDbTrace
 10
962.4065715087622
 20
2014.0
 30
0.0
 11
967.0732381754291
 21
2014.0
 31
0.0
 12
964.7399048420957
 22
2000.0
 32
0.0
 13
964.7399048420957
 23
2000.0
 33
0.0
  0
SOLID
  5
BA8
330
BA3
100
AcDbEntity
  8
SUNPO
 62
   144
100
AcDbTrace
 10
962.4065715087624
 20
2306.0
 30
0.0
 11
967.0732381754291
 21
2306.0
 31
0.0
 12
964.7399048420957
 22
2320.0
 32
0.0
 13
964.7399048420957
 23
2320.0
 33
0.0
  0
MTEXT
  5
BA9
330
BA3
100
AcDbEntity
  8
SUNPO
 62
     7
100
AcDbMText
 10
927.2399048420954
 20
2160.0
 30
0.0
 40
50.0
 41
0.0
 71
     5
 72
     1
  1
\A2;320
  7
ADD
 11
0.0000000000000001
 21
1.0
 31
0.0
1001
ACAD
1000
MTEXTBEGIN
1070
    73
1070
     1
1070
    44
1040
1.0
1070
    74
1070
     0
1000
MTEXTEND
  0
POINT
  5
BAA
330
BA3
100
AcDbEntity
  8
DEFPOINTS
 62
     0
100
AcDbPoint
 10
1500.0
 20
2000.0
 30
0.0
  0
POINT
  5
BAB
330
BA3
100
AcDbEntity
  8
DEFPOINTS
 62
     0
100
AcDbPoint
 10
1549.314246843868
 20
2320.0
 30
0.0
  0
POINT
  5
BAC
330
BA3
100
AcDbEntity
  8
DEFPOINTS
 62
     0
100
AcDbPoint
 10
964.7399048420957
 20
2320.0
 30
0.0
  0
ENDBLK
  5
BAE
330
BA3
100
AcDbEntity
  8
0
100
AcDbBlockEnd
  0
BLOCK
  5
BCC
330
BC2
100
AcDbEntity
  8
0
100
AcDbBlockBegin
  2
*D13
 70
     1
 10
0.0
 20
0.0
 30
0.0
  3
*D13
  1

  0
LINE
  5
BC3
330
BC2
100
AcDbEntity
  8
SUNPO
 62
   144
100
AcDbLine
 10
3000.0
 20
2190.0
 30
0.0
 11
3000.0
 21
2639.007651295762
 31
0.0
  0
LINE
  5
BC4
330
BC2
100
AcDbEntity
  8
SUNPO
 62
   144
100
AcDbLine
 10
3600.0
 20
2340.0
 30
0.0
 11
3600.0
 21
2639.007651295762
 31
0.0
  0
LINE
  5
BC5
330
BC2
100
AcDbEntity
  8
SUNPO
 62
   144
100
AcDbLine
 10
3014.0
 20
2629.007651295762
 30
0.0
 11
3586.0
 21
2629.007651295762
 31
0.0
  0
SOLID
  5
BC6
330
BC2
100
AcDbEntity
  8
SUNPO
 62
   144
100
AcDbTrace
 10
3014.0
 20
2631.340984629095
 30
0.0
 11
3014.0
 21
2626.674317962428
 31
0.0
 12
3000.0
 22
2629.007651295762
 32
0.0
 13
3000.0
 23
2629.007651295762
 33
0.0
  0
SOLID
  5
BC7
330
BC2
100
AcDbEntity
  8
SUNPO
 62
   144
100
AcDbTrace
 10
3586.0
 20
2631.340984629095
 30
0.0
 11
3586.0
 21
2626.674317962428
 31
0.0
 12
3600.0
 22
2629.007651295762
 32
0.0
 13
3600.0
 23
2629.007651295762
 33
0.0
  0
MTEXT
  5
BC8
330
BC2
100
AcDbEntity
  8
SUNPO
 62
     7
100
AcDbMText
 10
3300.0
 20
2666.507651295762
 30
0.0
 40
50.0
 41
0.0
 71
     5
 72
     1
  1
\A2;600
  7
ADD
1001
ACAD
1000
MTEXTBEGIN
1070
    73
1070
     1
1070
    44
1040
1.0
1070
    74
1070
     0
1000
MTEXTEND
  0
POINT
  5
BC9
330
BC2
100
AcDbEntity
  8
DEFPOINTS
 62
     0
100
AcDbPoint
 10
3000.0
 20
2170.0
 30
0.0
  0
POINT
  5
BCA
330
BC2
100
AcDbEntity
  8
DEFPOINTS
 62
     0
100
AcDbPoint
 10
3600.0
 20
2320.0
 30
0.0
  0
POINT
  5
BCB
330
BC2
100
AcDbEntity
  8
DEFPOINTS
 62
     0
100
AcDbPoint
 10
3600.0
 20
2629.007651295762
 30
0.0
  0
ENDBLK
  5
BCD
330
BC2
100
AcDbEntity
  8
0
100
AcDbBlockEnd
  0
BLOCK
  5
BD9
330
BCF
100
AcDbEntity
  8
0
100
AcDbBlockBegin
  2
*D14
 70
     1
 10
0.0
 20
0.0
 30
0.0
  3
*D14
  1

  0
LINE
  5
BD0
330
BCF
100
AcDbEntity
  8
SUNPO
 62
   144
100
AcDbLine
 10
3600.0
 20
2340.0
 30
0.0
 11
3600.0
 21
2639.007651295762
 31
0.0
  0
LINE
  5
BD1
330
BCF
100
AcDbEntity
  8
SUNPO
 62
   144
100
AcDbLine
 10
5000.0
 20
2340.0
 30
0.0
 11
5000.0
 21
2639.007651295762
 31
0.0
  0
LINE
  5
BD2
330
BCF
100
AcDbEntity
  8
SUNPO
 62
   144
100
AcDbLine
 10
3614.0
 20
2629.007651295762
 30
0.0
 11
4986.0
 21
2629.007651295762
 31
0.0
  0
SOLID
  5
BD3
330
BCF
100
AcDbEntity
  8
SUNPO
 62
   144
100
AcDbTrace
 10
3614.0
 20
2631.340984629095
 30
0.0
 11
3614.0
 21
2626.674317962428
 31
0.0
 12
3600.0
 22
2629.007651295762
 32
0.0
 13
3600.0
 23
2629.007651295762
 33
0.0
  0
SOLID
  5
BD4
330
BCF
100
AcDbEntity
  8
SUNPO
 62
   144
100
AcDbTrace
 10
4986.0
 20
2631.340984629095
 30
0.0
 11
4986.0
 21
2626.674317962428
 31
0.0
 12
5000.0
 22
2629.007651295762
 32
0.0
 13
5000.0
 23
2629.007651295762
 33
0.0
  0
MTEXT
  5
BD5
330
BCF
100
AcDbEntity
  8
SUNPO
 62
     7
100
AcDbMText
 10
4300.0
 20
2666.507651295762
 30
0.0
 40
50.0
 41
0.0
 71
     5
 72
     1
  1
\A2;1400
  7
ADD
1001
ACAD
1000
MTEXTBEGIN
1070
    73
1070
     1
1070
    44
1040
1.0
1070
    74
1070
     0
1000
MTEXTEND
  0
POINT
  5
BD6
330
BCF
100
AcDbEntity
  8
DEFPOINTS
 62
     0
100
AcDbPoint
 10
3600.0
 20
2320.0
 30
0.0
  0
POINT
  5
BD7
330
BCF
100
AcDbEntity
  8
DEFPOINTS
 62
     0
100
AcDbPoint
 10
5000.0
 20
2320.0
 30
0.0
  0
POINT
  5
BD8
330
BCF
100
AcDbEntity
  8
DEFPOINTS
 62
     0
100
AcDbPoint
 10
5000.0
 20
2629.007651295762
 30
0.0
  0
ENDBLK
  5
BDA
330
BCF
100
AcDbEntity
  8
0
100
AcDbBlockEnd
  0
BLOCK
  5
BE6
330
BDC
100
AcDbEntity
  8
0
100
AcDbBlockBegin
  2
*D15
 70
     1
 10
0.0
 20
0.0
 30
0.0
  3
*D15
  1

  0
LINE
  5
BDD
330
BDC
100
AcDbEntity
  8
SUNPO
 62
   144
100
AcDbLine
 10
3000.0
 20
2190.0
 30
0.0
 11
3000.0
 21
2835.715695626319
 31
0.0
  0
LINE
  5
BDE
330
BDC
100
AcDbEntity
  8
SUNPO
 62
   144
100
AcDbLine
 10
5000.0
 20
2340.0
 30
0.0
 11
5000.0
 21
2835.715695626319
 31
0.0
  0
LINE
  5
BDF
330
BDC
100
AcDbEntity
  8
SUNPO
 62
   144
100
AcDbLine
 10
3014.0
 20
2825.715695626318
 30
0.0
 11
4986.0
 21
2825.715695626318
 31
0.0
  0
SOLID
  5
BE0
330
BDC
100
AcDbEntity
  8
SUNPO
 62
   144
100
AcDbTrace
 10
3014.0
 20
2828.049028959652
 30
0.0
 11
3014.0
 21
2823.382362292985
 31
0.0
 12
3000.0
 22
2825.715695626318
 32
0.0
 13
3000.0
 23
2825.715695626318
 33
0.0
  0
SOLID
  5
BE1
330
BDC
100
AcDbEntity
  8
SUNPO
 62
   144
100
AcDbTrace
 10
4986.0
 20
2828.049028959652
 30
0.0
 11
4986.0
 21
2823.382362292985
 31
0.0
 12
5000.0
 22
2825.715695626318
 32
0.0
 13
5000.0
 23
2825.715695626318
 33
0.0
  0
MTEXT
  5
BE2
330
BDC
100
AcDbEntity
  8
SUNPO
 62
     7
100
AcDbMText
 10
4000.0
 20
2863.215695626319
 30
0.0
 40
50.0
 41
0.0
 71
     5
 72
     1
  1
\A2;2000
  7
ADD
1001
ACAD
1000
MTEXTBEGIN
1070
    73
1070
     1
1070
    44
1040
1.0
1070
    74
1070
     0
1000
MTEXTEND
  0
POINT
  5
BE3
330
BDC
100
AcDbEntity
  8
DEFPOINTS
 62
     0
100
AcDbPoint
 10
3000.0
 20
2170.0
 30
0.0
  0
POINT
  5
BE4
330
BDC
100
AcDbEntity
  8
DEFPOINTS
 62
     0
100
AcDbPoint
 10
5000.0
 20
2320.0
 30
0.0
  0
POINT
  5
BE5
330
BDC
100
AcDbEntity
  8
DEFPOINTS
 62
     0
100
AcDbPoint
 10
5000.0
 20
2825.715695626318
 30
0.0
  0
ENDBLK
  5
BE7
330
BDC
100
AcDbEntity
  8
0
100
AcDbBlockEnd
  0
BLOCK
  5
BF5
330
BE9
100
AcDbEntity
  8
0
100
AcDbBlockBegin
  2
*D16
 70
     1
 10
0.0
 20
0.0
 30
0.0
  3
*D16
  1

  0
LINE
  5
BEA
330
BE9
100
AcDbEntity
  8
SUNPO
 62
   144
100
AcDbLine
 10
3577.305592877659
 20
2000.0
 30
0.0
 11
3615.066393538232
 21
1999.999999999999
 31
0.0
  0
LINE
  5
BEB
330
BE9
100
AcDbEntity
  8
SUNPO
 62
   144
100
AcDbLine
 10
3577.305592877659
 20
2120.0
 30
0.0
 11
3615.066393538232
 21
2120.0
 31
0.0
  0
LINE
  5
BEC
330
BE9
100
AcDbEntity
  8
SUNPO
 62
   144
100
AcDbLine
 10
3605.066393538232
 20
1985.999999999999
 30
0.0
 11
3605.066393538232
 21
1971.999999999999
 31
0.0
  0
LINE
  5
BED
330
BE9
100
AcDbEntity
  8
SUNPO
 62
   144
100
AcDbLine
 10
3605.066393538232
 20
2134.0
 30
0.0
 11
3605.066393538232
 21
2148.0
 31
0.0
  0
LINE
  5
BEE
330
BE9
100
AcDbEntity
  8
SUNPO
 62
   144
100
AcDbLine
 10
3605.066393538232
 20
1999.999999999999
 30
0.0
 11
3605.066393538232
 21
2120.0
 31
0.0
  0
SOLID
  5
BEF
330
BE9
100
AcDbEntity
  8
SUNPO
 62
   144
100
AcDbTrace
 10
3602.733060204899
 20
1985.999999999999
 30
0.0
 11
3607.399726871566
 21
1985.999999999999
 31
0.0
 12
3605.066393538232
 22
1999.999999999999
 32
0.0
 13
3605.066393538232
 23
1999.999999999999
 33
0.0
  0
SOLID
  5
BF0
330
BE9
100
AcDbEntity
  8
SUNPO
 62
   144
100
AcDbTrace
 10
3602.733060204899
 20
2134.0
 30
0.0
 11
3607.399726871566
 21
2134.0
 31
0.0
 12
3605.066393538232
 22
2120.0
 32
0.0
 13
3605.066393538232
 23
2120.0
 33
0.0
  0
MTEXT
  5
BF1
330
BE9
100
AcDbEntity
  8
SUNPO
 62
     7
100
AcDbMText
 10
3567.566393538232
 20
2060.0
 30
0.0
 40
50.0
 41
0.0
 71
     5
 72
     1
  1
\A2;120
  7
ADD
 11
0.0000000000000001
 21
1.0
 31
0.0
1001
ACAD
1000
MTEXTBEGIN
1070
    73
1070
     1
1070
    44
1040
1.0
1070
    74
1070
     0
1000
MTEXTEND
  0
POINT
  5
BF2
330
BE9
100
AcDbEntity
  8
DEFPOINTS
 62
     0
100
AcDbPoint
 10
3557.305592877659
 20
2000.0
 30
0.0
  0
POINT
  5
BF3
330
BE9
100
AcDbEntity
  8
DEFPOINTS
 62
     0
100
AcDbPoint
 10
3557.305592877659
 20
2120.0
 30
0.0
  0
POINT
  5
BF4
330
BE9
100
AcDbEntity
  8
DEFPOINTS
 62
     0
100
AcDbPoint
 10
3605.066393538232
 20
2120.0
 30
0.0
  0
ENDBLK
  5
BF6
330
BE9
100
AcDbEntity
  8
0
100
AcDbBlockEnd
  0
BLOCK
  5
C29
330
C1F
100
AcDbEntity
  8
0
100
AcDbBlockBegin
  2
*D17
 70
     1
 10
0.0
 20
0.0
 30
0.0
  3
*D17
  1

  0
LINE
  5
C20
330
C1F
100
AcDbEntity
  8
SUNPO
 62
   144
100
AcDbLine
 10
2980.0
 20
2170.0
 30
0.0
 11
2877.048983531862
 21
2170.0
 31
0.0
  0
LINE
  5
C21
330
C1F
100
AcDbEntity
  8
SUNPO
 62
   144
100
AcDbLine
 10
3580.0
 20
2320.0
 30
0.0
 11
2877.048983531862
 21
2320.0
 31
0.0
  0
LINE
  5
C22
330
C1F
100
AcDbEntity
  8
SUNPO
 62
   144
100
AcDbLine
 10
2887.048983531862
 20
2184.0
 30
0.0
 11
2887.048983531862
 21
2306.0
 31
0.0
  0
SOLID
  5
C23
330
C1F
100
AcDbEntity
  8
SUNPO
 62
   144
100
AcDbTrace
 10
2884.715650198529
 20
2184.0
 30
0.0
 11
2889.382316865195
 21
2184.0
 31
0.0
 12
2887.048983531862
 22
2170.0
 32
0.0
 13
2887.048983531862
 23
2170.0
 33
0.0
  0
SOLID
  5
C24
330
C1F
100
AcDbEntity
  8
SUNPO
 62
   144
100
AcDbTrace
 10
2884.715650198529
 20
2306.0
 30
0.0
 11
2889.382316865195
 21
2306.0
 31
0.0
 12
2887.048983531862
 22
2320.0
 32
0.0
 13
2887.048983531862
 23
2320.0
 33
0.0
  0
MTEXT
  5
C25
330
C1F
100
AcDbEntity
  8
SUNPO
 62
     7
100
AcDbMText
 10
2849.548983531862
 20
2245.0
 30
0.0
 40
50.0
 41
0.0
 71
     5
 72
     1
  1
\A2;150
  7
ADD
 11
0.0000000000000001
 21
1.0
 31
0.0
1001
ACAD
1000
MTEXTBEGIN
1070
    73
1070
     1
1070
    44
1040
1.0
1070
    74
1070
     0
1000
MTEXTEND
  0
POINT
  5
C26
330
C1F
100
AcDbEntity
  8
DEFPOINTS
 62
     0
100
AcDbPoint
 10
3000.0
 20
2170.0
 30
0.0
  0
POINT
  5
C27
330
C1F
100
AcDbEntity
  8
DEFPOINTS
 62
     0
100
AcDbPoint
 10
3600.0
 20
2320.0
 30
0.0
  0
POINT
  5
C28
330
C1F
100
AcDbEntity
  8
DEFPOINTS
 62
     0
100
AcDbPoint
 10
2887.048983531862
 20
2320.0
 30
0.0
  0
ENDBLK
  5
C2A
330
C1F
100
AcDbEntity
  8
0
100
AcDbBlockEnd
  0
BLOCK
  5
C38
330
C2C
100
AcDbEntity
  8
0
100
AcDbBlockBegin
  2
*D18
 70
     1
 10
0.0
 20
0.0
 30
0.0
  3
*D18
  1

  0
LINE
  5
C2D
330
C2C
100
AcDbEntity
  8
SUNPO
 62
   144
100
AcDbLine
 10
2980.0
 20
2000.0
 30
0.0
 11
2741.780472492493
 21
2000.0
 31
0.0
  0
LINE
  5
C2E
330
C2C
100
AcDbEntity
  8
SUNPO
 62
   144
100
AcDbLine
 10
2980.0
 20
2120.0
 30
0.0
 11
2741.780472492493
 21
2120.0
 31
0.0
  0
LINE
  5
C2F
330
C2C
100
AcDbEntity
  8
SUNPO
 62
   144
100
AcDbLine
 10
2751.780472492493
 20
1986.0
 30
0.0
 11
2751.780472492493
 21
1972.0
 31
0.0
  0
LINE
  5
C30
330
C2C
100
AcDbEntity
  8
SUNPO
 62
   144
100
AcDbLine
 10
2751.780472492493
 20
2134.0
 30
0.0
 11
2751.780472492493
 21
2148.0
 31
0.0
  0
LINE
  5
C31
330
C2C
100
AcDbEntity
  8
SUNPO
 62
   144
100
AcDbLine
 10
2751.780472492493
 20
2000.0
 30
0.0
 11
2751.780472492493
 21
2120.0
 31
0.0
  0
SOLID
  5
C32
330
C2C
100
AcDbEntity
  8
SUNPO
 62
   144
100
AcDbTrace
 10
2749.44713915916
 20
1986.0
 30
0.0
 11
2754.113805825827
 21
1986.0
 31
0.0
 12
2751.780472492493
 22
2000.0
 32
0.0
 13
2751.780472492493
 23
2000.0
 33
0.0
  0
SOLID
  5
C33
330
C2C
100
AcDbEntity
  8
SUNPO
 62
   144
100
AcDbTrace
 10
2749.44713915916
 20
2134.0
 30
0.0
 11
2754.113805825827
 21
2134.0
 31
0.0
 12
2751.780472492493
 22
2120.0
 32
0.0
 13
2751.780472492493
 23
2120.0
 33
0.0
  0
MTEXT
  5
C34
330
C2C
100
AcDbEntity
  8
SUNPO
 62
     7
100
AcDbMText
 10
2714.280472492493
 20
2060.0
 30
0.0
 40
50.0
 41
0.0
 71
     5
 72
     1
  1
\A2;120
  7
ADD
 11
0.0000000000000001
 21
1.0
 31
0.0
1001
ACAD
1000
MTEXTBEGIN
1070
    73
1070
     1
1070
    44
1040
1.0
1070
    74
1070
     0
1000
MTEXTEND
  0
POINT
  5
C35
330
C2C
100
AcDbEntity
  8
DEFPOINTS
 62
     0
100
AcDbPoint
 10
3000.0
 20
2000.0
 30
0.0
  0
POINT
  5
C36
330
C2C
100
AcDbEntity
  8
DEFPOINTS
 62
     0
100
AcDbPoint
 10
3000.0
 20
2120.0
 30
0.0
  0
POINT
  5
C37
330
C2C
100
AcDbEntity
  8
DEFPOINTS
 62
     0
100
AcDbPoint
 10
2751.780472492493
 20
2120.0
 30
0.0
  0
ENDBLK
  5
C39
330
C2C
100
AcDbEntity
  8
0
100
AcDbBlockEnd
  0
BLOCK
  5
C45
330
C3B
100
AcDbEntity
  8
0
100
AcDbBlockBegin
  2
*D19
 70
     1
 10
0.0
 20
0.0
 30
0.0
  3
*D19
  1

  0
LINE
  5
C3C
330
C3B
100
AcDbEntity
  8
SUNPO
 62
   144
100
AcDbLine
 10
2980.0
 20
2120.0
 30
0.0
 11
2741.780472492493
 21
2120.0
 31
0.0
  0
LINE
  5
C3D
330
C3B
100
AcDbEntity
  8
SUNPO
 62
   144
100
AcDbLine
 10
3580.0
 20
2320.0
 30
0.0
 11
2741.780472492493
 21
2320.0
 31
0.0
  0
LINE
  5
C3E
330
C3B
100
AcDbEntity
  8
SUNPO
 62
   144
100
AcDbLine
 10
2751.780472492493
 20
2134.0
 30
0.0
 11
2751.780472492493
 21
2306.0
 31
0.0
  0
SOLID
  5
C3F
330
C3B
100
AcDbEntity
  8
SUNPO
 62
   144
100
AcDbTrace
 10
2749.44713915916
 20
2134.0
 30
0.0
 11
2754.113805825827
 21
2134.0
 31
0.0
 12
2751.780472492493
 22
2120.0
 32
0.0
 13
2751.780472492493
 23
2120.0
 33
0.0
  0
SOLID
  5
C40
330
C3B
100
AcDbEntity
  8
SUNPO
 62
   144
100
AcDbTrace
 10
2749.44713915916
 20
2306.0
 30
0.0
 11
2754.113805825827
 21
2306.0
 31
0.0
 12
2751.780472492493
 22
2320.0
 32
0.0
 13
2751.780472492493
 23
2320.0
 33
0.0
  0
MTEXT
  5
C41
330
C3B
100
AcDbEntity
  8
SUNPO
 62
     7
100
AcDbMText
 10
2714.280472492493
 20
2220.000000000001
 30
0.0
 40
50.0
 41
0.0
 71
     5
 72
     1
  1
\A2;200
  7
ADD
 11
0.0000000000000001
 21
1.0
 31
0.0
1001
ACAD
1000
MTEXTBEGIN
1070
    73
1070
     1
1070
    44
1040
1.0
1070
    74
1070
     0
1000
MTEXTEND
  0
POINT
  5
C42
330
C3B
100
AcDbEntity
  8
DEFPOINTS
 62
     0
100
AcDbPoint
 10
3000.0
 20
2120.0
 30
0.0
  0
POINT
  5
C43
330
C3B
100
AcDbEntity
  8
DEFPOINTS
 62
     0
100
AcDbPoint
 10
3600.0
 20
2320.0
 30
0.0
  0
POINT
  5
C44
330
C3B
100
AcDbEntity
  8
DEFPOINTS
 62
     0
100
AcDbPoint
 10
2751.780472492493
 20
2320.0
 30
0.0
  0
ENDBLK
  5
C46
330
C3B
100
AcDbEntity
  8
0
100
AcDbBlockEnd
  0
BLOCK
  5
C52
330
C48
100
AcDbEntity
  8
0
100
AcDbBlockBegin
  2
*D20
 70
     1
 10
0.0
 20
0.0
 30
0.0
  3
*D20
  1

  0
LINE
  5
C49
330
C48
100
AcDbEntity
  8
SUNPO
 62
   144
100
AcDbLine
 10
3580.0
 20
2320.0
 30
0.0
 11
2596.438779223917
 21
2320.0
 31
0.0
  0
LINE
  5
C4A
330
C48
100
AcDbEntity
  8
SUNPO
 62
   144
100
AcDbLine
 10
2980.0
 20
2000.0
 30
0.0
 11
2596.438779223917
 21
2000.0
 31
0.0
  0
LINE
  5
C4B
330
C48
100
AcDbEntity
  8
SUNPO
 62
   144
100
AcDbLine
 10
2606.438779223918
 20
2306.0
 30
0.0
 11
2606.438779223918
 21
2014.0
 31
0.0
  0
SOLID
  5
C4C
330
C48
100
AcDbEntity
  8
SUNPO
 62
   144
100
AcDbTrace
 10
2604.105445890584
 20
2306.0
 30
0.0
 11
2608.772112557251
 21
2306.0
 31
0.0
 12
2606.438779223918
 22
2320.0
 32
0.0
 13
2606.438779223918
 23
2320.0
 33
0.0
  0
SOLID
  5
C4D
330
C48
100
AcDbEntity
  8
SUNPO
 62
   144
100
AcDbTrace
 10
2604.105445890584
 20
2014.0
 30
0.0
 11
2608.772112557251
 21
2014.0
 31
0.0
 12
2606.438779223918
 22
2000.0
 32
0.0
 13
2606.438779223918
 23
2000.0
 33
0.0
  0
MTEXT
  5
C4E
330
C48
100
AcDbEntity
  8
SUNPO
 62
     7
100
AcDbMText
 10
2568.938779223917
 20
2160.000000000001
 30
0.0
 40
50.0
 41
0.0
 71
     5
 72
     1
  1
\A2;320
  7
ADD
 11
0.0000000000000001
 21
1.0
 31
0.0
1001
ACAD
1000
MTEXTBEGIN
1070
    73
1070
     1
1070
    44
1040
1.0
1070
    74
1070
     0
1000
MTEXTEND
  0
POINT
  5
C4F
330
C48
100
AcDbEntity
  8
DEFPOINTS
 62
     0
100
AcDbPoint
 10
3600.0
 20
2320.0
 30
0.0
  0
POINT
  5
C50
330
C48
100
AcDbEntity
  8
DEFPOINTS
 62
     0
100
AcDbPoint
 10
3000.0
 20
2000.0
 30
0.0
  0
POINT
  5
C51
330
C48
100
AcDbEntity
  8
DEFPOINTS
 62
     0
100
AcDbPoint
 10
2606.438779223918
 20
2000.0
 30
0.0
  0
ENDBLK
  5
C53
330
C48
100
AcDbEntity
  8
0
100
AcDbBlockEnd
  0
ENDSEC
  0
SECTION
  2
ENTITIES
  0
LINE
  5
60A
330
1F
100
AcDbEntity
  8
HOJO
100
AcDbLine
 10
360.0
 20
260.0
 30
0.0
 11
5580.0
 21
260.0
 31
0.0
  0
LINE
  5
60B
330
1F
100
AcDbEntity
  8
HOJO
100
AcDbLine
 10
360.0
 20
560.0
 30
0.0
 11
5580.0
 21
560.0
 31
0.0
  0
LINE
  5
60D
330
1F
100
AcDbEntity
  8
HOJO
100
AcDbLine
 10
2360.0
 20
260.0
 30
0.0
 11
2360.0
 21
560.0
 31
0.0
  0
LINE
  5
60F
330
1F
100
AcDbEntity
  8
HOJO
100
AcDbLine
 10
3160.0
 20
260.0
 30
0.0
 11
3160.0
 21
560.0
 31
0.0
  0
LINE
  5
610
330
1F
100
AcDbEntity
  8
HOJO
100
AcDbLine
 10
3660.0
 20
260.0
 30
0.0
 11
3660.0
 21
560.0
 31
0.0
  0
LINE
  5
62B
330
1F
100
AcDbEntity
  8
3C1
100
AcDbLine
 10
3000.0
 20
2000.0
 30
0.0
 11
5000.0
 21
2000.0
 31
0.0
  0
LINE
  5
62C
330
1F
100
AcDbEntity
  8
3C1
100
AcDbLine
 10
5000.0
 20
2000.0
 30
0.0
 11
5000.0
 21
2320.0
 31
0.0
  0
LINE
  5
62F
330
1F
100
AcDbEntity
  8
3C1
100
AcDbLine
 10
3000.0
 20
2000.0
 30
0.0
 11
3000.0
 21
2000.0
 31
0.0
  0
LINE
  5
630
330
1F
100
AcDbEntity
  8
3C1
100
AcDbLine
 10
3000.0
 20
2120.0
 30
0.0
 11
5000.0
 21
2120.0
 31
0.0
  0
LINE
  5
631
330
1F
100
AcDbEntity
  8
3C1
100
AcDbLine
 10
3000.0
 20
2143.0
 30
0.0
 11
5000.0
 21
2143.0
 31
0.0
  0
LINE
  5
638
330
1F
100
AcDbEntity
  8
3C1
100
AcDbLine
 10
1500.0
 20
2000.0
 30
0.0
 11
2070.0
 21
2000.0
 31
0.0
  0
LINE
  5
639
330
1F
100
AcDbEntity
  8
3C1
100
AcDbLine
 10
2070.0
 20
2000.0
 30
0.0
 11
2070.0
 21
2143.0
 31
0.0
  0
LINE
  5
63A
330
1F
100
AcDbEntity
  8
3C1
100
AcDbLine
 10
2070.0
 20
2143.0
 30
0.0
 11
1718.98855571948
 21
2121.180369679859
 31
0.0
  0
LINE
  5
63B
330
1F
100
AcDbEntity
  8
3C1
100
AcDbLine
 10
1697.873081243573
 20
2138.905944501571
 30
0.0
 11
1680.497692640895
 21
2293.353843192036
 31
0.0
  0
LINE
  5
63C
330
1F
100
AcDbEntity
  8
3C1
100
AcDbLine
 10
1650.685753156132
 20
2320.0
 30
0.0
 11
1549.314246843868
 21
2320.0
 31
0.0
  0
LINE
  5
63D
330
1F
100
AcDbEntity
  8
3C1
100
AcDbLine
 10
1519.502307359104
 20
2293.353843192036
 30
0.0
 11
1500.0
 21
2120.0
 31
0.0
  0
LINE
  5
63E
330
1F
100
AcDbEntity
  8
3C1
100
AcDbLine
 10
1500.0
 20
2120.0
 30
0.0
 11
1500.0
 21
2000.0
 31
0.0
  0
LINE
  5
821
330
1F
100
AcDbEntity
  8
SUNPO
 62
   144
100
AcDbLine
 10
1500.0
 20
2140.0
 30
0.0
 11
1500.0
 21
2919.914463787592
 31
0.0
  0
LINE
  5
822
330
1F
100
AcDbEntity
  8
SUNPO
 62
   144
100
AcDbLine
 10
2070.0
 20
2163.0
 30
0.0
 11
2070.0
 21
2919.914463787592
 31
0.0
  0
LINE
  5
823
330
1F
100
AcDbEntity
  8
SUNPO
 62
   144
100
AcDbLine
 10
1514.0
 20
2909.914463787592
 30
0.0
 11
2056.0
 21
2909.914463787592
 31
0.0
  0
SOLID
  5
824
330
1F
100
AcDbEntity
  8
SUNPO
 62
   144
100
AcDbTrace
 10
1514.0
 20
2912.247797120926
 30
0.0
 11
1514.0
 21
2907.581130454259
 31
0.0
 12
1500.0
 22
2909.914463787592
 32
0.0
 13
1500.0
 23
2909.914463787592
 33
0.0
  0
SOLID
  5
825
330
1F
100
AcDbEntity
  8
SUNPO
 62
   144
100
AcDbTrace
 10
2056.0
 20
2912.247797120926
 30
0.0
 11
2056.0
 21
2907.581130454259
 31
0.0
 12
2070.0
 22
2909.914463787592
 32
0.0
 13
2070.0
 23
2909.914463787592
 33
0.0
  0
LINE
  5
827
330
1F
100
AcDbEntity
  8
SUNPO
 62
   144
100
AcDbLine
 10
1700.0
 20
2140.0
 30
0.0
 11
1700.0
 21
2761.811185405138
 31
0.0
  0
LINE
  5
828
330
1F
100
AcDbEntity
  8
SUNPO
 62
   144
100
AcDbLine
 10
2070.0
 20
2163.0
 30
0.0
 11
2070.0
 21
2761.811185405138
 31
0.0
  0
LINE
  5
829
330
1F
100
AcDbEntity
  8
SUNPO
 62
   144
100
AcDbLine
 10
1714.0
 20
2751.811185405138
 30
0.0
 11
2056.0
 21
2751.811185405138
 31
0.0
  0
SOLID
  5
82A
330
1F
100
AcDbEntity
  8
SUNPO
 62
   144
100
AcDbTrace
 10
1714.0
 20
2754.144518738472
 30
0.0
 11
1714.0
 21
2749.477852071805
 31
0.0
 12
1700.0
 22
2751.811185405138
 32
0.0
 13
1700.0
 23
2751.811185405138
 33
0.0
  0
SOLID
  5
82B
330
1F
100
AcDbEntity
  8
SUNPO
 62
   144
100
AcDbTrace
 10
2056.0
 20
2754.144518738472
 30
0.0
 11
2056.0
 21
2749.477852071805
 31
0.0
 12
2070.0
 22
2751.811185405138
 32
0.0
 13
2070.0
 23
2751.811185405138
 33
0.0
  0
LINE
  5
82D
330
1F
100
AcDbEntity
  8
SUNPO
 62
   144
100
AcDbLine
 10
1500.0
 20
2140.0
 30
0.0
 11
1500.0
 21
2761.811185405138
 31
0.0
  0
LINE
  5
82E
330
1F
100
AcDbEntity
  8
SUNPO
 62
   144
100
AcDbLine
 10
1700.0
 20
2140.0
 30
0.0
 11
1700.0
 21
2761.811185405138
 31
0.0
  0
LINE
  5
82F
330
1F
100
AcDbEntity
  8
SUNPO
 62
   144
100
AcDbLine
 10
1514.0
 20
2751.811185405138
 30
0.0
 11
1686.0
 21
2751.811185405138
 31
0.0
  0
SOLID
  5
830
330
1F
100
AcDbEntity
  8
SUNPO
 62
   144
100
AcDbTrace
 10
1514.0
 20
2754.144518738472
 30
0.0
 11
1514.0
 21
2749.477852071805
 31
0.0
 12
1500.0
 22
2751.811185405138
 32
0.0
 13
1500.0
 23
2751.811185405138
 33
0.0
  0
SOLID
  5
831
330
1F
100
AcDbEntity
  8
SUNPO
 62
   144
100
AcDbTrace
 10
1686.0
 20
2754.144518738472
 30
0.0
 11
1686.0
 21
2749.477852071805
 31
0.0
 12
1700.0
 22
2751.811185405138
 32
0.0
 13
1700.0
 23
2751.811185405138
 33
0.0
  0
LINE
  5
833
330
1F
100
AcDbEntity
  8
SUNPO
 62
   144
100
AcDbLine
 10
1500.0
 20
2140.0
 30
0.0
 11
1500.0
 21
2606.807971884654
 31
0.0
  0
LINE
  5
834
330
1F
100
AcDbEntity
  8
SUNPO
 62
   144
100
AcDbLine
 10
1522.499999999999
 20
2340.0
 30
0.0
 11
1522.499999999999
 21
2606.807971884654
 31
0.0
  0
LINE
  5
835
330
1F
100
AcDbEntity
  8
SUNPO
 62
   144
100
AcDbLine
 10
1486.0
 20
2596.807971884655
 30
0.0
 11
1472.0
 21
2596.807971884655
 31
0.0
  0
LINE
  5
836
330
1F
100
AcDbEntity
  8
SUNPO
 62
   144
100
AcDbLine
 10
1536.5
 20
2596.807971884655
 30
0.0
 11
1550.5
 21
2596.807971884655
 31
0.0
  0
LINE
  5
837
330
1F
100
AcDbEntity
  8
SUNPO
 62
   144
100
AcDbLine
 10
1500.0
 20
2596.807971884655
 30
0.0
 11
1522.499999999999
 21
2596.807971884655
 31
0.0
  0
SOLID
  5
838
330
1F
100
AcDbEntity
  8
SUNPO
 62
   144
100
AcDbTrace
 10
1486.0
 20
2599.141305217988
 30
0.0
 11
1486.0
 21
2594.474638551321
 31
0.0
 12
1500.0
 22
2596.807971884655
 32
0.0
 13
1500.0
 23
2596.807971884655
 33
0.0
  0
SOLID
  5
839
330
1F
100
AcDbEntity
  8
SUNPO
 62
   144
100
AcDbTrace
 10
1536.5
 20
2599.141305217988
 30
0.0
 11
1536.5
 21
2594.474638551321
 31
0.0
 12
1522.499999999999
 22
2596.807971884655
 32
0.0
 13
1522.499999999999
 23
2596.807971884655
 33
0.0
  0
LINE
  5
83B
330
1F
100
AcDbEntity
  8
SUNPO
 62
   144
100
AcDbLine
 10
1677.5
 20
2340.0
 30
0.0
 11
1677.5
 21
2606.807971884654
 31
0.0
  0
LINE
  5
83C
330
1F
100
AcDbEntity
  8
SUNPO
 62
   144
100
AcDbLine
 10
1700.0
 20
2140.0
 30
0.0
 11
1700.0
 21
2606.807971884654
 31
0.0
  0
LINE
  5
83D
330
1F
100
AcDbEntity
  8
SUNPO
 62
   144
100
AcDbLine
 10
1663.5
 20
2596.807971884655
 30
0.0
 11
1649.5
 21
2596.807971884655
 31
0.0
  0
LINE
  5
83E
330
1F
100
AcDbEntity
  8
SUNPO
 62
   144
100
AcDbLine
 10
1714.0
 20
2596.807971884655
 30
0.0
 11
1728.0
 21
2596.807971884655
 31
0.0
  0
LINE
  5
83F
330
1F
100
AcDbEntity
  8
SUNPO
 62
   144
100
AcDbLine
 10
1677.5
 20
2596.807971884655
 30
0.0
 11
1700.0
 21
2596.807971884655
 31
0.0
  0
SOLID
  5
840
330
1F
100
AcDbEntity
  8
SUNPO
 62
   144
100
AcDbTrace
 10
1663.5
 20
2599.141305217988
 30
0.0
 11
1663.5
 21
2594.474638551321
 31
0.0
 12
1677.5
 22
2596.807971884655
 32
0.0
 13
1677.5
 23
2596.807971884655
 33
0.0
  0
SOLID
  5
841
330
1F
100
AcDbEntity
  8
SUNPO
 62
   144
100
AcDbTrace
 10
1714.0
 20
2599.141305217988
 30
0.0
 11
1714.0
 21
2594.474638551321
 31
0.0
 12
1700.0
 22
2596.807971884655
 32
0.0
 13
1700.0
 23
2596.807971884655
 33
0.0
  0
LINE
  5
843
330
1F
100
AcDbEntity
  8
SUNPO
 62
   144
100
AcDbLine
 10
1522.499999999999
 20
2340.0
 30
0.0
 11
1522.499999999999
 21
2606.807971884654
 31
0.0
  0
LINE
  5
844
330
1F
100
AcDbEntity
  8
SUNPO
 62
   144
100
AcDbLine
 10
1677.5
 20
2340.0
 30
0.0
 11
1677.5
 21
2606.807971884654
 31
0.0
  0
LINE
  5
845
330
1F
100
AcDbEntity
  8
SUNPO
 62
   144
100
AcDbLine
 10
1536.5
 20
2596.807971884655
 30
0.0
 11
1663.5
 21
2596.807971884655
 31
0.0
  0
SOLID
  5
846
330
1F
100
AcDbEntity
  8
SUNPO
 62
   144
100
AcDbTrace
 10
1536.5
 20
2599.141305217988
 30
0.0
 11
1536.5
 21
2594.474638551321
 31
0.0
 12
1522.499999999999
 22
2596.807971884655
 32
0.0
 13
1522.499999999999
 23
2596.807971884655
 33
0.0
  0
SOLID
  5
847
330
1F
100
AcDbEntity
  8
SUNPO
 62
   144
100
AcDbTrace
 10
1663.5
 20
2599.141305217988
 30
0.0
 11
1663.5
 21
2594.474638551321
 31
0.0
 12
1677.5
 22
2596.807971884655
 32
0.0
 13
1677.5
 23
2596.807971884655
 33
0.0
  0
ARC
  5
871
330
1F
100
AcDbEntity
  8
3C1
100
AcDbCircle
 10
1650.685753156132
 20
2290.0
 30
0.0
 40
30.0
100
AcDbArc
 50
6.418786730238807
 51
90.0
  0
ARC
  5
885
330
1F
100
AcDbEntity
  8
3C1
100
AcDbCircle
 10
1549.314246843868
 20
2290.0
 30
0.0
 40
30.0
100
AcDbArc
 50
90.0
 51
173.5812132697611
  0
ARC
  5
886
330
1F
100
AcDbEntity
  8
3C1
100
AcDbCircle
 10
1717.747707566749
 20
2141.141839962929
 30
0.0
 40
20.0
100
AcDbArc
 50
186.4187867302387
 51
273.5570526057393
  0
LINE
  5
8A8
330
1F
100
AcDbEntity
  8
HOJO
100
AcDbLine
 10
360.0
 20
260.0
 30
0.0
 11
360.0
 21
560.0
 31
0.0
  0
LINE
  5
AA8
330
1F
100
AcDbEntity
  8
3C1
100
AcDbLine
 10
2070.0
 20
2000.0
 30
0.0
 11
2070.0
 21
2143.0
 31
0.0
  0
LINE
  5
ABF
330
1F
100
AcDbEntity
  8
SUNPO
 62
   144
100
AcDbLine
 10
1720.0
 20
2140.0
 30
0.0
 11
1981.558700664838
 21
2140.0
 31
0.0
  0
LINE
  5
AC0
330
1F
100
AcDbEntity
  8
SUNPO
 62
   144
100
AcDbLine
 10
1720.0
 20
2120.0
 30
0.0
 11
1981.558700664838
 21
2120.0
 31
0.0
  0
LINE
  5
AC1
330
1F
100
AcDbEntity
  8
SUNPO
 62
   144
100
AcDbLine
 10
1971.558700664838
 20
2154.0
 30
0.0
 11
1971.558700664838
 21
2168.0
 31
0.0
  0
LINE
  5
AC2
330
1F
100
AcDbEntity
  8
SUNPO
 62
   144
100
AcDbLine
 10
1971.558700664838
 20
2106.0
 30
0.0
 11
1971.558700664838
 21
2092.0
 31
0.0
  0
LINE
  5
AC3
330
1F
100
AcDbEntity
  8
SUNPO
 62
   144
100
AcDbLine
 10
1971.558700664838
 20
2140.0
 30
0.0
 11
1971.558700664838
 21
2120.0
 31
0.0
  0
SOLID
  5
AC4
330
1F
100
AcDbEntity
  8
SUNPO
 62
   144
100
AcDbTrace
 10
1969.225367331505
 20
2154.0
 30
0.0
 11
1973.892033998171
 21
2154.0
 31
0.0
 12
1971.558700664838
 22
2140.0
 32
0.0
 13
1971.558700664838
 23
2140.0
 33
0.0
  0
SOLID
  5
AC5
330
1F
100
AcDbEntity
  8
SUNPO
 62
   144
100
AcDbTrace
 10
1969.225367331505
 20
2106.0
 30
0.0
 11
1973.892033998171
 21
2106.0
 31
0.0
 12
1971.558700664838
 22
2120.0
 32
0.0
 13
1971.558700664838
 23
2120.0
 33
0.0
  0
LINE
  5
B42
330
1F
100
AcDbEntity
  8
3C1
100
AcDbLine
 10
1505.625
 20
2170.0
 30
0.0
 11
1697.710242146597
 21
2140.35340314136
 31
0.0
  0
LINE
  5
BAF
330
1F
100
AcDbEntity
  8
SUNPO
 62
   144
100
AcDbLine
 10
1485.625
 20
2170.0
 30
0.0
 11
1304.063780026477
 21
2170.0
 31
0.0
  0
LINE
  5
BB0
330
1F
100
AcDbEntity
  8
SUNPO
 62
   144
100
AcDbLine
 10
1480.0
 20
2120.0
 30
0.0
 11
1304.063780026477
 21
2120.0
 31
0.0
  0
LINE
  5
BB1
330
1F
100
AcDbEntity
  8
SUNPO
 62
   144
100
AcDbLine
 10
1314.063780026477
 20
2184.0
 30
0.0
 11
1314.063780026477
 21
2198.0
 31
0.0
  0
LINE
  5
BB2
330
1F
100
AcDbEntity
  8
SUNPO
 62
   144
100
AcDbLine
 10
1314.063780026477
 20
2106.0
 30
0.0
 11
1314.063780026477
 21
2092.0
 31
0.0
  0
LINE
  5
BB3
330
1F
100
AcDbEntity
  8
SUNPO
 62
   144
100
AcDbLine
 10
1314.063780026477
 20
2170.0
 30
0.0
 11
1314.063780026477
 21
2120.0
 31
0.0
  0
SOLID
  5
BB4
330
1F
100
AcDbEntity
  8
SUNPO
 62
   144
100
AcDbTrace
 10
1311.730446693144
 20
2184.0
 30
0.0
 11
1316.39711335981
 21
2184.0
 31
0.0
 12
1314.063780026477
 22
2170.0
 32
0.0
 13
1314.063780026477
 23
2170.0
 33
0.0
  0
SOLID
  5
BB5
330
1F
100
AcDbEntity
  8
SUNPO
 62
   144
100
AcDbTrace
 10
1311.730446693144
 20
2106.0
 30
0.0
 11
1316.39711335981
 21
2106.0
 31
0.0
 12
1314.063780026477
 22
2120.0
 32
0.0
 13
1314.063780026477
 23
2120.0
 33
0.0
  0
LINE
  5
BBC
330
1F
100
AcDbEntity
  8
3C1
100
AcDbLine
 10
3000.0
 20
2140.0
 30
0.0
 11
5000.0
 21
2140.0
 31
0.0
  0
LINE
  5
BBD
330
1F
100
AcDbEntity
  8
3C1
100
AcDbLine
 10
3000.0
 20
2170.0
 30
0.0
 11
3600.0
 21
2320.0
 31
0.0
  0
LINE
  5
BBE
330
1F
100
AcDbEntity
  8
3C1
100
AcDbLine
 10
3600.0
 20
2320.0
 30
0.0
 11
3000.0
 21
2140.0
 31
0.0
  0
LINE
  5
BBF
330
1F
100
AcDbEntity
  8
3C1
100
AcDbLine
 10
3000.0
 20
2000.0
 30
0.0
 11
3000.0
 21
2170.0
 31
0.0
  0
LINE
  5
BC0
330
1F
100
AcDbEntity
  8
3C1
100
AcDbLine
 10
5000.0
 20
2320.0
 30
0.0
 11
3600.0
 21
2320.0
 31
0.0
  0
LINE
  5
C06
330
1F
100
AcDbEntity
  8
SUNPO
 62
   144
100
AcDbLine
 10
3591.571806294574
 20
2120.0
 30
0.0
 11
3615.066393538232
 21
2120.0
 31
0.0
  0
LINE
  5
C07
330
1F
100
AcDbEntity
  8
SUNPO
 62
   144
100
AcDbLine
 10
3591.571806294574
 20
2140.0
 30
0.0
 11
3615.066393538232
 21
2140.0
 31
0.0
  0
LINE
  5
C08
330
1F
100
AcDbEntity
  8
SUNPO
 62
   144
100
AcDbLine
 10
3605.066393538232
 20
2106.0
 30
0.0
 11
3605.066393538232
 21
2092.0
 31
0.0
  0
LINE
  5
C09
330
1F
100
AcDbEntity
  8
SUNPO
 62
   144
100
AcDbLine
 10
3605.066393538232
 20
2154.0
 30
0.0
 11
3605.066393538232
 21
2168.0
 31
0.0
  0
LINE
  5
C0A
330
1F
100
AcDbEntity
  8
SUNPO
 62
   144
100
AcDbLine
 10
3605.066393538232
 20
2120.0
 30
0.0
 11
3605.066393538232
 21
2140.0
 31
0.0
  0
SOLID
  5
C0B
330
1F
100
AcDbEntity
  8
SUNPO
 62
   144
100
AcDbTrace
 10
3602.733060204899
 20
2106.0
 30
0.0
 11
3607.399726871566
 21
2106.0
 31
0.0
 12
3605.066393538232
 22
2120.0
 32
0.0
 13
3605.066393538232
 23
2120.0
 33
0.0
  0
SOLID
  5
C0C
330
1F
100
AcDbEntity
  8
SUNPO
 62
   144
100
AcDbTrace
 10
3602.733060204899
 20
2154.0
 30
0.0
 11
3607.399726871566
 21
2154.0
 31
0.0
 12
3605.066393538232
 22
2140.0
 32
0.0
 13
3605.066393538232
 23
2140.0
 33
0.0
  0
LINE
  5
C54
330
1F
100
AcDbEntity
  8
SUNPO
 62
   144
100
AcDbLine
 10
2980.0
 20
2120.0
 30
0.0
 11
2877.048983531862
 21
2120.0
 31
0.0
  0
LINE
  5
C55
330
1F
100
AcDbEntity
  8
SUNPO
 62
   144
100
AcDbLine
 10
2980.0
 20
2170.0
 30
0.0
 11
2877.048983531862
 21
2170.0
 31
0.0
  0
LINE
  5
C56
330
1F
100
AcDbEntity
  8
SUNPO
 62
   144
100
AcDbLine
 10
2887.048983531862
 20
2106.0
 30
0.0
 11
2887.048983531862
 21
2092.0
 31
0.0
  0
LINE
  5
C57
330
1F
100
AcDbEntity
  8
SUNPO
 62
   144
100
AcDbLine
 10
2887.048983531862
 20
2184.0
 30
0.0
 11
2887.048983531862
 21
2198.0
 31
0.0
  0
LINE
  5
C58
330
1F
100
AcDbEntity
  8
SUNPO
 62
   144
100
AcDbLine
 10
2887.048983531862
 20
2120.0
 30
0.0
 11
2887.048983531862
 21
2170.0
 31
0.0
  0
SOLID
  5
C59
330
1F
100
AcDbEntity
  8
SUNPO
 62
   144
100
AcDbTrace
 10
2884.715650198529
 20
2106.0
 30
0.0
 11
2889.382316865195
 21
2106.0
 31
0.0
 12
2887.048983531862
 22
2120.0
 32
0.0
 13
2887.048983531862
 23
2120.0
 33
0.0
  0
SOLID
  5
C5A
330
1F
100
AcDbEntity
  8
SUNPO
 62
   144
100
AcDbTrace
 10
2884.715650198529
 20
2184.0
 30
0.0
 11
2889.382316865195
 21
2184.0
 31
0.0
 12
2887.048983531862
 22
2170.0
 32
0.0
 13
2887.048983531862
 23
2170.0
 33
0.0
  0
TEXT
  5
D17
330
1F
100
AcDbEntity
  8
SUNPO
100
AcDbText
 10
2415.28918769096
 20
346.8498809493739
 30
0.0
 40
85.0
  1
ＣＢＬ１－Ｔ１
  7
ADD
100
AcDbText
  0
TEXT
  5
D18
330
1F
100
AcDbEntity
  8
SUNPO
 62
     7
100
AcDbText
 10
2875.988007006144
 20
2018.27368107694
 30
0.0
 40
50.0
  1
50
 50
90.0
  7
ADD
100
AcDbText
  0
LINE
  5
D19
330
1F
100
AcDbEntity
  8
SUNPO
 62
   144
100
AcDbLine
 10
3580.0
 20
2320.0
 30
0.0
 11
2596.438779223917
 21
2320.0
 31
0.0
  0
LINE
  5
D1A
330
1F
100
AcDbEntity
  8
SUNPO
 62
   144
100
AcDbLine
 10
2980.0
 20
2000.0
 30
0.0
 11
2596.438779223917
 21
2000.0
 31
0.0
  0
LINE
  5
D1B
330
1F
100
AcDbEntity
  8
SUNPO
 62
   144
100
AcDbLine
 10
2606.438779223918
 20
2306.0
 30
0.0
 11
2606.438779223918
 21
2014.0
 31
0.0
  0
SOLID
  5
D1C
330
1F
100
AcDbEntity
  8
SUNPO
 62
   144
100
AcDbTrace
 10
2604.105445890584
 20
2306.0
 30
0.0
 11
2608.772112557251
 21
2306.0
 31
0.0
 12
2606.438779223918
 22
2320.0
 32
0.0
 13
2606.438779223918
 23
2320.0
 33
0.0
  0
SOLID
  5
D1D
330
1F
100
AcDbEntity
  8
SUNPO
 62
   144
100
AcDbTrace
 10
2604.105445890584
 20
2014.0
 30
0.0
 11
2608.772112557251
 21
2014.0
 31
0.0
 12
2606.438779223918
 22
2000.0
 32
0.0
 13
2606.438779223918
 23
2000.0
 33
0.0
  0
LINE
  5
D1F
330
1F
100
AcDbEntity
  8
SUNPO
 62
   144
100
AcDbLine
 10
2980.0
 20
2120.0
 30
0.0
 11
2741.780472492493
 21
2120.0
 31
0.0
  0
LINE
  5
D20
330
1F
100
AcDbEntity
  8
SUNPO
 62
   144
100
AcDbLine
 10
3580.0
 20
2320.0
 30
0.0
 11
2741.780472492493
 21
2320.0
 31
0.0
  0
LINE
  5
D21
330
1F
100
AcDbEntity
  8
SUNPO
 62
   144
100
AcDbLine
 10
2751.780472492493
 20
2134.0
 30
0.0
 11
2751.780472492493
 21
2306.0
 31
0.0
  0
SOLID
  5
D22
330
1F
100
AcDbEntity
  8
SUNPO
 62
   144
100
AcDbTrace
 10
2749.44713915916
 20
2134.0
 30
0.0
 11
2754.113805825827
 21
2134.0
 31
0.0
 12
2751.780472492493
 22
2120.0
 32
0.0
 13
2751.780472492493
 23
2120.0
 33
0.0
  0
SOLID
  5
D23
330
1F
100
AcDbEntity
  8
SUNPO
 62
   144
100
AcDbTrace
 10
2749.44713915916
 20
2306.0
 30
0.0
 11
2754.113805825827
 21
2306.0
 31
0.0
 12
2751.780472492493
 22
2320.0
 32
0.0
 13
2751.780472492493
 23
2320.0
 33
0.0
  0
LINE
  5
D25
330
1F
100
AcDbEntity
  8
SUNPO
 62
   144
100
AcDbLine
 10
2980.0
 20
2000.0
 30
0.0
 11
2741.780472492493
 21
2000.0
 31
0.0
  0
LINE
  5
D26
330
1F
100
AcDbEntity
  8
SUNPO
 62
   144
100
AcDbLine
 10
2980.0
 20
2120.0
 30
0.0
 11
2741.780472492493
 21
2120.0
 31
0.0
  0
LINE
  5
D27
330
1F
100
AcDbEntity
  8
SUNPO
 62
   144
100
AcDbLine
 10
2751.780472492493
 20
1986.0
 30
0.0
 11
2751.780472492493
 21
1972.0
 31
0.0
  0
LINE
  5
D28
330
1F
100
AcDbEntity
  8
SUNPO
 62
   144
100
AcDbLine
 10
2751.780472492493
 20
2134.0
 30
0.0
 11
2751.780472492493
 21
2148.0
 31
0.0
  0
LINE
  5
D29
330
1F
100
AcDbEntity
  8
SUNPO
 62
   144
100
AcDbLine
 10
2751.780472492493
 20
2000.0
 30
0.0
 11
2751.780472492493
 21
2120.0
 31
0.0
  0
SOLID
  5
D2A
330
1F
100
AcDbEntity
  8
SUNPO
 62
   144
100
AcDbTrace
 10
2749.44713915916
 20
1986.0
 30
0.0
 11
2754.113805825827
 21
1986.0
 31
0.0
 12
2751.780472492493
 22
2000.0
 32
0.0
 13
2751.780472492493
 23
2000.0
 33
0.0
  0
SOLID
  5
D2B
330
1F
100
AcDbEntity
  8
SUNPO
 62
   144
100
AcDbTrace
 10
2749.44713915916
 20
2134.0
 30
0.0
 11
2754.113805825827
 21
2134.0
 31
0.0
 12
2751.780472492493
 22
2120.0
 32
0.0
 13
2751.780472492493
 23
2120.0
 33
0.0
  0
LINE
  5
D2D
330
1F
100
AcDbEntity
  8
SUNPO
 62
   144
100
AcDbLine
 10
2980.0
 20
2170.0
 30
0.0
 11
2877.048983531862
 21
2170.0
 31
0.0
  0
LINE
  5
D2E
330
1F
100
AcDbEntity
  8
SUNPO
 62
   144
100
AcDbLine
 10
3580.0
 20
2320.0
 30
0.0
 11
2877.048983531862
 21
2320.0
 31
0.0
  0
LINE
  5
D2F
330
1F
100
AcDbEntity
  8
SUNPO
 62
   144
100
AcDbLine
 10
2887.048983531862
 20
2184.0
 30
0.0
 11
2887.048983531862
 21
2306.0
 31
0.0
  0
SOLID
  5
D30
330
1F
100
AcDbEntity
  8
SUNPO
 62
   144
100
AcDbTrace
 10
2884.715650198529
 20
2184.0
 30
0.0
 11
2889.382316865195
 21
2184.0
 31
0.0
 12
2887.048983531862
 22
2170.0
 32
0.0
 13
2887.048983531862
 23
2170.0
 33
0.0
  0
SOLID
  5
D31
330
1F
100
AcDbEntity
  8
SUNPO
 62
   144
100
AcDbTrace
 10
2884.715650198529
 20
2306.0
 30
0.0
 11
2889.382316865195
 21
2306.0
 31
0.0
 12
2887.048983531862
 22
2320.0
 32
0.0
 13
2887.048983531862
 23
2320.0
 33
0.0
  0
TEXT
  5
D33
330
1F
100
AcDbEntity
  8
SUNPO
 62
     7
100
AcDbText
 10
3592.566393538232
 20
2156.156541710338
 30
0.0
 40
50.0
  1
20
 50
90.0
  7
ADD
100
AcDbText
  0
LINE
  5
D34
330
1F
100
AcDbEntity
  8
SUNPO
 62
   144
100
AcDbLine
 10
3577.305592877659
 20
2000.0
 30
0.0
 11
3615.066393538232
 21
1999.999999999999
 31
0.0
  0
LINE
  5
D35
330
1F
100
AcDbEntity
  8
SUNPO
 62
   144
100
AcDbLine
 10
3577.305592877659
 20
2120.0
 30
0.0
 11
3615.066393538232
 21
2120.0
 31
0.0
  0
LINE
  5
D36
330
1F
100
AcDbEntity
  8
SUNPO
 62
   144
100
AcDbLine
 10
3605.066393538232
 20
1985.999999999999
 30
0.0
 11
3605.066393538232
 21
1971.999999999999
 31
0.0
  0
LINE
  5
D37
330
1F
100
AcDbEntity
  8
SUNPO
 62
   144
100
AcDbLine
 10
3605.066393538232
 20
2134.0
 30
0.0
 11
3605.066393538232
 21
2148.0
 31
0.0
  0
LINE
  5
D38
330
1F
100
AcDbEntity
  8
SUNPO
 62
   144
100
AcDbLine
 10
3605.066393538232
 20
1999.999999999999
 30
0.0
 11
3605.066393538232
 21
2120.0
 31
0.0
  0
SOLID
  5
D39
330
1F
100
AcDbEntity
  8
SUNPO
 62
   144
100
AcDbTrace
 10
3602.733060204899
 20
1985.999999999999
 30
0.0
 11
3607.399726871566
 21
1985.999999999999
 31
0.0
 12
3605.066393538232
 22
1999.999999999999
 32
0.0
 13
3605.066393538232
 23
1999.999999999999
 33
0.0
  0
SOLID
  5
D3A
330
1F
100
AcDbEntity
  8
SUNPO
 62
   144
100
AcDbTrace
 10
3602.733060204899
 20
2134.0
 30
0.0
 11
3607.399726871566
 21
2134.0
 31
0.0
 12
3605.066393538232
 22
2120.0
 32
0.0
 13
3605.066393538232
 23
2120.0
 33
0.0
  0
LINE
  5
D3C
330
1F
100
AcDbEntity
  8
SUNPO
 62
   144
100
AcDbLine
 10
3000.0
 20
2190.0
 30
0.0
 11
3000.0
 21
2835.715695626319
 31
0.0
  0
LINE
  5
D3D
330
1F
100
AcDbEntity
  8
SUNPO
 62
   144
100
AcDbLine
 10
5000.0
 20
2340.0
 30
0.0
 11
5000.0
 21
2835.715695626319
 31
0.0
  0
LINE
  5
D3E
330
1F
100
AcDbEntity
  8
SUNPO
 62
   144
100
AcDbLine
 10
3014.0
 20
2825.715695626318
 30
0.0
 11
4986.0
 21
2825.715695626318
 31
0.0
  0
SOLID
  5
D3F
330
1F
100
AcDbEntity
  8
SUNPO
 62
   144
100
AcDbTrace
 10
3014.0
 20
2828.049028959652
 30
0.0
 11
3014.0
 21
2823.382362292985
 31
0.0
 12
3000.0
 22
2825.715695626318
 32
0.0
 13
3000.0
 23
2825.715695626318
 33
0.0
  0
SOLID
  5
D40
330
1F
100
AcDbEntity
  8
SUNPO
 62
   144
100
AcDbTrace
 10
4986.0
 20
2828.049028959652
 30
0.0
 11
4986.0
 21
2823.382362292985
 31
0.0
 12
5000.0
 22
2825.715695626318
 32
0.0
 13
5000.0
 23
2825.715695626318
 33
0.0
  0
LINE
  5
D42
330
1F
100
AcDbEntity
  8
SUNPO
 62
   144
100
AcDbLine
 10
3600.0
 20
2340.0
 30
0.0
 11
3600.0
 21
2639.007651295762
 31
0.0
  0
LINE
  5
D43
330
1F
100
AcDbEntity
  8
SUNPO
 62
   144
100
AcDbLine
 10
5000.0
 20
2340.0
 30
0.0
 11
5000.0
 21
2639.007651295762
 31
0.0
  0
LINE
  5
D44
330
1F
100
AcDbEntity
  8
SUNPO
 62
   144
100
AcDbLine
 10
3614.0
 20
2629.007651295762
 30
0.0
 11
4986.0
 21
2629.007651295762
 31
0.0
  0
SOLID
  5
D45
330
1F
100
AcDbEntity
  8
SUNPO
 62
   144
100
AcDbTrace
 10
3614.0
 20
2631.340984629095
 30
0.0
 11
3614.0
 21
2626.674317962428
 31
0.0
 12
3600.0
 22
2629.007651295762
 32
0.0
 13
3600.0
 23
2629.007651295762
 33
0.0
  0
SOLID
  5
D46
330
1F
100
AcDbEntity
  8
SUNPO
 62
   144
100
AcDbTrace
 10
4986.0
 20
2631.340984629095
 30
0.0
 11
4986.0
 21
2626.674317962428
 31
0.0
 12
5000.0
 22
2629.007651295762
 32
0.0
 13
5000.0
 23
2629.007651295762
 33
0.0
  0
LINE
  5
D48
330
1F
100
AcDbEntity
  8
SUNPO
 62
   144
100
AcDbLine
 10
3000.0
 20
2190.0
 30
0.0
 11
3000.0
 21
2639.007651295762
 31
0.0
  0
LINE
  5
D49
330
1F
100
AcDbEntity
  8
SUNPO
 62
   144
100
AcDbLine
 10
3600.0
 20
2340.0
 30
0.0
 11
3600.0
 21
2639.007651295762
 31
0.0
  0
LINE
  5
D4A
330
1F
100
AcDbEntity
  8
SUNPO
 62
   144
100
AcDbLine
 10
3014.0
 20
2629.007651295762
 30
0.0
 11
3586.0
 21
2629.007651295762
 31
0.0
  0
SOLID
  5
D4B
330
1F
100
AcDbEntity
  8
SUNPO
 62
   144
100
AcDbTrace
 10
3014.0
 20
2631.340984629095
 30
0.0
 11
3014.0
 21
2626.674317962428
 31
0.0
 12
3000.0
 22
2629.007651295762
 32
0.0
 13
3000.0
 23
2629.007651295762
 33
0.0
  0
SOLID
  5
D4C
330
1F
100
AcDbEntity
  8
SUNPO
 62
   144
100
AcDbTrace
 10
3586.0
 20
2631.340984629095
 30
0.0
 11
3586.0
 21
2626.674317962428
 31
0.0
 12
3600.0
 22
2629.007651295762
 32
0.0
 13
3600.0
 23
2629.007651295762
 33
0.0
  0
TEXT
  5
D4E
330
1F
100
AcDbEntity
  8
SUNPO
 62
     7
100
AcDbText
 10
1307.085890006903
 20
2020.106028402883
 30
0.0
 40
50.0
  1
50
 50
90.0
  7
ADD
100
AcDbText
  0
LINE
  5
D4F
330
1F
100
AcDbEntity
  8
SUNPO
 62
   144
100
AcDbLine
 10
1480.0
 20
2000.0
 30
0.0
 11
954.7399048420956
 21
2000.0
 31
0.0
  0
LINE
  5
D50
330
1F
100
AcDbEntity
  8
SUNPO
 62
   144
100
AcDbLine
 10
1529.314246843868
 20
2320.0
 30
0.0
 11
954.7399048420958
 21
2320.0
 31
0.0
  0
LINE
  5
D51
330
1F
100
AcDbEntity
  8
SUNPO
 62
   144
100
AcDbLine
 10
964.7399048420957
 20
2014.0
 30
0.0
 11
964.7399048420957
 21
2306.0
 31
0.0
  0
SOLID
  5
D52
330
1F
100
AcDbEntity
  8
SUNPO
 62
   144
100
AcDbTrace
 10
962.4065715087622
 20
2014.0
 30
0.0
 11
967.0732381754291
 21
2014.0
 31
0.0
 12
964.7399048420957
 22
2000.0
 32
0.0
 13
964.7399048420957
 23
2000.0
 33
0.0
  0
SOLID
  5
D53
330
1F
100
AcDbEntity
  8
SUNPO
 62
   144
100
AcDbTrace
 10
962.4065715087624
 20
2306.0
 30
0.0
 11
967.0732381754291
 21
2306.0
 31
0.0
 12
964.7399048420957
 22
2320.0
 32
0.0
 13
964.7399048420957
 23
2320.0
 33
0.0
  0
LINE
  5
D55
330
1F
100
AcDbEntity
  8
SUNPO
 62
   144
100
AcDbLine
 10
1480.0
 20
2120.0
 30
0.0
 11
1135.08763370111
 21
2120.0
 31
0.0
  0
LINE
  5
D56
330
1F
100
AcDbEntity
  8
SUNPO
 62
   144
100
AcDbLine
 10
1529.314246843868
 20
2320.0
 30
0.0
 11
1135.08763370111
 21
2320.0
 31
0.0
  0
LINE
  5
D57
330
1F
100
AcDbEntity
  8
SUNPO
 62
   144
100
AcDbLine
 10
1145.08763370111
 20
2134.0
 30
0.0
 11
1145.08763370111
 21
2306.0
 31
0.0
  0
SOLID
  5
D58
330
1F
100
AcDbEntity
  8
SUNPO
 62
   144
100
AcDbTrace
 10
1142.754300367777
 20
2134.0
 30
0.0
 11
1147.420967034443
 21
2134.0
 31
0.0
 12
1145.08763370111
 22
2120.0
 32
0.0
 13
1145.08763370111
 23
2120.0
 33
0.0
  0
SOLID
  5
D59
330
1F
100
AcDbEntity
  8
SUNPO
 62
   144
100
AcDbTrace
 10
1142.754300367777
 20
2306.0
 30
0.0
 11
1147.420967034443
 21
2306.0
 31
0.0
 12
1145.08763370111
 22
2320.0
 32
0.0
 13
1145.08763370111
 23
2320.0
 33
0.0
  0
LINE
  5
D5B
330
1F
100
AcDbEntity
  8
SUNPO
 62
   144
100
AcDbLine
 10
1480.0
 20
2000.0
 30
0.0
 11
1135.08763370111
 21
2000.0
 31
0.0
  0
LINE
  5
D5C
330
1F
100
AcDbEntity
  8
SUNPO
 62
   144
100
AcDbLine
 10
1480.0
 20
2120.0
 30
0.0
 11
1135.08763370111
 21
2120.0
 31
0.0
  0
LINE
  5
D5D
330
1F
100
AcDbEntity
  8
SUNPO
 62
   144
100
AcDbLine
 10
1145.08763370111
 20
1986.0
 30
0.0
 11
1145.08763370111
 21
1972.0
 31
0.0
  0
LINE
  5
D5E
330
1F
100
AcDbEntity
  8
SUNPO
 62
   144
100
AcDbLine
 10
1145.08763370111
 20
2134.0
 30
0.0
 11
1145.08763370111
 21
2148.0
 31
0.0
  0
LINE
  5
D5F
330
1F
100
AcDbEntity
  8
SUNPO
 62
   144
100
AcDbLine
 10
1145.08763370111
 20
2000.0
 30
0.0
 11
1145.08763370111
 21
2120.0
 31
0.0
  0
SOLID
  5
D60
330
1F
100
AcDbEntity
  8
SUNPO
 62
   144
100
AcDbTrace
 10
1142.754300367777
 20
1986.0
 30
0.0
 11
1147.420967034443
 21
1986.0
 31
0.0
 12
1145.08763370111
 22
2000.0
 32
0.0
 13
1145.08763370111
 23
2000.0
 33
0.0
  0
SOLID
  5
D61
330
1F
100
AcDbEntity
  8
SUNPO
 62
   144
100
AcDbTrace
 10
1142.754300367777
 20
2134.0
 30
0.0
 11
1147.420967034443
 21
2134.0
 31
0.0
 12
1145.08763370111
 22
2120.0
 32
0.0
 13
1145.08763370111
 23
2120.0
 33
0.0
  0
LINE
  5
D63
330
1F
100
AcDbEntity
  8
SUNPO
 62
   144
100
AcDbLine
 10
1485.625
 20
2170.0
 30
0.0
 11
1304.063780026477
 21
2170.0
 31
0.0
  0
LINE
  5
D64
330
1F
100
AcDbEntity
  8
SUNPO
 62
   144
100
AcDbLine
 10
1529.314246843868
 20
2320.0
 30
0.0
 11
1304.063780026477
 21
2320.0
 31
0.0
  0
LINE
  5
D65
330
1F
100
AcDbEntity
  8
SUNPO
 62
   144
100
AcDbLine
 10
1314.063780026477
 20
2184.0
 30
0.0
 11
1314.063780026477
 21
2306.0
 31
0.0
  0
SOLID
  5
D66
330
1F
100
AcDbEntity
  8
SUNPO
 62
   144
100
AcDbTrace
 10
1311.730446693144
 20
2184.0
 30
0.0
 11
1316.39711335981
 21
2184.0
 31
0.0
 12
1314.063780026477
 22
2170.0
 32
0.0
 13
1314.063780026477
 23
2170.0
 33
0.0
  0
SOLID
  5
D67
330
1F
100
AcDbEntity
  8
SUNPO
 62
   144
100
AcDbTrace
 10
1311.730446693144
 20
2306.0
 30
0.0
 11
1316.39711335981
 21
2306.0
 31
0.0
 12
1314.063780026477
 22
2320.0
 32
0.0
 13
1314.063780026477
 23
2320.0
 33
0.0
  0
LINE
  5
D69
330
1F
100
AcDbEntity
  8
SUNPO
 62
   144
100
AcDbLine
 10
1740.0
 20
2120.0
 30
0.0
 11
1981.558700664838
 21
2120.0
 31
0.0
  0
LINE
  5
D6A
330
1F
100
AcDbEntity
  8
SUNPO
 62
   144
100
AcDbLine
 10
1740.0
 20
2000.0
 30
0.0
 11
1981.558700664838
 21
2000.0
 31
0.0
  0
LINE
  5
D6B
330
1F
100
AcDbEntity
  8
SUNPO
 62
   144
100
AcDbLine
 10
1971.558700664838
 20
2134.0
 30
0.0
 11
1971.558700664838
 21
2148.0
 31
0.0
  0
LINE
  5
D6C
330
1F
100
AcDbEntity
  8
SUNPO
 62
   144
100
AcDbLine
 10
1971.558700664838
 20
1986.0
 30
0.0
 11
1971.558700664838
 21
1972.0
 31
0.0
  0
LINE
  5
D6D
330
1F
100
AcDbEntity
  8
SUNPO
 62
   144
100
AcDbLine
 10
1971.558700664838
 20
2120.0
 30
0.0
 11
1971.558700664838
 21
2000.0
 31
0.0
  0
SOLID
  5
D6E
330
1F
100
AcDbEntity
  8
SUNPO
 62
   144
100
AcDbTrace
 10
1969.225367331505
 20
2134.0
 30
0.0
 11
1973.892033998171
 21
2134.0
 31
0.0
 12
1971.558700664838
 22
2120.0
 32
0.0
 13
1971.558700664838
 23
2120.0
 33
0.0
  0
SOLID
  5
D6F
330
1F
100
AcDbEntity
  8
SUNPO
 62
   144
100
AcDbTrace
 10
1969.225367331505
 20
1986.0
 30
0.0
 11
1973.892033998171
 21
1986.0
 31
0.0
 12
1971.558700664838
 22
2000.0
 32
0.0
 13
1971.558700664838
 23
2000.0
 33
0.0
  0
TEXT
  5
D71
330
1F
100
AcDbEntity
  8
SUNPO
 62
     7
100
AcDbText
 10
1958.467785734617
 20
2152.670333516668
 30
0.0
 40
50.0
  1
20
 50
90.0
  7
ADD
100
AcDbText
  0
TEXT
  5
D72
330
1F
100
AcDbEntity
  8
SUNPO
100
AcDbText
 10
732.994730336708
 20
366.047334543382
 30
0.0
 40
85.0
  1
千葉市型Ｌ１型　斜切下げ（車）
  7
ADD
100
AcDbText
  0
LINE
  5
D73
330
1F
100
AcDbEntity
  8
SUNPO
 62
   144
100
AcDbLine
 10
1866.571962139886
 20
2321.279394981891
 30
0.0
 11
1735.687545899239
 21
2165.360838947155
 31
0.0
  0
LINE
  5
D75
330
1F
100
AcDbEntity
  8
SUNPO
 62
   144
100
AcDbLine
 10
1690.681676455087
 20
2111.746738977316
 30
0.0
 11
1703.540496296273
 21
2127.065053254413
 31
0.0
  0
SOLID
  5
D76
330
1F
100
AcDbEntity
  8
SUNPO
 62
   144
100
AcDbTrace
 10
1729.304914950449
 20
2170.71868054765
 30
0.0
 11
1742.07017684803
 21
2160.002997346661
 31
0.0
 12
1703.540496296273
 22
2127.065053254413
 32
0.0
 13
1703.540496296273
 23
2127.065053254413
 33
0.0
  0
LINE
  5
D77
330
1F
100
AcDbEntity
  8
SUNPO
 62
   144
100
AcDbLine
 10
1851.89068691969
 20
2488.815115188717
 30
0.0
 11
1703.664139126047
 21
2349.279395533169
 31
0.0
  0
LINE
  5
D79
330
1F
100
AcDbEntity
  8
SUNPO
 62
   144
100
AcDbLine
 10
1645.413706308898
 20
2294.444305703622
 30
0.0
 11
1667.257618615329
 21
2315.007464389702
 31
0.0
  0
SOLID
  5
D7A
330
1F
100
AcDbEntity
  8
SUNPO
 62
   144
100
AcDbTrace
 10
1697.952150602136
 20
2355.347148951623
 30
0.0
 11
1709.376127649959
 21
2343.211642114716
 31
0.0
 12
1667.257618615329
 22
2315.007464389702
 32
0.0
 13
1667.257618615329
 23
2315.007464389702
 33
0.0
  0
TEXT
  5
D7B
330
1F
100
AcDbEntity
  8
SUNPO
 62
     7
100
AcDbText
 10
1525.0
 20
2609.307971884655
 30
0.0
 40
50.0
  1
155
  7
ADD
100
AcDbText
  0
TEXT
  5
D7C
330
1F
100
AcDbEntity
  8
SUNPO
 62
     7
100
AcDbText
 10
1729.463417561003
 20
2615.356041371444
 30
0.0
 40
50.0
  1
22.5
  7
ADD
100
AcDbText
  0
TEXT
  5
D7D
330
1F
100
AcDbEntity
  8
SUNPO
 62
     7
100
AcDbText
 10
1297.818849753809
 20
2612.332011557708
 30
0.0
 40
50.0
  1
22.5
  7
ADD
100
AcDbText
  0
TEXT
  5
D7E
330
1F
100
AcDbEntity
  8
SUNPO
 62
     7
100
AcDbText
 10
1528.571428571428
 20
2764.311185405138
 30
0.0
 40
50.0
  1
200
  7
ADD
100
AcDbText
  0
TEXT
  5
D7F
330
1F
100
AcDbEntity
  8
SUNPO
 62
     7
100
AcDbText
 10
1813.571428571428
 20
2764.311185405138
 30
0.0
 40
50.0
  1
370
  7
ADD
100
AcDbText
  0
TEXT
  5
D80
330
1F
100
AcDbEntity
  8
SUNPO
 62
     7
100
AcDbText
 10
1713.571428571428
 20
2922.414463787592
 30
0.0
 40
50.0
  1
570
  7
ADD
100
AcDbText
  0
LINE
  5
D81
330
1F
100
AcDbEntity
  8
SUNPO
 62
   144
100
AcDbLine
 10
3000.0
 20
1980.0
 30
0.0
 11
3000.0
 21
1745.768892288026
 31
0.0
  0
LINE
  5
D82
330
1F
100
AcDbEntity
  8
SUNPO
 62
   144
100
AcDbLine
 10
5000.0
 20
1980.0
 30
0.0
 11
5000.0
 21
1745.768892288026
 31
0.0
  0
LINE
  5
D83
330
1F
100
AcDbEntity
  8
SUNPO
 62
   144
100
AcDbLine
 10
3014.0
 20
1755.768892288026
 30
0.0
 11
4986.0
 21
1755.768892288026
 31
0.0
  0
SOLID
  5
D84
330
1F
100
AcDbEntity
  8
SUNPO
 62
   144
100
AcDbTrace
 10
3014.0
 20
1758.102225621359
 30
0.0
 11
3014.0
 21
1753.435558954693
 31
0.0
 12
3000.0
 22
1755.768892288026
 32
0.0
 13
3000.0
 23
1755.768892288026
 33
0.0
  0
SOLID
  5
D85
330
1F
100
AcDbEntity
  8
SUNPO
 62
   144
100
AcDbTrace
 10
4986.0
 20
1758.102225621359
 30
0.0
 11
4986.0
 21
1753.435558954693
 31
0.0
 12
5000.0
 22
1755.768892288026
 32
0.0
 13
5000.0
 23
1755.768892288026
 33
0.0
  0
LINE
  5
D87
330
1F
100
AcDbEntity
  8
SUNPO
 62
   144
100
AcDbLine
 10
5020.0
 20
2143.0
 30
0.0
 11
5324.120863089082
 21
2142.999999999999
 31
0.0
  0
LINE
  5
D88
330
1F
100
AcDbEntity
  8
SUNPO
 62
   144
100
AcDbLine
 10
5020.0
 20
2000.0
 30
0.0
 11
5324.120863089081
 21
2000.0
 31
0.0
  0
LINE
  5
D89
330
1F
100
AcDbEntity
  8
SUNPO
 62
   144
100
AcDbLine
 10
5314.120863089082
 20
2156.999999999999
 30
0.0
 11
5314.120863089082
 21
2170.999999999999
 31
0.0
  0
LINE
  5
D8A
330
1F
100
AcDbEntity
  8
SUNPO
 62
   144
100
AcDbLine
 10
5314.120863089081
 20
1986.0
 30
0.0
 11
5314.120863089081
 21
1972.0
 31
0.0
  0
LINE
  5
D8B
330
1F
100
AcDbEntity
  8
SUNPO
 62
   144
100
AcDbLine
 10
5314.120863089082
 20
2142.999999999999
 30
0.0
 11
5314.120863089081
 21
2000.0
 31
0.0
  0
SOLID
  5
D8C
330
1F
100
AcDbEntity
  8
SUNPO
 62
   144
100
AcDbTrace
 10
5311.78752975575
 20
2156.999999999999
 30
0.0
 11
5316.454196422416
 21
2156.999999999999
 31
0.0
 12
5314.120863089082
 22
2142.999999999999
 32
0.0
 13
5314.120863089082
 23
2142.999999999999
 33
0.0
  0
SOLID
  5
D8D
330
1F
100
AcDbEntity
  8
SUNPO
 62
   144
100
AcDbTrace
 10
5311.787529755748
 20
1986.0
 30
0.0
 11
5316.454196422415
 21
1986.0
 31
0.0
 12
5314.120863089081
 22
2000.0
 32
0.0
 13
5314.120863089081
 23
2000.0
 33
0.0
  0
LINE
  5
D8F
330
1F
100
AcDbEntity
  8
SUNPO
 62
   144
100
AcDbLine
 10
2090.0
 20
2143.0
 30
0.0
 11
2340.833796133149
 21
2143.0
 31
0.0
  0
LINE
  5
D90
330
1F
100
AcDbEntity
  8
SUNPO
 62
   144
100
AcDbLine
 10
2090.0
 20
2000.0
 30
0.0
 11
2340.833796133149
 21
2000.0
 31
0.0
  0
LINE
  5
D91
330
1F
100
AcDbEntity
  8
SUNPO
 62
   144
100
AcDbLine
 10
2330.833796133148
 20
2157.0
 30
0.0
 11
2330.833796133148
 21
2171.0
 31
0.0
  0
LINE
  5
D92
330
1F
100
AcDbEntity
  8
SUNPO
 62
   144
100
AcDbLine
 10
2330.833796133148
 20
1986.0
 30
0.0
 11
2330.833796133148
 21
1972.0
 31
0.0
  0
LINE
  5
D93
330
1F
100
AcDbEntity
  8
SUNPO
 62
   144
100
AcDbLine
 10
2330.833796133148
 20
2143.0
 30
0.0
 11
2330.833796133148
 21
2000.0
 31
0.0
  0
SOLID
  5
D94
330
1F
100
AcDbEntity
  8
SUNPO
 62
   144
100
AcDbTrace
 10
2328.500462799815
 20
2157.0
 30
0.0
 11
2333.167129466482
 21
2157.0
 31
0.0
 12
2330.833796133148
 22
2143.0
 32
0.0
 13
2330.833796133148
 23
2143.0
 33
0.0
  0
SOLID
  5
D95
330
1F
100
AcDbEntity
  8
SUNPO
 62
   144
100
AcDbTrace
 10
2328.500462799815
 20
1986.0
 30
0.0
 11
2333.167129466482
 21
1986.0
 31
0.0
 12
2330.833796133148
 22
2000.0
 32
0.0
 13
2330.833796133148
 23
2000.0
 33
0.0
  0
LINE
  5
D97
330
1F
100
AcDbEntity
  8
SUNPO
 62
   144
100
AcDbLine
 10
1500.0
 20
1980.0
 30
0.0
 11
1500.0
 21
1755.768892288026
 31
0.0
  0
LINE
  5
D98
330
1F
100
AcDbEntity
  8
SUNPO
 62
   144
100
AcDbLine
 10
2070.0
 20
1980.0
 30
0.0
 11
2070.0
 21
1755.768892288026
 31
0.0
  0
LINE
  5
D99
330
1F
100
AcDbEntity
  8
SUNPO
 62
   144
100
AcDbLine
 10
1514.0
 20
1765.768892288026
 30
0.0
 11
2056.0
 21
1765.768892288026
 31
0.0
  0
SOLID
  5
D9A
330
1F
100
AcDbEntity
  8
SUNPO
 62
   144
100
AcDbTrace
 10
1514.0
 20
1768.102225621359
 30
0.0
 11
1514.0
 21
1763.435558954692
 31
0.0
 12
1500.0
 22
1765.768892288026
 32
0.0
 13
1500.0
 23
1765.768892288026
 33
0.0
  0
SOLID
  5
D9B
330
1F
100
AcDbEntity
  8
SUNPO
 62
   144
100
AcDbTrace
 10
2056.0
 20
1768.102225621359
 30
0.0
 11
2056.0
 21
1763.435558954692
 31
0.0
 12
2070.0
 22
1765.768892288026
 32
0.0
 13
2070.0
 23
1765.768892288026
 33
0.0
  0
TEXT
  5
D9D
330
1F
100
AcDbEntity
  8
SUNPO
100
AcDbText
 10
3246.680311730542
 20
359.2274732162223
 30
0.0
 40
70.0
  1
１／２０
  7
ADD
100
AcDbText
  0
TEXT
  5
D9E
330
1F
100
AcDbEntity
  8
SUNPO
100
AcDbText
 10
381.8862574011546
 20
488.6918916770627
 30
0.0
 40
50.0
  1
製品名
  7
ADD
100
AcDbText
  0
TEXT
  5
D9F
330
1F
100
AcDbEntity
  8
SUNPO
100
AcDbText
 10
2376.290169028722
 20
494.4531736811823
 30
0.0
 40
50.0
  1
型式
  7
ADD
100
AcDbText
  0
TEXT
  5
DA0
330
1F
100
AcDbEntity
  8
SUNPO
100
AcDbText
 10
3177.510249231658
 20
488.6918916770627
 30
0.0
 40
50.0
  1
縮尺
  7
ADD
100
AcDbText
  0
TEXT
  5
DA1
330
1F
100
AcDbEntity
  8
SUNPO
100
AcDbText
 10
3730.870883051572
 20
352.2726133092145
 30
0.0
 40
100.0
  1
千葉県コンクリート製品協同組合
  7
ADD
100
AcDbText
  0
LINE
  5
DA2
330
1F
100
AcDbEntity
  8
HOJO
100
AcDbLine
 10
360.0
 20
260.0
 30
0.0
 11
5580.0
 21
260.0
 31
0.0
  0
LINE
  5
DA3
330
1F
100
AcDbEntity
  8
HOJO
100
AcDbLine
 10
5580.0
 20
260.0
 30
0.0
 11
5580.0
 21
3940.0
 31
0.0
  0
LINE
  5
DA4
330
1F
100
AcDbEntity
  8
HOJO
100
AcDbLine
 10
5580.0
 20
3940.0
 30
0.0
 11
360.0
 21
3940.0
 31
0.0
  0
LINE
  5
DA5
330
1F
100
AcDbEntity
  8
HOJO
100
AcDbLine
 10
360.0
 20
3940.0
 30
0.0
 11
360.0
 21
260.0
 31
0.0
  0
LINE
  5
DA6
330
1F
100
AcDbEntity
  8
HOJO
100
AcDbLine
 10
0.0
 20
0.0
 30
0.0
 11
5940.0
 21
0.0
 31
0.0
  0
LINE
  5
DA7
330
1F
100
AcDbEntity
  8
HOJO
100
AcDbLine
 10
5940.0
 20
0.0
 30
0.0
 11
5940.0
 21
4200.0
 31
0.0
  0
LINE
  5
DA8
330
1F
100
AcDbEntity
  8
HOJO
100
AcDbLine
 10
5940.0
 20
4200.0
 30
0.0
 11
0.0
 21
4200.0
 31
0.0
  0
LINE
  5
DA9
330
1F
100
AcDbEntity
  8
HOJO
100
AcDbLine
 10
0.0
 20
4200.0
 30
0.0
 11
0.0
 21
0.0
 31
0.0
  0
TEXT
  5
DAA
330
1F
100
AcDbEntity
  8
SUNPO
 62
     7
100
AcDbText
 10
1713.571428571428
 20
1778.268892288026
 30
0.0
 40
50.0
  1
570
  7
ADD
100
AcDbText
  0
TEXT
  5
DAB
330
1F
100
AcDbEntity
  8
SUNPO
 62
     7
100
AcDbText
 10
2318.333796133148
 20
1996.5
 30
0.0
 40
50.0
  1
143
 50
90.0
  7
ADD
100
AcDbText
  0
TEXT
  5
DAC
330
1F
100
AcDbEntity
  8
SUNPO
 62
     7
100
AcDbText
 10
5301.620863089081
 20
1996.5
 30
0.0
 40
50.0
  1
143
 50
90.0
  7
ADD
100
AcDbText
  0
TEXT
  5
DAD
330
1F
100
AcDbEntity
  8
SUNPO
 62
     7
100
AcDbText
 10
3904.761904761904
 20
1768.268892288026
 30
0.0
 40
50.0
  1
2000
  7
ADD
100
AcDbText
  0
TEXT
  5
DAE
330
1F
100
AcDbEntity
  8
SUNPO
 62
     7
100
AcDbText
 10
1733.669731643205
 20
2394.692952705714
 30
0.0
 40
50.0
  1
R30
 50
43.27011212055067
  7
ADD
100
AcDbText
  0
TEXT
  5
DAF
330
1F
100
AcDbEntity
  8
SUNPO
 62
     7
100
AcDbText
 10
1760.174163936339
 20
2213.972898093778
 30
0.0
 40
50.0
  1
R20
 50
49.98852690451155
  7
ADD
100
AcDbText
  0
TEXT
  5
DB0
330
1F
100
AcDbEntity
  8
SUNPO
 62
     7
100
AcDbText
 10
1959.058700664838
 20
1985.0
 30
0.0
 40
50.0
  1
120
 50
90.0
  7
ADD
100
AcDbText
  0
TEXT
  5
DB1
330
1F
100
AcDbEntity
  8
SUNPO
 62
     7
100
AcDbText
 10
1301.563780026477
 20
2170.0
 30
0.0
 40
50.0
  1
150
 50
90.0
  7
ADD
100
AcDbText
  0
TEXT
  5
DB2
330
1F
100
AcDbEntity
  8
SUNPO
 62
     7
100
AcDbText
 10
1132.58763370111
 20
1985.0
 30
0.0
 40
50.0
  1
120
 50
90.0
  7
ADD
100
AcDbText
  0
TEXT
  5
DB3
330
1F
100
AcDbEntity
  8
SUNPO
 62
     7
100
AcDbText
 10
1132.58763370111
 20
2148.571428571429
 30
0.0
 40
50.0
  1
200
 50
90.0
  7
ADD
100
AcDbText
  0
TEXT
  5
DB4
330
1F
100
AcDbEntity
  8
SUNPO
 62
     7
100
AcDbText
 10
952.2399048420954
 20
2088.571428571428
 30
0.0
 40
50.0
  1
320
 50
90.0
  7
ADD
100
AcDbText
  0
TEXT
  5
DB5
330
1F
100
AcDbEntity
  8
SUNPO
 62
     7
100
AcDbText
 10
3227.380952380952
 20
2641.507651295762
 30
0.0
 40
50.0
  1
600
  7
ADD
100
AcDbText
  0
TEXT
  5
DB6
330
1F
100
AcDbEntity
  8
SUNPO
 62
     7
100
AcDbText
 10
4201.190476190475
 20
2641.507651295762
 30
0.0
 40
50.0
  1
1400
  7
ADD
100
AcDbText
  0
TEXT
  5
DB7
330
1F
100
AcDbEntity
  8
SUNPO
 62
     7
100
AcDbText
 10
3904.761904761904
 20
2838.215695626319
 30
0.0
 40
50.0
  1
2000
  7
ADD
100
AcDbText
  0
TEXT
  5
DB8
330
1F
100
AcDbEntity
  8
SUNPO
 62
     7
100
AcDbText
 10
3592.566393538232
 20
1985.000000000001
 30
0.0
 40
50.0
  1
120
 50
90.0
  7
ADD
100
AcDbText
  0
TEXT
  5
DB9
330
1F
100
AcDbEntity
  8
SUNPO
 62
     7
100
AcDbText
 10
2874.548983531862
 20
2170.000000000001
 30
0.0
 40
50.0
  1
150
 50
90.0
  7
ADD
100
AcDbText
  0
TEXT
  5
DBA
330
1F
100
AcDbEntity
  8
SUNPO
 62
     7
100
AcDbText
 10
2739.280472492493
 20
1985.0
 30
0.0
 40
50.0
  1
120
 50
90.0
  7
ADD
100
AcDbText
  0
TEXT
  5
DBB
330
1F
100
AcDbEntity
  8
SUNPO
 62
     7
100
AcDbText
 10
2739.280472492493
 20
2148.571428571429
 30
0.0
 40
50.0
  1
200
 50
90.0
  7
ADD
100
AcDbText
  0
TEXT
  5
DBC
330
1F
100
AcDbEntity
  8
SUNPO
 62
     7
100
AcDbText
 10
2593.938779223917
 20
2088.571428571429
 30
0.0
 40
50.0
  1
320
 50
90.0
  7
ADD
100
AcDbText
  0
VIEWPORT
  5
72
330
1B
100
AcDbEntity
 67
     1
  8
0
100
AcDbViewport
 10
429.8380103383459
 20
277.0
 30
0.0
 40
948.9782706766918
 41
628.4520000000001
 68
     1
 69
     1
1001
ACAD
1000
MVIEW
1002
{
1070
    16
1010
0.0
1020
0.0
1030
0.0
1010
0.0
1020
0.0
1030
1.0
1040
0.0
1040
628.4520000000001
1040
429.8380103383459
1040
277.0
1040
50.0
1040
0.0
1040
0.0
1070
     0
1070
   100
1070
     1
1070
     1
1070
     0
1070
     0
1070
     0
1070
     0
1040
0.0
1040
0.0
1040
0.0
1040
10.0
1040
10.0
1040
10.0
1040
10.0
1070
     0
1002
{
1002
}
1002
}
  0
VIEWPORT
  5
74
330
1B
100
AcDbEntity
 67
     1
  8
VIEWPORT
100
AcDbViewport
 10
414.3779638919211
 20
277.3177265058034
 30
0.0
 40
840.0353682728887
 41
567.2285469943826
 68
     2
 69
     2
1001
ACAD
1000
MVIEW
1002
{
1070
    16
1010
0.0
1020
0.0
1030
0.0
1010
0.0
1020
0.0
1030
1.0
1040
0.0
1040
579.5583043546323
1040
424.4938908624541
1040
286.1973242720074
1040
50.0
1040
0.0
1040
0.0
1070
     0
1070
   100
1070
     1
1070
     1
1070
     0
1070
     0
1070
     0
1070
     0
1040
0.0
1040
0.0
1040
0.0
1040
10.0
1040
10.0
1040
10.0
1040
10.0
1070
     0
1002
{
1002
}
1002
}
  0
ENDSEC
  0
SECTION
  2
OBJECTS
  0
DICTIONARY
  5
C
330
0
100
AcDbDictionary
  3
ACAD_GROUP
350
D
  3
ACAD_LAYOUT
350
1A
  3
ACAD_MLINESTYLE
350
17
  3
ACAD_PLOTSETTINGS
350
19
  3
DWGPROPS
350
4C7
1001
ACAD
1000
TREAT_AS_HARD
1070
     0
  0
DICTIONARY
  5
C9E
330
1F
100
AcDbDictionary
  3
ACAD_LAYOUTSELFREF
350
DBF
1001
ACAD
1000
TREAT_AS_HARD
1070
     1
  0
DICTIONARY
  5
CA0
330
1B
100
AcDbDictionary
  3
ACAD_LAYOUTSELFREF
350
DBE
1001
ACAD
1000
TREAT_AS_HARD
1070
     1
  0
DICTIONARY
  5
D
102
{ACAD_REACTORS
330
C
102
}
330
C
100
AcDbDictionary
1001
ACAD
1000
TREAT_AS_HARD
1070
     0
  0
DICTIONARY
  5
1A
102
{ACAD_REACTORS
330
C
102
}
330
C
100
AcDbDictionary
1001
ACAD
1000
TREAT_AS_HARD
1070
     0
  0
DICTIONARY
  5
17
102
{ACAD_REACTORS
330
C
102
}
330
C
100
AcDbDictionary
  3
STANDARD
350
18
1001
ACAD
1000
TREAT_AS_HARD
1070
     0
  0
DICTIONARY
  5
19
102
{ACAD_REACTORS
330
C
102
}
330
C
100
AcDbDictionary
1001
ACAD
1000
TREAT_AS_HARD
1070
     0
  0
XRECORD
  5
4C7
102
{ACAD_REACTORS
330
C
102
}
330
C
100
AcDbXrecord
  1
DWGPROPS COOKIE
  2
印刷用テスト
  3
AutoCAD2000による建築設計
  4
鈴木 裕二
  6

  7

  8
U2
  9

300
=
301
=
302
=
303
=
304
=
305
=
306
=
307
=
308
=
309
=
 40
0.7653446875
 41
2451285.4846114
 42
2451333.689743032
  1

 90
        0
  0
XRECORD
  5
DBF
102
{ACAD_REACTORS
330
C9E
102
}
330
C9E
100
AcDbXrecord
340
1F
  0
XRECORD
  5
DBE
102
{ACAD_REACTORS
330
CA0
102
}
330
CA0
100
AcDbXrecord
340
1B
  0
MLINESTYLE
  5
18
102
{ACAD_REACTORS
330
17
102
}
330
17
100
AcDbMlineStyle
  2
STANDARD
 70
     0
  3

 62
   256
 51
90.0
 52
90.0
 71
     2
 49
0.5
 62
   256
  6
BYLAYER
 49
-0.5
 62
   256
  6
BYLAYER
  0
ENDSEC
  0
EOF
