  0
SECTION
  2
HEADER
  9
$ACADVER
  1
AC1012
  9
$DWGCODEPAGE
  3
dos932
  9
$INSBASE
 10
0.0
 20
0.0
 30
0.0
  9
$EXTMIN
 10
0.0
 20
0.0
 30
0.0
  9
$EXTMAX
 10
5940.0
 20
4200.0
 30
0.0
  9
$LIMMIN
 10
0.0
 20
0.0
  9
$LIMMAX
 10
5940.0
 20
4200.0
  9
$ORTHOMODE
 70
     1
  9
$REGENMODE
 70
     1
  9
$FILLMODE
 70
     1
  9
$QTEXTMODE
 70
     0
  9
$MIRRTEXT
 70
     0
  9
$DRAGMODE
 70
     2
  9
$LTSCALE
 40
10.0
  9
$OSMODE
 70
  3071
  9
$ATTMODE
 70
     1
  9
$TEXTSIZE
 40
50.0
  9
$TRACEWID
 40
1.0
  9
$TEXTSTYLE
  7
ADD
  9
$CLAYER
  8
MOJI
  9
$CELTYPE
  6
BYLAYER
  9
$CECOLOR
 62
   256
  9
$CELTSCALE
 40
1.0
  9
$DELOBJ
 70
     1
  9
$DISPSILH
 70
     0
  9
$DIMSCALE
 40
20.0
  9
$DIMASZ
 40
2.5
  9
$DIMEXO
 40
1.0
  9
$DIMDLI
 40
7.0
  9
$DIMRND
 40
0.0
  9
$DIMDLE
 40
0.0
  9
$DIMEXE
 40
0.5
  9
$DIMTP
 40
0.0
  9
$DIMTM
 40
0.0
  9
$DIMTXT
 40
2.5
  9
$DIMCEN
 40
2.5
  9
$DIMTSZ
 40
0.0
  9
$DIMTOL
 70
     0
  9
$DIMLIM
 70
     0
  9
$DIMTIH
 70
     0
  9
$DIMTOH
 70
     0
  9
$DIMSE1
 70
     0
  9
$DIMSE2
 70
     0
  9
$DIMTAD
 70
     1
  9
$DIMZIN
 70
     8
  9
$DIMBLK
  1

  9
$DIMASO
 70
     1
  9
$DIMSHO
 70
     1
  9
$DIMPOST
  1

  9
$DIMAPOST
  1

  9
$DIMALT
 70
     0
  9
$DIMALTD
 70
     3
  9
$DIMALTF
 40
0.03937007874016
  9
$DIMLFAC
 40
1.0
  9
$DIMTOFL
 70
     1
  9
$DIMTVP
 40
0.7
  9
$DIMTIX
 70
     1
  9
$DIMSOXD
 70
     0
  9
$DIMSAH
 70
     0
  9
$DIMBLK1
  1

  9
$DIMBLK2
  1

  9
$DIMSTYLE
  2
ADD
  9
$DIMCLRD
 70
   144
  9
$DIMCLRE
 70
   144
  9
$DIMCLRT
 70
     7
  9
$DIMTFAC
 40
1.0
  9
$DIMGAP
 40
0.625
  9
$DIMJUST
 70
     0
  9
$DIMSD1
 70
     0
  9
$DIMSD2
 70
     0
  9
$DIMTOLJ
 70
     2
  9
$DIMTZIN
 70
     8
  9
$DIMALTZ
 70
     0
  9
$DIMALTTZ
 70
     0
  9
$DIMFIT
 70
     5
  9
$DIMUPT
 70
     0
  9
$DIMUNIT
 70
     2
  9
$DIMDEC
 70
     1
  9
$DIMTDEC
 70
     1
  9
$DIMALTU
 70
     2
  9
$DIMALTTD
 70
     3
  9
$DIMTXSTY
  7
ADD
  9
$DIMAUNIT
 70
     0
  9
$LUNITS
 70
     2
  9
$LUPREC
 70
     4
  9
$SKETCHINC
 40
1.0
  9
$FILLETRAD
 40
0.0
  9
$AUNITS
 70
     0
  9
$AUPREC
 70
     1
  9
$MENU
  1
.
  9
$ELEVATION
 40
0.0
  9
$PELEVATION
 40
0.0
  9
$THICKNESS
 40
0.0
  9
$LIMCHECK
 70
     0
  9
$BLIPMODE
 70
     0
  9
$CHAMFERA
 40
10.0
  9
$CHAMFERB
 40
10.0
  9
$CHAMFERC
 40
20.0
  9
$CHAMFERD
 40
0.0
  9
$SKPOLY
 70
     0
  9
$TDCREATE
 40
2451801.142532870
  9
$TDUPDATE
 40
2452523.642531238
  9
$TDINDWG
 40
0.1531554861
  9
$TDUSRTIMER
 40
0.1531554861
  9
$USRTIMER
 70
     1
  9
$ANGBASE
 50
0.0
  9
$ANGDIR
 70
     0
  9
$PDMODE
 70
     0
  9
$PDSIZE
 40
0.0
  9
$PLINEWID
 40
0.0
  9
$COORDS
 70
     1
  9
$SPLFRAME
 70
     0
  9
$SPLINETYPE
 70
     6
  9
$SPLINESEGS
 70
     8
  9
$ATTDIA
 70
     0
  9
$ATTREQ
 70
     1
  9
$HANDLING
 70
 22529
  9
$HANDSEED
  5
F05
  9
$SURFTAB1
 70
     6
  9
$SURFTAB2
 70
     6
  9
$SURFTYPE
 70
     6
  9
$SURFU
 70
     6
  9
$SURFV
 70
     6
  9
$UCSNAME
  2

  9
$UCSORG
 10
0.0
 20
0.0
 30
0.0
  9
$UCSXDIR
 10
1.0
 20
0.0
 30
0.0
  9
$UCSYDIR
 10
0.0
 20
1.0
 30
0.0
  9
$PUCSNAME
  2

  9
$PUCSORG
 10
0.0
 20
0.0
 30
0.0
  9
$PUCSXDIR
 10
1.0
 20
0.0
 30
0.0
  9
$PUCSYDIR
 10
0.0
 20
1.0
 30
0.0
  9
$USERI1
 70
     0
  9
$USERI2
 70
     0
  9
$USERI3
 70
     0
  9
$USERI4
 70
     0
  9
$USERI5
 70
     0
  9
$USERR1
 40
841.0
  9
$USERR2
 40
594.0
  9
$USERR3
 40
1.0
  9
$USERR4
 40
0.0
  9
$USERR5
 40
0.0
  9
$WORLDVIEW
 70
     1
  9
$SHADEDGE
 70
     3
  9
$SHADEDIF
 70
    70
  9
$TILEMODE
 70
     1
  9
$MAXACTVP
 70
    48
  9
$PINSBASE
 10
0.0
 20
0.0
 30
0.0
  9
$PLIMCHECK
 70
     0
  9
$PEXTMIN
 10
-5.639720244523232
 20
-6.296546991387913
 30
0.0
  9
$PEXTMAX
 10
834.3956480283654
 20
560.9320000029947
 30
0.0
  9
$PLIMMIN
 10
-7.500000000000001
 20
-20.0
  9
$PLIMMAX
 10
833.5000000000002
 20
574.0000000000001
  9
$UNITMODE
 70
     0
  9
$VISRETAIN
 70
     1
  9
$PLINEGEN
 70
     0
  9
$PSLTSCALE
 70
     1
  9
$TREEDEPTH
 70
  3020
  9
$PICKSTYLE
 70
     1
  9
$CMLSTYLE
  2
STANDARD
  9
$CMLJUST
 70
     0
  9
$CMLSCALE
 40
20.0
  9
$SAVEIMAGES
 70
     1
  0
ENDSEC
  0
SECTION
  2
CLASSES
  0
CLASS
  1
ACDBDICTIONARYWDFLT
  2
AcDbDictionaryWithDefault
  3
AutoCAD 2000
 90
    32768
280
     0
281
     0
  0
CLASS
  1
ACDBPLACEHOLDER
  2
AcDbPlaceHolder
  3
AutoCAD 2000
 90
    32768
280
     0
281
     0
  0
CLASS
  1
LAYOUT
  2
AcDbLayout
  3
AutoCAD 2000
 90
    32768
280
     0
281
     0
  0
CLASS
  1
RTEXT
  2
RText
  3
RText|AutoCAD Express Tool|expresstools@autodesk.com
 90
    32768
280
     0
281
     1
  0
CLASS
  1
DICTIONARYVAR
  2
AcDbDictionaryVar
  3
AutoCAD 2000
 90
    32768
280
     0
281
     0
  0
CLASS
  1
LONG_TRANSACTION
  2
AcDbLongTransaction
  3
AutoCAD 2000
 90
    32768
280
     0
281
     0
  0
CLASS
  1
LWPOLYLINE
  2
AcDbPolyline
  3
AutoCAD 2000
 90
    32768
280
     0
281
     1
  0
CLASS
  1
HATCH
  2
AcDbHatch
  3
AutoCAD 2000
 90
    32768
280
     0
281
     1
  0
CLASS
  1
XRECORD
  2
AcDbXrecord
  3
AutoCAD 2000
 90
    32768
280
     0
281
     0
  0
CLASS
  1
LONG_TRANSACTION
  2
AcDbLongTransaction
  3
AutoCAD 2000
 90
    32768
280
     0
281
     0
  0
CLASS
  1
LWPOLYLINE
  2
AcDbPolyline
  3
AutoCAD 2000
 90
    32768
280
     0
281
     1
  0
CLASS
  1
HATCH
  2
AcDbHatch
  3
AutoCAD 2000
 90
    32768
280
     0
281
     1
  0
CLASS
  1
XRECORD
  2
AcDbXrecord
  3
AutoCAD 2000
 90
    32768
280
     0
281
     0
  0
CLASS
  1
LONG_TRANSACTION
  2
AcDbLongTransaction
  3
AutoCAD 2000
 90
    32768
280
     0
281
     0
  0
CLASS
  1
LWPOLYLINE
  2
AcDbPolyline
  3
AutoCAD 2000
 90
    32768
280
     0
281
     1
  0
CLASS
  1
HATCH
  2
AcDbHatch
  3
AutoCAD 2000
 90
    32768
280
     0
281
     1
  0
CLASS
  1
XRECORD
  2
AcDbXrecord
  3
AutoCAD 2000
 90
    32768
280
     0
281
     0
  0
CLASS
  1
LONG_TRANSACTION
  2
AcDbLongTransaction
  3
AutoCAD 2000
 90
    32768
280
     0
281
     0
  0
CLASS
  1
LWPOLYLINE
  2
AcDbPolyline
  3
AutoCAD 2000
 90
    32768
280
     0
281
     1
  0
CLASS
  1
HATCH
  2
AcDbHatch
  3
AutoCAD 2000
 90
    32768
280
     0
281
     1
  0
CLASS
  1
XRECORD
  2
AcDbXrecord
  3
AutoCAD 2000
 90
    32768
280
     0
281
     0
  0
ENDSEC
  0
SECTION
  2
TABLES
  0
TABLE
  2
VPORT
  5
8
330
0
100
AcDbSymbolTable
 70
     3
  0
VPORT
  5
EF5
330
8
100
AcDbSymbolTableRecord
100
AcDbViewportTableRecord
  2
*ACTIVE
 70
     0
 10
0.0
 20
0.0
 11
1.0
 21
1.0
 12
3145.800323806844
 22
2101.794971343902
 13
0.0
 23
0.0
 14
10.0
 24
10.0
 15
10.0
 25
10.0
 16
0.0
 26
0.0
 36
1.0
 17
0.0
 27
0.0
 37
0.0
 40
4385.450848650047
 41
1.625850340136054
 42
50.0
 43
0.0
 44
0.0
 50
0.0
 51
0.0
 71
     0
 72
   100
 73
     1
 74
     1
 75
     0
 76
     0
 77
     0
 78
     0
  0
ENDTAB
  0
TABLE
  2
LTYPE
  5
5
330
0
100
AcDbSymbolTable
 70
     5
  0
LTYPE
  5
14
330
5
100
AcDbSymbolTableRecord
100
AcDbLinetypeTableRecord
  2
BYBLOCK
 70
     0
  3

 72
    65
 73
     0
 40
0.0
  0
LTYPE
  5
15
330
5
100
AcDbSymbolTableRecord
100
AcDbLinetypeTableRecord
  2
BYLAYER
 70
     0
  3

 72
    65
 73
     0
 40
0.0
  0
LTYPE
  5
16
330
5
100
AcDbSymbolTableRecord
100
AcDbLinetypeTableRecord
  2
CONTINUOUS
 70
     0
  3
Solid line
 72
    65
 73
     0
 40
0.0
  0
LTYPE
  5
555
330
5
100
AcDbSymbolTableRecord
100
AcDbLinetypeTableRecord
  2
CENTER
 70
     0
  3
Center ____ _ ____ _ ____ _ ____ _ ____ _ ____
 72
    65
 73
     4
 40
50.8
 49
31.75
 74
     0
 49
-6.349999999999999
 74
     0
 49
6.349999999999999
 74
     0
 49
-6.349999999999999
 74
     0
  0
LTYPE
  5
556
330
5
100
AcDbSymbolTableRecord
100
AcDbLinetypeTableRecord
  2
HIDDEN
 70
     0
  3
Hidden __ __ __ __ __ __ __ __ __ __ __ __ __ _
 72
    65
 73
     2
 40
9.524999999999998
 49
6.349999999999999
 74
     0
 49
-3.174999999999999
 74
     0
  0
LTYPE
  5
557
330
5
100
AcDbSymbolTableRecord
100
AcDbLinetypeTableRecord
  2
HIDDEN2
 70
     0
  3
Hidden (.5x) _ _ _ _ _ _ _ _ _ _ _ _ _ _ _ _ _
 72
    65
 73
     2
 40
4.762499999999999
 49
3.174999999999999
 74
     0
 49
-1.587499999999999
 74
     0
  0
LTYPE
  5
558
330
5
100
AcDbSymbolTableRecord
100
AcDbLinetypeTableRecord
  2
PHANTOM
 70
     0
  3
Phantom ______  __  __  ______  __  __  ______
 72
    65
 73
     6
 40
63.5
 49
31.75
 74
     0
 49
-6.349999999999999
 74
     0
 49
6.349999999999999
 74
     0
 49
-6.349999999999999
 74
     0
 49
6.349999999999999
 74
     0
 49
-6.349999999999999
 74
     0
  0
ENDTAB
  0
TABLE
  2
LAYER
  5
2
330
0
100
AcDbSymbolTable
 70
    22
  0
LAYER
  5
10
330
2
100
AcDbSymbolTableRecord
100
AcDbLayerTableRecord
  2
0
 70
     0
 62
     7
  6
CONTINUOUS
  0
LAYER
  5
75
330
2
100
AcDbSymbolTableRecord
100
AcDbLayerTableRecord
  2
VIEWPORT
 70
     0
 62
     1
  6
CONTINUOUS
  0
LAYER
  5
504
330
2
100
AcDbSymbolTableRecord
100
AcDbLayerTableRecord
  2
DEFPOINTS
 70
     0
 62
     7
  6
CONTINUOUS
  0
LAYER
  5
505
330
2
100
AcDbSymbolTableRecord
100
AcDbLayerTableRecord
  2
1C1
 70
     0
 62
   254
  6
CONTINUOUS
  0
LAYER
  5
506
330
2
100
AcDbSymbolTableRecord
100
AcDbLayerTableRecord
  2
1C2
 70
     0
 62
   254
  6
CONTINUOUS
  0
LAYER
  5
507
330
2
100
AcDbSymbolTableRecord
100
AcDbLayerTableRecord
  2
2C1
 70
     0
 62
   144
  6
CONTINUOUS
  0
LAYER
  5
508
330
2
100
AcDbSymbolTableRecord
100
AcDbLayerTableRecord
  2
2C2
 70
     0
 62
   144
  6
CONTINUOUS
  0
LAYER
  5
509
330
2
100
AcDbSymbolTableRecord
100
AcDbLayerTableRecord
  2
2H1
 70
     0
 62
   144
  6
HIDDEN
  0
LAYER
  5
50A
330
2
100
AcDbSymbolTableRecord
100
AcDbLayerTableRecord
  2
2H2
 70
     0
 62
   144
  6
HIDDEN2
  0
LAYER
  5
50B
330
2
100
AcDbSymbolTableRecord
100
AcDbLayerTableRecord
  2
2P1
 70
     0
 62
   144
  6
PHANTOM
  0
LAYER
  5
50C
330
2
100
AcDbSymbolTableRecord
100
AcDbLayerTableRecord
  2
3C1
 70
     0
 62
     7
  6
CONTINUOUS
  0
LAYER
  5
50D
330
2
100
AcDbSymbolTableRecord
100
AcDbLayerTableRecord
  2
3C2
 70
     0
 62
     7
  6
CONTINUOUS
  0
LAYER
  5
50E
330
2
100
AcDbSymbolTableRecord
100
AcDbLayerTableRecord
  2
3C3
 70
     0
 62
     7
  6
CONTINUOUS
  0
LAYER
  5
50F
330
2
100
AcDbSymbolTableRecord
100
AcDbLayerTableRecord
  2
4H1
 70
     0
 62
     6
  6
HIDDEN
  0
LAYER
  5
510
330
2
100
AcDbSymbolTableRecord
100
AcDbLayerTableRecord
  2
4H2
 70
     0
 62
     6
  6
HIDDEN2
  0
LAYER
  5
511
330
2
100
AcDbSymbolTableRecord
100
AcDbLayerTableRecord
  2
5C1
 70
     0
 62
    55
  6
CONTINUOUS
  0
LAYER
  5
512
330
2
100
AcDbSymbolTableRecord
100
AcDbLayerTableRecord
  2
5C2
 70
     0
 62
    55
  6
CONTINUOUS
  0
LAYER
  5
513
330
2
100
AcDbSymbolTableRecord
100
AcDbLayerTableRecord
  2
8C1
 70
     0
 62
    92
  6
CONTINUOUS
  0
LAYER
  5
514
330
2
100
AcDbSymbolTableRecord
100
AcDbLayerTableRecord
  2
HOJO
 70
     0
 62
     5
  6
CONTINUOUS
  0
LAYER
  5
515
330
2
100
AcDbSymbolTableRecord
100
AcDbLayerTableRecord
  2
KIJUN
 70
     0
 62
     1
  6
CENTER
  0
LAYER
  5
516
330
2
100
AcDbSymbolTableRecord
100
AcDbLayerTableRecord
  2
MOJI
 70
     0
 62
     7
  6
CONTINUOUS
  0
LAYER
  5
517
330
2
100
AcDbSymbolTableRecord
100
AcDbLayerTableRecord
  2
SUNPO
 70
     0
 62
   144
  6
CONTINUOUS
  0
ENDTAB
  0
TABLE
  2
STYLE
  5
3
330
0
100
AcDbSymbolTable
 70
     6
  0
STYLE
  5
11
330
3
100
AcDbSymbolTableRecord
100
AcDbTextStyleTableRecord
  2
STANDARD
 70
     0
 40
0.0
 41
1.0
 50
0.0
 71
     0
 42
2.5
  3
txt
  4

  0
STYLE
  5
2C
330
3
100
AcDbSymbolTableRecord
100
AcDbTextStyleTableRecord
  2

 70
     1
 40
0.0
 41
1.0
 50
0.0
 71
     0
 42
2.5
  3
ltypeshp.shx
  4

  0
STYLE
  5
18E
330
3
100
AcDbSymbolTableRecord
100
AcDbTextStyleTableRecord
  2
ADD
 70
     0
 40
0.0
 41
1.0
 50
0.0
 71
     0
 42
50.0
  3
romans.shx
  4
bigfont.shx
  0
STYLE
  5
191
330
3
100
AcDbSymbolTableRecord
100
AcDbTextStyleTableRecord
  2
MSG
 70
     0
 40
0.0
 41
1.0
 50
0.0
 71
     0
 42
2.5
  3
MS Gothic.ttf
  4

1001
ACAD
1000
MS Gothic
1071
    32817
  0
STYLE
  5
5C8
330
3
100
AcDbSymbolTableRecord
100
AcDbTextStyleTableRecord
  2
STANDARD15
 70
     0
 40
0.0
 41
1.0
 50
15.0
 71
     0
 42
2.5
  3
ROMANS
  4
bigfont
  0
STYLE
  5
5C9
330
3
100
AcDbSymbolTableRecord
100
AcDbTextStyleTableRecord
  2
ROMANS15
 70
     0
 40
0.0
 41
1.0
 50
15.0
 71
     0
 42
2.5
  3
romans
  4

  0
ENDTAB
  0
TABLE
  2
VIEW
  5
6
330
0
100
AcDbSymbolTable
 70
     1
  0
VIEW
  5
54D
330
6
100
AcDbSymbolTableRecord
100
AcDbViewTableRecord
  2
ALL
 70
     0
 40
594.0
 10
420.5
 20
297.0
 41
865.125
 11
0.0
 21
0.0
 31
1.0
 12
0.0
 22
0.0
 32
0.0
 42
50.0
 43
0.0
 44
0.0
 50
0.0
 71
     0
  0
ENDTAB
  0
TABLE
  2
UCS
  5
7
330
0
100
AcDbSymbolTable
 70
     0
  0
ENDTAB
  0
TABLE
  2
APPID
  5
9
330
0
100
AcDbSymbolTable
 70
     4
  0
APPID
  5
12
330
9
100
AcDbSymbolTableRecord
100
AcDbRegAppTableRecord
  2
ACAD
 70
     0
  0
APPID
  5
5CB
330
9
100
AcDbSymbolTableRecord
100
AcDbRegAppTableRecord
  2
ARAIGUMI_YOHEKI
 70
     0
  0
APPID
  5
5CC
330
9
100
AcDbSymbolTableRecord
100
AcDbRegAppTableRecord
  2
CONTENTTABDATA
 70
     0
  0
APPID
  5
5CD
330
9
100
AcDbSymbolTableRecord
100
AcDbRegAppTableRecord
  2
CONTENTCURRENTTAB
 70
     0
  0
ENDTAB
  0
TABLE
  2
DIMSTYLE
  5
A
330
0
100
AcDbSymbolTable
 70
    10
  0
DIMSTYLE
105
27
330
A
100
AcDbSymbolTableRecord
100
AcDbDimStyleTableRecord
  2
ISO-25
 70
     0
  3

  4

  5

  6

  7

 40
1.0
 41
2.5
 42
0.625
 43
3.75
 44
1.25
 45
0.0
 46
0.0
 47
0.0
 48
0.0
140
2.5
141
2.5
142
0.0
143
0.03937007874016
144
1.0
145
0.0
146
1.0
147
0.625
 71
     0
 72
     0
 73
     0
 74
     0
 75
     0
 76
     0
 77
     1
 78
     8
170
     0
171
     3
172
     1
173
     0
174
     0
175
     0
176
     0
177
     0
178
     0
270
     2
271
     2
272
     2
273
     2
274
     3
340
11
275
     0
280
     0
281
     0
282
     0
283
     0
284
     8
285
     0
286
     0
287
     3
288
     0
  0
DIMSTYLE
105
197
330
A
100
AcDbSymbolTableRecord
100
AcDbDimStyleTableRecord
  2
ADD
 70
     0
  3

  4

  5

  6

  7

 40
1.0
 41
2.5
 42
1.0
 43
7.0
 44
0.5
 45
0.0
 46
0.0
 47
0.0
 48
0.0
140
2.5
141
2.5
142
0.0
143
0.03937007874016
144
1.0
145
0.7
146
1.0
147
0.625
 71
     0
 72
     0
 73
     0
 74
     0
 75
     0
 76
     0
 77
     1
 78
     8
170
     0
171
     3
172
     1
173
     0
174
     1
175
     0
176
   144
177
   144
178
     7
270
     2
271
     1
272
     1
273
     2
274
     3
340
18E
275
     0
280
     0
281
     0
282
     0
283
     2
284
     8
285
     0
286
     0
287
     5
288
     0
  0
DIMSTYLE
105
3E6
330
A
100
AcDbSymbolTableRecord
100
AcDbDimStyleTableRecord
  2
ADD$2
 70
     0
  3

  4

  5

  6

  7

 40
1.0
 41
2.5
 42
1.0
 43
7.0
 44
0.5
 45
0.0
 46
0.0
 47
0.0
 48
0.0
140
2.5
141
2.5
142
0.0
143
0.03937007874016
144
1.0
145
0.7
146
1.0
147
0.625
 71
     0
 72
     0
 73
     0
 74
     0
 75
     0
 76
     0
 77
     1
 78
     8
170
     0
171
     3
172
     1
173
     0
174
     1
175
     0
176
   144
177
   144
178
     7
270
     2
271
     1
272
     1
273
     2
274
     3
340
18E
275
     0
280
     0
281
     0
282
     0
283
     2
284
     8
285
     0
286
     0
287
     5
288
     0
  0
DIMSTYLE
105
3E7
330
A
100
AcDbSymbolTableRecord
100
AcDbDimStyleTableRecord
  2
ADD$4
 70
     0
  3

  4

  5

  6

  7

 40
1.0
 41
2.5
 42
1.0
 43
7.0
 44
0.5
 45
0.0
 46
0.0
 47
0.0
 48
0.0
140
2.5
141
2.5
142
0.0
143
0.03937007874016
144
1.0
145
0.0
146
1.0
147
0.625
 71
     0
 72
     0
 73
     0
 74
     0
 75
     0
 76
     0
 77
     1
 78
     8
170
     0
171
     3
172
     1
173
     0
174
     1
175
     0
176
   144
177
   144
178
     7
270
     2
271
     1
272
     1
273
     2
274
     3
340
18E
275
     0
280
     0
281
     0
282
     0
283
     2
284
     8
285
     0
286
     0
287
     5
288
     0
  0
DIMSTYLE
105
3E8
330
A
100
AcDbSymbolTableRecord
100
AcDbDimStyleTableRecord
  2
ADD$3
 70
     0
  3

  4

  5

  6

  7

 40
1.0
 41
2.5
 42
1.0
 43
7.0
 44
0.5
 45
0.0
 46
0.0
 47
0.0
 48
0.0
140
2.5
141
2.5
142
0.0
143
0.03937007874016
144
1.0
145
0.0
146
1.0
147
0.625
 71
     0
 72
     0
 73
     0
 74
     0
 75
     0
 76
     0
 77
     1
 78
     8
170
     0
171
     3
172
     1
173
     0
174
     1
175
     0
176
   144
177
   144
178
     7
270
     2
271
     1
272
     1
273
     2
274
     3
340
18E
275
     0
280
     0
281
     0
282
     0
283
     2
284
     8
285
     0
286
     0
287
     5
288
     0
  0
DIMSTYLE
105
3E9
330
A
100
AcDbSymbolTableRecord
100
AcDbDimStyleTableRecord
  2
ADD$6
 70
     0
  3

  4

  5

  6

  7

 40
1.0
 41
2.5
 42
1.0
 43
7.0
 44
0.5
 45
0.0
 46
0.0
 47
0.0
 48
0.0
140
2.5
141
2.5
142
0.0
143
0.03937007874016
144
1.0
145
0.0
146
1.0
147
0.625
 71
     0
 72
     0
 73
     0
 74
     0
 75
     0
 76
     0
 77
     1
 78
     8
170
     0
171
     3
172
     1
173
     0
174
     1
175
     0
176
   144
177
   144
178
     7
270
     2
271
     1
272
     1
273
     2
274
     3
340
18E
275
     0
280
     0
281
     0
282
     0
283
     2
284
     8
285
     0
286
     0
287
     5
288
     0
  0
DIMSTYLE
105
3EA
330
A
100
AcDbSymbolTableRecord
100
AcDbDimStyleTableRecord
  2
ADD$7
 70
     0
  3

  4

  5

  6

  7

 40
1.0
 41
2.5
 42
1.0
 43
7.0
 44
0.5
 45
0.0
 46
0.0
 47
0.0
 48
0.0
140
2.5
141
2.5
142
0.0
143
0.03937007874016
144
1.0
145
0.0
146
1.0
147
0.625
 71
     0
 72
     0
 73
     0
 74
     0
 75
     0
 76
     0
 77
     0
 78
     8
170
     0
171
     3
172
     1
173
     0
174
     1
175
     0
176
   144
177
   144
178
     7
270
     2
271
     1
272
     1
273
     2
274
     3
340
18E
275
     0
280
     0
281
     0
282
     0
283
     2
284
     8
285
     0
286
     0
287
     5
288
     0
  0
DIMSTYLE
105
518
330
A
100
AcDbSymbolTableRecord
100
AcDbDimStyleTableRecord
  2
STANDARD
 70
     0
  3

  4

  5

  6

  7

 40
1.0
 41
0.18
 42
0.0625
 43
0.38
 44
0.18
 45
0.0
 46
0.0
 47
0.0
 48
0.0
140
0.18
141
0.09
142
0.0
143
25.4
144
1.0
145
0.0
146
1.0
147
0.09
 71
     0
 72
     0
 73
     1
 74
     1
 75
     0
 76
     0
 77
     0
 78
     0
170
     0
171
     2
172
     0
173
     0
174
     0
175
     0
176
     0
177
     0
178
     0
270
     2
271
     4
272
     4
273
     2
274
     2
340
11
275
     0
280
     0
281
     0
282
     0
283
     1
284
     0
285
     0
286
     0
287
     3
288
     0
  0
DIMSTYLE
105
550
330
A
100
AcDbSymbolTableRecord
100
AcDbDimStyleTableRecord
  2
ADD$0
 70
     0
  3

  4

  5

  6

  7

 40
1.0
 41
0.7
 42
1.0
 43
7.0
 44
0.5
 45
0.0
 46
0.0
 47
0.0
 48
0.0
140
2.5
141
2.5
142
0.0
143
0.03937007874016
144
1.0
145
0.7
146
1.0
147
0.625
 71
     0
 72
     0
 73
     0
 74
     0
 75
     0
 76
     0
 77
     1
 78
     8
170
     0
171
     3
172
     1
173
     0
174
     1
175
     0
176
   144
177
   144
178
     7
270
     2
271
     1
272
     1
273
     2
274
     3
340
18E
275
     0
280
     0
281
     0
282
     0
283
     2
284
     8
285
     0
286
     0
287
     5
288
     0
  0
DIMSTYLE
105
59B
330
A
100
AcDbSymbolTableRecord
100
AcDbDimStyleTableRecord
  2
ADD_M
 70
     0
  3

  4

  5

  6

  7

 40
1.0
 41
2.5
 42
1.0
 43
7.0
 44
0.5
 45
0.0
 46
0.0
 47
0.0
 48
0.0
140
2.5
141
2.5
142
0.0
143
0.03937007874016
144
1.0
145
0.7
146
1.0
147
0.625
 71
     0
 72
     0
 73
     0
 74
     0
 75
     0
 76
     0
 77
     1
 78
     8
170
     0
171
     3
172
     1
173
     0
174
     1
175
     0
176
   144
177
   144
178
     7
270
     2
271
     1
272
     1
273
     2
274
     3
340
18E
275
     0
280
     0
281
     0
282
     0
283
     2
284
     8
285
     0
286
     0
287
     5
288
     0
  0
ENDTAB
  0
TABLE
  2
BLOCK_RECORD
  5
1
330
0
100
AcDbSymbolTable
 70
    31
  0
BLOCK_RECORD
  5
1F
102
{ACAD_XDICTIONARY
360
BDC
102
}
330
1
100
AcDbSymbolTableRecord
100
AcDbBlockTableRecord
  2
*MODEL_SPACE
  0
BLOCK_RECORD
  5
1B
102
{ACAD_XDICTIONARY
360
BDE
102
}
330
1
100
AcDbSymbolTableRecord
100
AcDbBlockTableRecord
  2
*PAPER_SPACE
  0
BLOCK_RECORD
  5
192
330
1
100
AcDbSymbolTableRecord
100
AcDbBlockTableRecord
  2
_DOT
  0
BLOCK_RECORD
  5
5CE
330
1
100
AcDbSymbolTableRecord
100
AcDbBlockTableRecord
  2
A4
  0
BLOCK_RECORD
  5
636
330
1
100
AcDbSymbolTableRecord
100
AcDbBlockTableRecord
  2
*D2
  0
BLOCK_RECORD
  5
652
330
1
100
AcDbSymbolTableRecord
100
AcDbBlockTableRecord
  2
*D3
  0
BLOCK_RECORD
  5
6B1
330
1
100
AcDbSymbolTableRecord
100
AcDbBlockTableRecord
  2
*D4
  0
BLOCK_RECORD
  5
6BE
330
1
100
AcDbSymbolTableRecord
100
AcDbBlockTableRecord
  2
*D5
  0
BLOCK_RECORD
  5
6CD
330
1
100
AcDbSymbolTableRecord
100
AcDbBlockTableRecord
  2
*D6
  0
BLOCK_RECORD
  5
6DA
330
1
100
AcDbSymbolTableRecord
100
AcDbBlockTableRecord
  2
*D7
  0
BLOCK_RECORD
  5
6E9
330
1
100
AcDbSymbolTableRecord
100
AcDbBlockTableRecord
  2
*D8
  0
BLOCK_RECORD
  5
6F6
330
1
100
AcDbSymbolTableRecord
100
AcDbBlockTableRecord
  2
*D9
  0
BLOCK_RECORD
  5
705
330
1
100
AcDbSymbolTableRecord
100
AcDbBlockTableRecord
  2
*D10
  0
BLOCK_RECORD
  5
92D
330
1
100
AcDbSymbolTableRecord
100
AcDbBlockTableRecord
  2
*D11
  0
BLOCK_RECORD
  5
97C
330
1
100
AcDbSymbolTableRecord
100
AcDbBlockTableRecord
  2
*D12
  0
BLOCK_RECORD
  5
9B5
330
1
100
AcDbSymbolTableRecord
100
AcDbBlockTableRecord
  2
*D13
  0
BLOCK_RECORD
  5
9C5
330
1
100
AcDbSymbolTableRecord
100
AcDbBlockTableRecord
  2
*D14
  0
BLOCK_RECORD
  5
9D4
330
1
100
AcDbSymbolTableRecord
100
AcDbBlockTableRecord
  2
*D15
  0
BLOCK_RECORD
  5
9F0
330
1
100
AcDbSymbolTableRecord
100
AcDbBlockTableRecord
  2
*D16
  0
BLOCK_RECORD
  5
9FD
330
1
100
AcDbSymbolTableRecord
100
AcDbBlockTableRecord
  2
*D17
  0
BLOCK_RECORD
  5
A1C
330
1
100
AcDbSymbolTableRecord
100
AcDbBlockTableRecord
  2
*D18
  0
BLOCK_RECORD
  5
A2C
330
1
100
AcDbSymbolTableRecord
100
AcDbBlockTableRecord
  2
*D19
  0
BLOCK_RECORD
  5
B35
330
1
100
AcDbSymbolTableRecord
100
AcDbBlockTableRecord
  2
*D20
  0
BLOCK_RECORD
  5
B42
330
1
100
AcDbSymbolTableRecord
100
AcDbBlockTableRecord
  2
*D21
  0
BLOCK_RECORD
  5
B4F
330
1
100
AcDbSymbolTableRecord
100
AcDbBlockTableRecord
  2
*D22
  0
BLOCK_RECORD
  5
B5C
330
1
100
AcDbSymbolTableRecord
100
AcDbBlockTableRecord
  2
*D23
  0
BLOCK_RECORD
  5
B69
330
1
100
AcDbSymbolTableRecord
100
AcDbBlockTableRecord
  2
*D24
  0
BLOCK_RECORD
  5
B76
330
1
100
AcDbSymbolTableRecord
100
AcDbBlockTableRecord
  2
*D25
  0
BLOCK_RECORD
  5
B83
330
1
100
AcDbSymbolTableRecord
100
AcDbBlockTableRecord
  2
*D26
  0
BLOCK_RECORD
  5
B92
330
1
100
AcDbSymbolTableRecord
100
AcDbBlockTableRecord
  2
*D27
  0
BLOCK_RECORD
  5
BA1
330
1
100
AcDbSymbolTableRecord
100
AcDbBlockTableRecord
  2
*D28
  0
BLOCK_RECORD
  5
BAE
330
1
100
AcDbSymbolTableRecord
100
AcDbBlockTableRecord
  2
*D29
  0
BLOCK_RECORD
  5
BB8
330
1
100
AcDbSymbolTableRecord
100
AcDbBlockTableRecord
  2
*D30
  0
ENDTAB
  0
ENDSEC
  0
SECTION
  2
BLOCKS
  0
BLOCK
  5
20
330
1F
100
AcDbEntity
  8
0
100
AcDbBlockBegin
  2
*MODEL_SPACE
 70
     0
 10
0.0
 20
0.0
 30
0.0
  3
*MODEL_SPACE
  1

  0
ENDBLK
  5
21
330
1F
100
AcDbEntity
  8
0
100
AcDbBlockEnd
  0
BLOCK
  5
1C
330
1B
100
AcDbEntity
 67
     1
  8
0
100
AcDbBlockBegin
  2
*PAPER_SPACE
 70
     0
 10
0.0
 20
0.0
 30
0.0
  3
*PAPER_SPACE
  1

  0
ENDBLK
  5
1D
330
1B
100
AcDbEntity
 67
     1
  8
0
100
AcDbBlockEnd
  0
BLOCK
  5
195
330
192
100
AcDbEntity
  8
0
100
AcDbBlockBegin
  2
_DOT
 70
     0
 10
0.0
 20
0.0
 30
0.0
  3
_DOT
  1

  0
POLYLINE
  5
193
330
192
100
AcDbEntity
  8
0
 62
     0
100
AcDb2dPolyline
 66
     1
 10
0.0
 20
0.0
 30
0.0
 70
     1
 40
0.5
 41
0.5
  0
VERTEX
  5
EF8
330
193
100
AcDbEntity
  8
0
 62
     0
100
AcDbVertex
100
AcDb2dVertex
 10
-0.25
 20
0.0
 30
0.0
 42
1.0
  0
VERTEX
  5
EF9
330
193
100
AcDbEntity
  8
0
 62
     0
100
AcDbVertex
100
AcDb2dVertex
 10
0.25
 20
0.0
 30
0.0
 42
1.0
  0
SEQEND
  5
EFA
330
193
100
AcDbEntity
  8
0
 62
     0
  0
LINE
  5
194
330
192
100
AcDbEntity
  8
0
 62
     0
100
AcDbLine
 10
-0.5
 20
0.0
 30
0.0
 11
-1.0
 21
0.0
 31
0.0
  0
ENDBLK
  5
196
330
192
100
AcDbEntity
  8
0
100
AcDbBlockEnd
  0
BLOCK
  5
5D1
330
5CE
100
AcDbEntity
  8
0
100
AcDbBlockBegin
  2
A4
 70
     0
 10
0.0
 20
0.0
 30
0.0
  3
A4
  1

  0
POLYLINE
  5
5CF
330
5CE
100
AcDbEntity
  8
HOJO
100
AcDb2dPolyline
 66
     1
 10
0.0
 20
0.0
 30
0.0
 70
     1
  0
VERTEX
  5
EFB
330
5CF
100
AcDbEntity
  8
HOJO
100
AcDbVertex
100
AcDb2dVertex
 10
0.0
 20
0.0
 30
0.0
  0
VERTEX
  5
EFC
330
5CF
100
AcDbEntity
  8
HOJO
100
AcDbVertex
100
AcDb2dVertex
 10
297.0
 20
0.0
 30
0.0
  0
VERTEX
  5
EFD
330
5CF
100
AcDbEntity
  8
HOJO
100
AcDbVertex
100
AcDb2dVertex
 10
297.0
 20
210.0
 30
0.0
  0
VERTEX
  5
EFE
330
5CF
100
AcDbEntity
  8
HOJO
100
AcDbVertex
100
AcDb2dVertex
 10
0.0
 20
210.0
 30
0.0
  0
SEQEND
  5
EFF
330
5CF
100
AcDbEntity
  8
HOJO
  0
POLYLINE
  5
5D0
330
5CE
100
AcDbEntity
  8
HOJO
100
AcDb2dPolyline
 66
     1
 10
0.0
 20
0.0
 30
0.0
 70
     1
  0
VERTEX
  5
F00
330
5D0
100
AcDbEntity
  8
HOJO
100
AcDbVertex
100
AcDb2dVertex
 10
18.0
 20
13.0
 30
0.0
  0
VERTEX
  5
F01
330
5D0
100
AcDbEntity
  8
HOJO
100
AcDbVertex
100
AcDb2dVertex
 10
279.0
 20
13.0
 30
0.0
  0
VERTEX
  5
F02
330
5D0
100
AcDbEntity
  8
HOJO
100
AcDbVertex
100
AcDb2dVertex
 10
279.0
 20
197.0
 30
0.0
  0
VERTEX
  5
F03
330
5D0
100
AcDbEntity
  8
HOJO
100
AcDbVertex
100
AcDb2dVertex
 10
18.0
 20
197.0
 30
0.0
  0
SEQEND
  5
F04
330
5D0
100
AcDbEntity
  8
HOJO
  0
ENDBLK
  5
5D2
330
5CE
100
AcDbEntity
  8
0
100
AcDbBlockEnd
  0
BLOCK
  5
640
330
636
100
AcDbEntity
  8
0
100
AcDbBlockBegin
  2
*D2
 70
     1
 10
0.0
 20
0.0
 30
0.0
  3
*D2
  1

  0
LINE
  5
C4E
330
636
100
AcDbEntity
  8
SUNPO
 62
   144
100
AcDbLine
 10
3240.0
 20
1880.0
 30
0.0
 11
3240.0
 21
1740.0
 31
0.0
  0
LINE
  5
C4F
330
636
100
AcDbEntity
  8
SUNPO
 62
   144
100
AcDbLine
 10
5240.0
 20
1880.0
 30
0.0
 11
5240.0
 21
1740.0
 31
0.0
  0
LINE
  5
C50
330
636
100
AcDbEntity
  8
SUNPO
 62
   144
100
AcDbLine
 10
3254.0
 20
1750.0
 30
0.0
 11
5226.0
 21
1750.0
 31
0.0
  0
SOLID
  5
C51
330
636
100
AcDbEntity
  8
SUNPO
 62
   144
100
AcDbTrace
 10
3254.0
 20
1752.333333333333
 30
0.0
 11
3254.0
 21
1747.666666666666
 31
0.0
 12
3240.0
 22
1750.0
 32
0.0
 13
3240.0
 23
1750.0
 33
0.0
  0
SOLID
  5
C52
330
636
100
AcDbEntity
  8
SUNPO
 62
   144
100
AcDbTrace
 10
5226.0
 20
1752.333333333333
 30
0.0
 11
5226.0
 21
1747.666666666666
 31
0.0
 12
5240.0
 22
1750.0
 32
0.0
 13
5240.0
 23
1750.0
 33
0.0
  0
MTEXT
  5
C53
330
636
100
AcDbEntity
  8
SUNPO
 62
     7
100
AcDbMText
 10
4240.0
 20
1787.5
 30
0.0
 40
50.0
 41
0.0
 71
     5
 72
     1
  1
\A2;2000
  7
ADD
1001
ACAD
1000
MTEXTBEGIN
1070
    73
1070
     1
1070
    44
1040
1.0
1070
    74
1070
     0
1000
MTEXTEND
  0
POINT
  5
C54
330
636
100
AcDbEntity
  8
DEFPOINTS
 62
     0
100
AcDbPoint
 10
3240.0
 20
1900.0
 30
0.0
  0
POINT
  5
C55
330
636
100
AcDbEntity
  8
DEFPOINTS
 62
     0
100
AcDbPoint
 10
5240.0
 20
1900.0
 30
0.0
  0
POINT
  5
C56
330
636
100
AcDbEntity
  8
DEFPOINTS
 62
     0
100
AcDbPoint
 10
5240.0
 20
1750.0
 30
0.0
  0
ENDBLK
  5
641
330
636
100
AcDbEntity
  8
0
100
AcDbBlockEnd
  0
BLOCK
  5
65E
330
652
100
AcDbEntity
  8
0
100
AcDbBlockBegin
  2
*D3
 70
     1
 10
0.0
 20
0.0
 30
0.0
  3
*D3
  1

  0
LINE
  5
C57
330
652
100
AcDbEntity
  8
SUNPO
 62
   144
100
AcDbLine
 10
5260.0
 20
1900.0
 30
0.0
 11
5380.0
 21
1900.0
 31
0.0
  0
LINE
  5
C58
330
652
100
AcDbEntity
  8
SUNPO
 62
   144
100
AcDbLine
 10
5260.0
 20
2043.0
 30
0.0
 11
5380.0
 21
2043.0
 31
0.0
  0
LINE
  5
C59
330
652
100
AcDbEntity
  8
SUNPO
 62
   144
100
AcDbLine
 10
5370.0
 20
1886.0
 30
0.0
 11
5370.0
 21
1872.0
 31
0.0
  0
LINE
  5
C5A
330
652
100
AcDbEntity
  8
SUNPO
 62
   144
100
AcDbLine
 10
5370.0
 20
2056.999999999999
 30
0.0
 11
5370.0
 21
2070.999999999999
 31
0.0
  0
LINE
  5
C5B
330
652
100
AcDbEntity
  8
SUNPO
 62
   144
100
AcDbLine
 10
5370.0
 20
1900.0
 30
0.0
 11
5370.0
 21
2043.0
 31
0.0
  0
SOLID
  5
C5C
330
652
100
AcDbEntity
  8
SUNPO
 62
   144
100
AcDbTrace
 10
5367.666666666667
 20
1886.0
 30
0.0
 11
5372.333333333333
 21
1886.0
 31
0.0
 12
5370.0
 22
1900.0
 32
0.0
 13
5370.0
 23
1900.0
 33
0.0
  0
SOLID
  5
C5D
330
652
100
AcDbEntity
  8
SUNPO
 62
   144
100
AcDbTrace
 10
5367.666666666668
 20
2056.999999999999
 30
0.0
 11
5372.333333333334
 21
2056.999999999999
 31
0.0
 12
5370.0
 22
2043.0
 32
0.0
 13
5370.0
 23
2043.0
 33
0.0
  0
MTEXT
  5
C5E
330
652
100
AcDbEntity
  8
SUNPO
 62
     7
100
AcDbMText
 10
5332.5
 20
1971.500000000001
 30
0.0
 40
50.0
 41
0.0
 71
     5
 72
     1
  1
\A2;143
  7
ADD
 11
0.0000000000000001
 21
1.0
 31
0.0
1001
ACAD
1000
MTEXTBEGIN
1070
    73
1070
     1
1070
    44
1040
1.0
1070
    74
1070
     0
1000
MTEXTEND
  0
POINT
  5
C5F
330
652
100
AcDbEntity
  8
DEFPOINTS
 62
     0
100
AcDbPoint
 10
5240.0
 20
1900.0
 30
0.0
  0
POINT
  5
C60
330
652
100
AcDbEntity
  8
DEFPOINTS
 62
     0
100
AcDbPoint
 10
5240.0
 20
2043.0
 30
0.0
  0
POINT
  5
C61
330
652
100
AcDbEntity
  8
DEFPOINTS
 62
     0
100
AcDbPoint
 10
5370.0
 20
2043.0
 30
0.0
  0
ENDBLK
  5
65F
330
652
100
AcDbEntity
  8
0
100
AcDbBlockEnd
  0
BLOCK
  5
6BB
330
6B1
100
AcDbEntity
  8
0
100
AcDbBlockBegin
  2
*D4
 70
     1
 10
0.0
 20
0.0
 30
0.0
  3
*D4
  1

  0
LINE
  5
C62
330
6B1
100
AcDbEntity
  8
SUNPO
 62
   144
100
AcDbLine
 10
3220.0
 20
1900.0
 30
0.0
 11
2670.0
 21
1900.0
 31
0.0
  0
LINE
  5
C63
330
6B1
100
AcDbEntity
  8
SUNPO
 62
   144
100
AcDbLine
 10
3220.0
 20
2220.0
 30
0.0
 11
2670.0
 21
2220.0
 31
0.0
  0
LINE
  5
C64
330
6B1
100
AcDbEntity
  8
SUNPO
 62
   144
100
AcDbLine
 10
2680.0
 20
1914.0
 30
0.0
 11
2680.0
 21
2206.0
 31
0.0
  0
SOLID
  5
C65
330
6B1
100
AcDbEntity
  8
SUNPO
 62
   144
100
AcDbTrace
 10
2677.666666666667
 20
1914.0
 30
0.0
 11
2682.333333333333
 21
1914.0
 31
0.0
 12
2680.0
 22
1900.0
 32
0.0
 13
2680.0
 23
1900.0
 33
0.0
  0
SOLID
  5
C66
330
6B1
100
AcDbEntity
  8
SUNPO
 62
   144
100
AcDbTrace
 10
2677.666666666667
 20
2206.0
 30
0.0
 11
2682.333333333333
 21
2206.0
 31
0.0
 12
2680.0
 22
2220.0
 32
0.0
 13
2680.0
 23
2220.0
 33
0.0
  0
MTEXT
  5
C67
330
6B1
100
AcDbEntity
  8
SUNPO
 62
     7
100
AcDbMText
 10
2642.5
 20
2060.0
 30
0.0
 40
50.0
 41
0.0
 71
     5
 72
     1
  1
\A2;320
  7
ADD
 11
0.0000000000000001
 21
1.0
 31
0.0
1001
ACAD
1000
MTEXTBEGIN
1070
    73
1070
     1
1070
    44
1040
1.0
1070
    74
1070
     0
1000
MTEXTEND
  0
POINT
  5
C68
330
6B1
100
AcDbEntity
  8
DEFPOINTS
 62
     0
100
AcDbPoint
 10
3240.0
 20
1900.0
 30
0.0
  0
POINT
  5
C69
330
6B1
100
AcDbEntity
  8
DEFPOINTS
 62
     0
100
AcDbPoint
 10
3240.0
 20
2220.0
 30
0.0
  0
POINT
  5
C6A
330
6B1
100
AcDbEntity
  8
DEFPOINTS
 62
     0
100
AcDbPoint
 10
2680.0
 20
2220.0
 30
0.0
  0
ENDBLK
  5
6BC
330
6B1
100
AcDbEntity
  8
0
100
AcDbBlockEnd
  0
BLOCK
  5
6CA
330
6BE
100
AcDbEntity
  8
0
100
AcDbBlockBegin
  2
*D5
 70
     1
 10
0.0
 20
0.0
 30
0.0
  3
*D5
  1

  0
LINE
  5
C6B
330
6BE
100
AcDbEntity
  8
SUNPO
 62
   144
100
AcDbLine
 10
3220.0
 20
1900.0
 30
0.0
 11
2810.0
 21
1900.0
 31
0.0
  0
LINE
  5
C6C
330
6BE
100
AcDbEntity
  8
SUNPO
 62
   144
100
AcDbLine
 10
3220.0
 20
2020.0
 30
0.0
 11
2810.0
 21
2020.0
 31
0.0
  0
LINE
  5
C6D
330
6BE
100
AcDbEntity
  8
SUNPO
 62
   144
100
AcDbLine
 10
2820.0
 20
1886.0
 30
0.0
 11
2820.0
 21
1872.0
 31
0.0
  0
LINE
  5
C6E
330
6BE
100
AcDbEntity
  8
SUNPO
 62
   144
100
AcDbLine
 10
2820.0
 20
2034.0
 30
0.0
 11
2820.0
 21
2048.0
 31
0.0
  0
LINE
  5
C6F
330
6BE
100
AcDbEntity
  8
SUNPO
 62
   144
100
AcDbLine
 10
2820.0
 20
1900.0
 30
0.0
 11
2820.0
 21
2020.0
 31
0.0
  0
SOLID
  5
C70
330
6BE
100
AcDbEntity
  8
SUNPO
 62
   144
100
AcDbTrace
 10
2817.666666666666
 20
1886.0
 30
0.0
 11
2822.333333333333
 21
1886.0
 31
0.0
 12
2820.0
 22
1900.0
 32
0.0
 13
2820.0
 23
1900.0
 33
0.0
  0
SOLID
  5
C71
330
6BE
100
AcDbEntity
  8
SUNPO
 62
   144
100
AcDbTrace
 10
2817.666666666666
 20
2034.0
 30
0.0
 11
2822.333333333333
 21
2034.0
 31
0.0
 12
2820.0
 22
2020.0
 32
0.0
 13
2820.0
 23
2020.0
 33
0.0
  0
MTEXT
  5
C72
330
6BE
100
AcDbEntity
  8
SUNPO
 62
     7
100
AcDbMText
 10
2782.499999999999
 20
1960.0
 30
0.0
 40
50.0
 41
0.0
 71
     5
 72
     1
  1
\A2;120
  7
ADD
 11
0.0000000000000001
 21
1.0
 31
0.0
1001
ACAD
1000
MTEXTBEGIN
1070
    73
1070
     1
1070
    44
1040
1.0
1070
    74
1070
     0
1000
MTEXTEND
  0
POINT
  5
C73
330
6BE
100
AcDbEntity
  8
DEFPOINTS
 62
     0
100
AcDbPoint
 10
3240.0
 20
1900.0
 30
0.0
  0
POINT
  5
C74
330
6BE
100
AcDbEntity
  8
DEFPOINTS
 62
     0
100
AcDbPoint
 10
3240.0
 20
2020.0
 30
0.0
  0
POINT
  5
C75
330
6BE
100
AcDbEntity
  8
DEFPOINTS
 62
     0
100
AcDbPoint
 10
2820.0
 20
2020.0
 30
0.0
  0
ENDBLK
  5
6CB
330
6BE
100
AcDbEntity
  8
0
100
AcDbBlockEnd
  0
BLOCK
  5
6D7
330
6CD
100
AcDbEntity
  8
0
100
AcDbBlockBegin
  2
*D6
 70
     1
 10
0.0
 20
0.0
 30
0.0
  3
*D6
  1

  0
LINE
  5
C76
330
6CD
100
AcDbEntity
  8
SUNPO
 62
   144
100
AcDbLine
 10
3220.0
 20
2020.0
 30
0.0
 11
2810.0
 21
2020.0
 31
0.0
  0
LINE
  5
C77
330
6CD
100
AcDbEntity
  8
SUNPO
 62
   144
100
AcDbLine
 10
3220.0
 20
2220.0
 30
0.0
 11
2810.0
 21
2220.0
 31
0.0
  0
LINE
  5
C78
330
6CD
100
AcDbEntity
  8
SUNPO
 62
   144
100
AcDbLine
 10
2820.0
 20
2034.0
 30
0.0
 11
2820.0
 21
2206.0
 31
0.0
  0
SOLID
  5
C79
330
6CD
100
AcDbEntity
  8
SUNPO
 62
   144
100
AcDbTrace
 10
2817.666666666666
 20
2034.0
 30
0.0
 11
2822.333333333333
 21
2034.0
 31
0.0
 12
2820.0
 22
2020.0
 32
0.0
 13
2820.0
 23
2020.0
 33
0.0
  0
SOLID
  5
C7A
330
6CD
100
AcDbEntity
  8
SUNPO
 62
   144
100
AcDbTrace
 10
2817.666666666666
 20
2206.0
 30
0.0
 11
2822.333333333333
 21
2206.0
 31
0.0
 12
2820.0
 22
2220.0
 32
0.0
 13
2820.0
 23
2220.0
 33
0.0
  0
MTEXT
  5
C7B
330
6CD
100
AcDbEntity
  8
SUNPO
 62
     7
100
AcDbMText
 10
2782.499999999999
 20
2120.0
 30
0.0
 40
50.0
 41
0.0
 71
     5
 72
     1
  1
\A2;200
  7
ADD
 11
0.0000000000000001
 21
1.0
 31
0.0
1001
ACAD
1000
MTEXTBEGIN
1070
    73
1070
     1
1070
    44
1040
1.0
1070
    74
1070
     0
1000
MTEXTEND
  0
POINT
  5
C7C
330
6CD
100
AcDbEntity
  8
DEFPOINTS
 62
     0
100
AcDbPoint
 10
3240.0
 20
2020.0
 30
0.0
  0
POINT
  5
C7D
330
6CD
100
AcDbEntity
  8
DEFPOINTS
 62
     0
100
AcDbPoint
 10
3240.0
 20
2220.0
 30
0.0
  0
POINT
  5
C7E
330
6CD
100
AcDbEntity
  8
DEFPOINTS
 62
     0
100
AcDbPoint
 10
2820.0
 20
2220.0
 30
0.0
  0
ENDBLK
  5
6D8
330
6CD
100
AcDbEntity
  8
0
100
AcDbBlockEnd
  0
BLOCK
  5
6E6
330
6DA
100
AcDbEntity
  8
0
100
AcDbBlockBegin
  2
*D7
 70
     1
 10
0.0
 20
0.0
 30
0.0
  3
*D7
  1

  0
LINE
  5
C7F
330
6DA
100
AcDbEntity
  8
SUNPO
 62
   144
100
AcDbLine
 10
3220.0
 20
2020.0
 30
0.0
 11
2940.0
 21
2020.0
 31
0.0
  0
LINE
  5
C80
330
6DA
100
AcDbEntity
  8
SUNPO
 62
   144
100
AcDbLine
 10
3220.0
 20
2050.0
 30
0.0
 11
2940.0
 21
2050.0
 31
0.0
  0
LINE
  5
C81
330
6DA
100
AcDbEntity
  8
SUNPO
 62
   144
100
AcDbLine
 10
2950.0
 20
2006.0
 30
0.0
 11
2950.0
 21
1992.0
 31
0.0
  0
LINE
  5
C82
330
6DA
100
AcDbEntity
  8
SUNPO
 62
   144
100
AcDbLine
 10
2950.0
 20
2064.0
 30
0.0
 11
2950.0
 21
2078.0
 31
0.0
  0
LINE
  5
C83
330
6DA
100
AcDbEntity
  8
SUNPO
 62
   144
100
AcDbLine
 10
2950.0
 20
2020.0
 30
0.0
 11
2950.0
 21
2050.0
 31
0.0
  0
SOLID
  5
C84
330
6DA
100
AcDbEntity
  8
SUNPO
 62
   144
100
AcDbTrace
 10
2947.666666666666
 20
2006.0
 30
0.0
 11
2952.333333333333
 21
2006.0
 31
0.0
 12
2950.0
 22
2020.0
 32
0.0
 13
2950.0
 23
2020.0
 33
0.0
  0
SOLID
  5
C85
330
6DA
100
AcDbEntity
  8
SUNPO
 62
   144
100
AcDbTrace
 10
2947.666666666666
 20
2064.0
 30
0.0
 11
2952.333333333333
 21
2064.0
 31
0.0
 12
2950.0
 22
2050.0
 32
0.0
 13
2950.0
 23
2050.0
 33
0.0
  0
MTEXT
  5
C86
330
6DA
100
AcDbEntity
  8
SUNPO
 62
     7
100
AcDbMText
 10
2912.499999999999
 20
2035.000000000001
 30
0.0
 40
50.0
 41
0.0
 71
     5
 72
     1
  1
\A2;30
  7
ADD
 11
0.0000000000000001
 21
1.0
 31
0.0
1001
ACAD
1000
MTEXTBEGIN
1070
    73
1070
     1
1070
    44
1040
1.0
1070
    74
1070
     0
1000
MTEXTEND
  0
POINT
  5
C87
330
6DA
100
AcDbEntity
  8
DEFPOINTS
 62
     0
100
AcDbPoint
 10
3240.0
 20
2020.0
 30
0.0
  0
POINT
  5
C88
330
6DA
100
AcDbEntity
  8
DEFPOINTS
 62
     0
100
AcDbPoint
 10
3240.0
 20
2050.0
 30
0.0
  0
POINT
  5
C89
330
6DA
100
AcDbEntity
  8
DEFPOINTS
 62
     0
100
AcDbPoint
 10
2950.0
 20
2050.0
 30
0.0
  0
ENDBLK
  5
6E7
330
6DA
100
AcDbEntity
  8
0
100
AcDbBlockEnd
  0
BLOCK
  5
6F3
330
6E9
100
AcDbEntity
  8
0
100
AcDbBlockBegin
  2
*D8
 70
     1
 10
0.0
 20
0.0
 30
0.0
  3
*D8
  1

  0
LINE
  5
C8A
330
6E9
100
AcDbEntity
  8
SUNPO
 62
   144
100
AcDbLine
 10
3220.0
 20
2050.0
 30
0.0
 11
3030.0
 21
2050.0
 31
0.0
  0
LINE
  5
C8B
330
6E9
100
AcDbEntity
  8
SUNPO
 62
   144
100
AcDbLine
 10
3220.0
 20
2220.0
 30
0.0
 11
3030.0
 21
2220.0
 31
0.0
  0
LINE
  5
C8C
330
6E9
100
AcDbEntity
  8
SUNPO
 62
   144
100
AcDbLine
 10
3040.0
 20
2064.0
 30
0.0
 11
3040.0
 21
2206.0
 31
0.0
  0
SOLID
  5
C8D
330
6E9
100
AcDbEntity
  8
SUNPO
 62
   144
100
AcDbTrace
 10
3037.666666666666
 20
2064.0
 30
0.0
 11
3042.333333333333
 21
2064.0
 31
0.0
 12
3040.0
 22
2050.0
 32
0.0
 13
3040.0
 23
2050.0
 33
0.0
  0
SOLID
  5
C8E
330
6E9
100
AcDbEntity
  8
SUNPO
 62
   144
100
AcDbTrace
 10
3037.666666666666
 20
2206.0
 30
0.0
 11
3042.333333333333
 21
2206.0
 31
0.0
 12
3040.0
 22
2220.0
 32
0.0
 13
3040.0
 23
2220.0
 33
0.0
  0
MTEXT
  5
C8F
330
6E9
100
AcDbEntity
  8
SUNPO
 62
     7
100
AcDbMText
 10
3002.499999999999
 20
2135.000000000001
 30
0.0
 40
50.0
 41
0.0
 71
     5
 72
     1
  1
\A2;170
  7
ADD
 11
0.0000000000000001
 21
1.0
 31
0.0
1001
ACAD
1000
MTEXTBEGIN
1070
    73
1070
     1
1070
    44
1040
1.0
1070
    74
1070
     0
1000
MTEXTEND
  0
POINT
  5
C90
330
6E9
100
AcDbEntity
  8
DEFPOINTS
 62
     0
100
AcDbPoint
 10
3240.0
 20
2050.0
 30
0.0
  0
POINT
  5
C91
330
6E9
100
AcDbEntity
  8
DEFPOINTS
 62
     0
100
AcDbPoint
 10
3240.0
 20
2220.0
 30
0.0
  0
POINT
  5
C92
330
6E9
100
AcDbEntity
  8
DEFPOINTS
 62
     0
100
AcDbPoint
 10
3040.0
 20
2220.0
 30
0.0
  0
ENDBLK
  5
6F4
330
6E9
100
AcDbEntity
  8
0
100
AcDbBlockEnd
  0
BLOCK
  5
702
330
6F6
100
AcDbEntity
  8
0
100
AcDbBlockBegin
  2
*D9
 70
     1
 10
0.0
 20
0.0
 30
0.0
  3
*D9
  1

  0
LINE
  5
C93
330
6F6
100
AcDbEntity
  8
SUNPO
 62
   144
100
AcDbLine
 10
3820.0
 20
1900.0
 30
0.0
 11
3830.0
 21
1900.0
 31
0.0
  0
LINE
  5
C94
330
6F6
100
AcDbEntity
  8
SUNPO
 62
   144
100
AcDbLine
 10
3820.0
 20
2020.0
 30
0.0
 11
3830.0
 21
2020.0
 31
0.0
  0
LINE
  5
C95
330
6F6
100
AcDbEntity
  8
SUNPO
 62
   144
100
AcDbLine
 10
3840.0
 20
1886.0
 30
0.0
 11
3840.0
 21
1872.0
 31
0.0
  0
LINE
  5
C96
330
6F6
100
AcDbEntity
  8
SUNPO
 62
   144
100
AcDbLine
 10
3840.0
 20
2034.0
 30
0.0
 11
3840.0
 21
2048.0
 31
0.0
  0
LINE
  5
C97
330
6F6
100
AcDbEntity
  8
SUNPO
 62
   144
100
AcDbLine
 10
3840.0
 20
1900.0
 30
0.0
 11
3840.0
 21
2020.0
 31
0.0
  0
SOLID
  5
C98
330
6F6
100
AcDbEntity
  8
SUNPO
 62
   144
100
AcDbTrace
 10
3837.666666666666
 20
1886.0
 30
0.0
 11
3842.333333333334
 21
1886.0
 31
0.0
 12
3840.0
 22
1900.0
 32
0.0
 13
3840.0
 23
1900.0
 33
0.0
  0
SOLID
  5
C99
330
6F6
100
AcDbEntity
  8
SUNPO
 62
   144
100
AcDbTrace
 10
3837.666666666666
 20
2034.0
 30
0.0
 11
3842.333333333334
 21
2034.0
 31
0.0
 12
3840.0
 22
2020.0
 32
0.0
 13
3840.0
 23
2020.0
 33
0.0
  0
MTEXT
  5
C9A
330
6F6
100
AcDbEntity
  8
SUNPO
 62
     7
100
AcDbMText
 10
3802.5
 20
1960.0
 30
0.0
 40
50.0
 41
0.0
 71
     5
 72
     1
  1
\A2;120
  7
ADD
 11
0.0000000000000001
 21
1.0
 31
0.0
1001
ACAD
1000
MTEXTBEGIN
1070
    73
1070
     1
1070
    44
1040
1.0
1070
    74
1070
     0
1000
MTEXTEND
  0
POINT
  5
C9B
330
6F6
100
AcDbEntity
  8
DEFPOINTS
 62
     0
100
AcDbPoint
 10
3840.0
 20
1900.0
 30
0.0
  0
POINT
  5
C9C
330
6F6
100
AcDbEntity
  8
DEFPOINTS
 62
     0
100
AcDbPoint
 10
3840.0
 20
2020.0
 30
0.0
  0
POINT
  5
C9D
330
6F6
100
AcDbEntity
  8
DEFPOINTS
 62
     0
100
AcDbPoint
 10
3840.0
 20
2020.0
 30
0.0
  0
ENDBLK
  5
703
330
6F6
100
AcDbEntity
  8
0
100
AcDbBlockEnd
  0
BLOCK
  5
711
330
705
100
AcDbEntity
  8
0
100
AcDbBlockBegin
  2
*D10
 70
     1
 10
0.0
 20
0.0
 30
0.0
  3
*D10
  1

  0
LINE
  5
C9E
330
705
100
AcDbEntity
  8
SUNPO
 62
   144
100
AcDbLine
 10
3860.0
 20
2020.0
 30
0.0
 11
3930.0
 21
2020.0
 31
0.0
  0
LINE
  5
C9F
330
705
100
AcDbEntity
  8
SUNPO
 62
   144
100
AcDbLine
 10
3860.0
 20
2030.0
 30
0.0
 11
3930.0
 21
2030.0
 31
0.0
  0
LINE
  5
CA0
330
705
100
AcDbEntity
  8
SUNPO
 62
   144
100
AcDbLine
 10
3920.0
 20
2006.0
 30
0.0
 11
3920.0
 21
1992.0
 31
0.0
  0
LINE
  5
CA1
330
705
100
AcDbEntity
  8
SUNPO
 62
   144
100
AcDbLine
 10
3920.0
 20
2044.0
 30
0.0
 11
3920.0
 21
2058.0
 31
0.0
  0
LINE
  5
CA2
330
705
100
AcDbEntity
  8
SUNPO
 62
   144
100
AcDbLine
 10
3920.0
 20
2020.0
 30
0.0
 11
3920.0
 21
2030.0
 31
0.0
  0
SOLID
  5
CA3
330
705
100
AcDbEntity
  8
SUNPO
 62
   144
100
AcDbTrace
 10
3917.666666666667
 20
2006.0
 30
0.0
 11
3922.333333333333
 21
2006.0
 31
0.0
 12
3920.0
 22
2020.0
 32
0.0
 13
3920.0
 23
2020.0
 33
0.0
  0
SOLID
  5
CA4
330
705
100
AcDbEntity
  8
SUNPO
 62
   144
100
AcDbTrace
 10
3917.666666666667
 20
2044.0
 30
0.0
 11
3922.333333333333
 21
2044.0
 31
0.0
 12
3920.0
 22
2030.0
 32
0.0
 13
3920.0
 23
2030.0
 33
0.0
  0
MTEXT
  5
CA5
330
705
100
AcDbEntity
  8
SUNPO
 62
     7
100
AcDbMText
 10
3882.499999999999
 20
2025.0
 30
0.0
 40
50.0
 41
0.0
 71
     5
 72
     1
  1
\A2;10
  7
ADD
 11
0.0000000000000001
 21
1.0
 31
0.0
1001
ACAD
1000
MTEXTBEGIN
1070
    73
1070
     1
1070
    44
1040
1.0
1070
    74
1070
     0
1000
MTEXTEND
  0
POINT
  5
CA6
330
705
100
AcDbEntity
  8
DEFPOINTS
 62
     0
100
AcDbPoint
 10
3840.0
 20
2020.0
 30
0.0
  0
POINT
  5
CA7
330
705
100
AcDbEntity
  8
DEFPOINTS
 62
     0
100
AcDbPoint
 10
3840.0
 20
2030.0
 30
0.0
  0
POINT
  5
CA8
330
705
100
AcDbEntity
  8
DEFPOINTS
 62
     0
100
AcDbPoint
 10
3920.0
 20
2030.0
 30
0.0
  0
ENDBLK
  5
712
330
705
100
AcDbEntity
  8
0
100
AcDbBlockEnd
  0
BLOCK
  5
939
330
92D
100
AcDbEntity
  8
0
100
AcDbBlockBegin
  2
*D11
 70
     1
 10
0.0
 20
0.0
 30
0.0
  3
*D11
  1

  0
LINE
  5
967
330
92D
100
AcDbEntity
  8
SUNPO
 62
   144
100
AcDbLine
 10
1857.240561214936
 20
1898.931708116449
 30
0.0
 11
2022.009838019225
 21
1898.931708116449
 31
0.0
  0
LINE
  5
968
330
92D
100
AcDbEntity
  8
SUNPO
 62
   144
100
AcDbLine
 10
1857.240561214936
 20
2041.931708116448
 30
0.0
 11
2022.009838019225
 21
2041.931708116448
 31
0.0
  0
LINE
  5
969
330
92D
100
AcDbEntity
  8
SUNPO
 62
   144
100
AcDbLine
 10
2012.009838019225
 20
1884.931708116448
 30
0.0
 11
2012.009838019225
 21
1870.931708116449
 31
0.0
  0
LINE
  5
96A
330
92D
100
AcDbEntity
  8
SUNPO
 62
   144
100
AcDbLine
 10
2012.009838019225
 20
2055.931708116449
 30
0.0
 11
2012.009838019225
 21
2069.931708116448
 31
0.0
  0
LINE
  5
96B
330
92D
100
AcDbEntity
  8
SUNPO
 62
   144
100
AcDbLine
 10
2012.009838019225
 20
1898.931708116449
 30
0.0
 11
2012.009838019225
 21
2041.931708116448
 31
0.0
  0
SOLID
  5
96C
330
92D
100
AcDbEntity
  8
SUNPO
 62
   144
100
AcDbTrace
 10
2009.676504685892
 20
1884.931708116448
 30
0.0
 11
2014.343171352558
 21
1884.931708116448
 31
0.0
 12
2012.009838019225
 22
1898.931708116449
 32
0.0
 13
2012.009838019225
 23
1898.931708116449
 33
0.0
  0
SOLID
  5
96D
330
92D
100
AcDbEntity
  8
SUNPO
 62
   144
100
AcDbTrace
 10
2009.676504685892
 20
2055.931708116449
 30
0.0
 11
2014.343171352558
 21
2055.931708116449
 31
0.0
 12
2012.009838019225
 22
2041.931708116448
 32
0.0
 13
2012.009838019225
 23
2041.931708116448
 33
0.0
  0
MTEXT
  5
96E
330
92D
100
AcDbEntity
  8
SUNPO
 62
     7
100
AcDbMText
 10
1974.509838019225
 20
1970.431708116449
 30
0.0
 40
50.0
 41
0.0
 71
     5
 72
     1
  1
\A2;143
  7
ADD
 11
0.0000000000000001
 21
1.0
 31
0.0
1001
ACAD
1000
MTEXTBEGIN
1070
    73
1070
     1
1070
    44
1040
1.0
1070
    74
1070
     0
1000
MTEXTEND
  0
POINT
  5
96F
330
92D
100
AcDbEntity
  8
DEFPOINTS
 62
     0
100
AcDbPoint
 10
1837.240561214936
 20
1898.931708116449
 30
0.0
  0
POINT
  5
970
330
92D
100
AcDbEntity
  8
DEFPOINTS
 62
     0
100
AcDbPoint
 10
1837.240561214936
 20
2041.931708116448
 30
0.0
  0
POINT
  5
971
330
92D
100
AcDbEntity
  8
DEFPOINTS
 62
     0
100
AcDbPoint
 10
2012.009838019225
 20
2041.931708116448
 30
0.0
  0
ENDBLK
  5
93A
330
92D
100
AcDbEntity
  8
0
100
AcDbBlockEnd
  0
BLOCK
  5
986
330
97C
100
AcDbEntity
  8
0
100
AcDbBlockBegin
  2
*D12
 70
     1
 10
0.0
 20
0.0
 30
0.0
  3
*D12
  1

  0
LINE
  5
97D
330
97C
100
AcDbEntity
  8
SUNPO
 62
   144
100
AcDbLine
 10
1267.240561214936
 20
1878.931708116449
 30
0.0
 11
1267.240561214936
 21
1740.0
 31
0.0
  0
LINE
  5
97E
330
97C
100
AcDbEntity
  8
SUNPO
 62
   144
100
AcDbLine
 10
1837.240561214936
 20
1878.931708116448
 30
0.0
 11
1837.240561214936
 21
1740.0
 31
0.0
  0
LINE
  5
97F
330
97C
100
AcDbEntity
  8
SUNPO
 62
   144
100
AcDbLine
 10
1281.240561214936
 20
1750.0
 30
0.0
 11
1823.240561214936
 21
1750.0
 31
0.0
  0
SOLID
  5
980
330
97C
100
AcDbEntity
  8
SUNPO
 62
   144
100
AcDbTrace
 10
1281.240561214936
 20
1752.333333333333
 30
0.0
 11
1281.240561214936
 21
1747.666666666666
 31
0.0
 12
1267.240561214936
 22
1750.0
 32
0.0
 13
1267.240561214936
 23
1750.0
 33
0.0
  0
SOLID
  5
981
330
97C
100
AcDbEntity
  8
SUNPO
 62
   144
100
AcDbTrace
 10
1823.240561214936
 20
1752.333333333333
 30
0.0
 11
1823.240561214936
 21
1747.666666666666
 31
0.0
 12
1837.240561214936
 22
1750.0
 32
0.0
 13
1837.240561214936
 23
1750.0
 33
0.0
  0
MTEXT
  5
982
330
97C
100
AcDbEntity
  8
SUNPO
 62
     7
100
AcDbMText
 10
1552.240561214936
 20
1787.5
 30
0.0
 40
50.0
 41
0.0
 71
     5
 72
     1
  1
\A2;570
  7
ADD
1001
ACAD
1000
MTEXTBEGIN
1070
    73
1070
     1
1070
    44
1040
1.0
1070
    74
1070
     0
1000
MTEXTEND
  0
POINT
  5
983
330
97C
100
AcDbEntity
  8
DEFPOINTS
 62
     0
100
AcDbPoint
 10
1267.240561214936
 20
1898.931708116449
 30
0.0
  0
POINT
  5
984
330
97C
100
AcDbEntity
  8
DEFPOINTS
 62
     0
100
AcDbPoint
 10
1837.240561214936
 20
1898.931708116449
 30
0.0
  0
POINT
  5
985
330
97C
100
AcDbEntity
  8
DEFPOINTS
 62
     0
100
AcDbPoint
 10
1837.240561214936
 20
1750.0
 30
0.0
  0
ENDBLK
  5
987
330
97C
100
AcDbEntity
  8
0
100
AcDbBlockEnd
  0
BLOCK
  5
9BF
330
9B5
100
AcDbEntity
  8
0
100
AcDbBlockBegin
  2
*D13
 70
     1
 10
0.0
 20
0.0
 30
0.0
  3
*D13
  1

  0
LINE
  5
9B6
330
9B5
100
AcDbEntity
  8
SUNPO
 62
   144
100
AcDbLine
 10
1247.240561214936
 20
1898.931708116449
 30
0.0
 11
1036.279791854143
 21
1898.931708116449
 31
0.0
  0
LINE
  5
9B7
330
9B5
100
AcDbEntity
  8
SUNPO
 62
   144
100
AcDbLine
 10
1247.240561214936
 20
2218.931708116449
 30
0.0
 11
1036.279791854143
 21
2218.931708116449
 31
0.0
  0
LINE
  5
9B8
330
9B5
100
AcDbEntity
  8
SUNPO
 62
   144
100
AcDbLine
 10
1046.279791854143
 20
1912.931708116449
 30
0.0
 11
1046.279791854143
 21
2204.931708116449
 31
0.0
  0
SOLID
  5
9B9
330
9B5
100
AcDbEntity
  8
SUNPO
 62
   144
100
AcDbTrace
 10
1043.94645852081
 20
1912.931708116449
 30
0.0
 11
1048.613125187477
 21
1912.931708116449
 31
0.0
 12
1046.279791854143
 22
1898.931708116449
 32
0.0
 13
1046.279791854143
 23
1898.931708116449
 33
0.0
  0
SOLID
  5
9BA
330
9B5
100
AcDbEntity
  8
SUNPO
 62
   144
100
AcDbTrace
 10
1043.94645852081
 20
2204.931708116449
 30
0.0
 11
1048.613125187477
 21
2204.931708116449
 31
0.0
 12
1046.279791854143
 22
2218.931708116449
 32
0.0
 13
1046.279791854143
 23
2218.931708116449
 33
0.0
  0
MTEXT
  5
9BB
330
9B5
100
AcDbEntity
  8
SUNPO
 62
     7
100
AcDbMText
 10
1008.779791854143
 20
2058.931708116449
 30
0.0
 40
50.0
 41
0.0
 71
     5
 72
     1
  1
\A2;320
  7
ADD
 11
0.0000000000000001
 21
1.0
 31
0.0
1001
ACAD
1000
MTEXTBEGIN
1070
    73
1070
     1
1070
    44
1040
1.0
1070
    74
1070
     0
1000
MTEXTEND
  0
POINT
  5
9BC
330
9B5
100
AcDbEntity
  8
DEFPOINTS
 62
     0
100
AcDbPoint
 10
1267.240561214936
 20
1898.931708116449
 30
0.0
  0
POINT
  5
9BD
330
9B5
100
AcDbEntity
  8
DEFPOINTS
 62
     0
100
AcDbPoint
 10
1267.240561214936
 20
2218.931708116449
 30
0.0
  0
POINT
  5
9BE
330
9B5
100
AcDbEntity
  8
DEFPOINTS
 62
     0
100
AcDbPoint
 10
1046.279791854143
 20
2218.931708116449
 30
0.0
  0
ENDBLK
  5
9C0
330
9B5
100
AcDbEntity
  8
0
100
AcDbBlockEnd
  0
BLOCK
  5
9D1
330
9C5
100
AcDbEntity
  8
0
100
AcDbBlockBegin
  2
*D14
 70
     1
 10
0.0
 20
0.0
 30
0.0
  3
*D14
  1

  0
LINE
  5
9C6
330
9C5
100
AcDbEntity
  8
SUNPO
 62
   144
100
AcDbLine
 10
1247.240561214936
 20
1898.931708116449
 30
0.0
 11
1110.0
 21
1898.931708116449
 31
0.0
  0
LINE
  5
9C7
330
9C5
100
AcDbEntity
  8
SUNPO
 62
   144
100
AcDbLine
 10
1247.240561214936
 20
2018.931708116448
 30
0.0
 11
1110.0
 21
2018.931708116448
 31
0.0
  0
LINE
  5
9C8
330
9C5
100
AcDbEntity
  8
SUNPO
 62
   144
100
AcDbLine
 10
1120.0
 20
1884.931708116448
 30
0.0
 11
1120.0
 21
1870.931708116449
 31
0.0
  0
LINE
  5
9C9
330
9C5
100
AcDbEntity
  8
SUNPO
 62
   144
100
AcDbLine
 10
1120.0
 20
2032.931708116449
 30
0.0
 11
1120.0
 21
2046.931708116449
 31
0.0
  0
LINE
  5
9CA
330
9C5
100
AcDbEntity
  8
SUNPO
 62
   144
100
AcDbLine
 10
1120.0
 20
1898.931708116449
 30
0.0
 11
1120.0
 21
2018.931708116448
 31
0.0
  0
SOLID
  5
9CB
330
9C5
100
AcDbEntity
  8
SUNPO
 62
   144
100
AcDbTrace
 10
1117.666666666666
 20
1884.931708116448
 30
0.0
 11
1122.333333333333
 21
1884.931708116448
 31
0.0
 12
1120.0
 22
1898.931708116449
 32
0.0
 13
1120.0
 23
1898.931708116449
 33
0.0
  0
SOLID
  5
9CC
330
9C5
100
AcDbEntity
  8
SUNPO
 62
   144
100
AcDbTrace
 10
1117.666666666666
 20
2032.931708116449
 30
0.0
 11
1122.333333333333
 21
2032.931708116449
 31
0.0
 12
1120.0
 22
2018.931708116448
 32
0.0
 13
1120.0
 23
2018.931708116448
 33
0.0
  0
MTEXT
  5
9CD
330
9C5
100
AcDbEntity
  8
SUNPO
 62
     7
100
AcDbMText
 10
1082.499999999999
 20
1958.931708116449
 30
0.0
 40
50.0
 41
0.0
 71
     5
 72
     1
  1
\A2;120
  7
ADD
 11
0.0000000000000001
 21
1.0
 31
0.0
1001
ACAD
1000
MTEXTBEGIN
1070
    73
1070
     1
1070
    44
1040
1.0
1070
    74
1070
     0
1000
MTEXTEND
  0
POINT
  5
9CE
330
9C5
100
AcDbEntity
  8
DEFPOINTS
 62
     0
100
AcDbPoint
 10
1267.240561214936
 20
1898.931708116449
 30
0.0
  0
POINT
  5
9CF
330
9C5
100
AcDbEntity
  8
DEFPOINTS
 62
     0
100
AcDbPoint
 10
1267.240561214936
 20
2018.931708116448
 30
0.0
  0
POINT
  5
9D0
330
9C5
100
AcDbEntity
  8
DEFPOINTS
 62
     0
100
AcDbPoint
 10
1120.0
 20
2018.931708116448
 30
0.0
  0
ENDBLK
  5
9D2
330
9C5
100
AcDbEntity
  8
0
100
AcDbBlockEnd
  0
BLOCK
  5
9DE
330
9D4
100
AcDbEntity
  8
0
100
AcDbBlockBegin
  2
*D15
 70
     1
 10
0.0
 20
0.0
 30
0.0
  3
*D15
  1

  0
LINE
  5
9D5
330
9D4
100
AcDbEntity
  8
SUNPO
 62
   144
100
AcDbLine
 10
1247.240561214936
 20
2018.931708116448
 30
0.0
 11
1110.0
 21
2018.931708116448
 31
0.0
  0
LINE
  5
9D6
330
9D4
100
AcDbEntity
  8
SUNPO
 62
   144
100
AcDbLine
 10
1247.240561214936
 20
2218.931708116449
 30
0.0
 11
1110.0
 21
2218.931708116449
 31
0.0
  0
LINE
  5
9D7
330
9D4
100
AcDbEntity
  8
SUNPO
 62
   144
100
AcDbLine
 10
1120.0
 20
2032.931708116449
 30
0.0
 11
1120.0
 21
2204.931708116449
 31
0.0
  0
SOLID
  5
9D8
330
9D4
100
AcDbEntity
  8
SUNPO
 62
   144
100
AcDbTrace
 10
1117.666666666666
 20
2032.931708116449
 30
0.0
 11
1122.333333333333
 21
2032.931708116449
 31
0.0
 12
1120.0
 22
2018.931708116448
 32
0.0
 13
1120.0
 23
2018.931708116448
 33
0.0
  0
SOLID
  5
9D9
330
9D4
100
AcDbEntity
  8
SUNPO
 62
   144
100
AcDbTrace
 10
1117.666666666666
 20
2204.931708116449
 30
0.0
 11
1122.333333333333
 21
2204.931708116449
 31
0.0
 12
1120.0
 22
2218.931708116449
 32
0.0
 13
1120.0
 23
2218.931708116449
 33
0.0
  0
MTEXT
  5
9DA
330
9D4
100
AcDbEntity
  8
SUNPO
 62
     7
100
AcDbMText
 10
1082.499999999999
 20
2118.931708116449
 30
0.0
 40
50.0
 41
0.0
 71
     5
 72
     1
  1
\A2;200
  7
ADD
 11
0.0000000000000001
 21
1.0
 31
0.0
1001
ACAD
1000
MTEXTBEGIN
1070
    73
1070
     1
1070
    44
1040
1.0
1070
    74
1070
     0
1000
MTEXTEND
  0
POINT
  5
9DB
330
9D4
100
AcDbEntity
  8
DEFPOINTS
 62
     0
100
AcDbPoint
 10
1267.240561214936
 20
2018.931708116448
 30
0.0
  0
POINT
  5
9DC
330
9D4
100
AcDbEntity
  8
DEFPOINTS
 62
     0
100
AcDbPoint
 10
1267.240561214936
 20
2218.931708116449
 30
0.0
  0
POINT
  5
9DD
330
9D4
100
AcDbEntity
  8
DEFPOINTS
 62
     0
100
AcDbPoint
 10
1120.0
 20
2218.931708116449
 30
0.0
  0
ENDBLK
  5
9DF
330
9D4
100
AcDbEntity
  8
0
100
AcDbBlockEnd
  0
BLOCK
  5
9FA
330
9F0
100
AcDbEntity
  8
0
100
AcDbBlockBegin
  2
*D16
 70
     1
 10
0.0
 20
0.0
 30
0.0
  3
*D16
  1

  0
LINE
  5
9F1
330
9F0
100
AcDbEntity
  8
SUNPO
 62
   144
100
AcDbLine
 10
1253.120677342771
 20
2218.931708116449
 30
0.0
 11
1186.37417554637
 21
2218.931708116449
 31
0.0
  0
LINE
  5
9F2
330
9F0
100
AcDbEntity
  8
SUNPO
 62
   144
100
AcDbLine
 10
1253.120677342771
 20
2048.931708116449
 30
0.0
 11
1186.37417554637
 21
2048.931708116449
 31
0.0
  0
LINE
  5
9F3
330
9F0
100
AcDbEntity
  8
SUNPO
 62
   144
100
AcDbLine
 10
1196.37417554637
 20
2204.931708116449
 30
0.0
 11
1196.37417554637
 21
2062.931708116449
 31
0.0
  0
SOLID
  5
9F4
330
9F0
100
AcDbEntity
  8
SUNPO
 62
   144
100
AcDbTrace
 10
1194.040842213037
 20
2204.931708116449
 30
0.0
 11
1198.707508879704
 21
2204.931708116449
 31
0.0
 12
1196.37417554637
 22
2218.931708116449
 32
0.0
 13
1196.37417554637
 23
2218.931708116449
 33
0.0
  0
SOLID
  5
9F5
330
9F0
100
AcDbEntity
  8
SUNPO
 62
   144
100
AcDbTrace
 10
1194.040842213037
 20
2062.931708116449
 30
0.0
 11
1198.707508879704
 21
2062.931708116449
 31
0.0
 12
1196.37417554637
 22
2048.931708116449
 32
0.0
 13
1196.37417554637
 23
2048.931708116449
 33
0.0
  0
MTEXT
  5
9F6
330
9F0
100
AcDbEntity
  8
SUNPO
 62
     7
100
AcDbMText
 10
1158.87417554637
 20
2133.931708116449
 30
0.0
 40
50.0
 41
0.0
 71
     5
 72
     1
  1
\A2;170
  7
ADD
 11
0.0000000000000001
 21
1.0
 31
0.0
1001
ACAD
1000
MTEXTBEGIN
1070
    73
1070
     1
1070
    44
1040
1.0
1070
    74
1070
     0
1000
MTEXTEND
  0
POINT
  5
9F7
330
9F0
100
AcDbEntity
  8
DEFPOINTS
 62
     0
100
AcDbPoint
 10
1273.120677342771
 20
2218.931708116449
 30
0.0
  0
POINT
  5
9F8
330
9F0
100
AcDbEntity
  8
DEFPOINTS
 62
     0
100
AcDbPoint
 10
1273.120677342771
 20
2048.931708116449
 30
0.0
  0
POINT
  5
9F9
330
9F0
100
AcDbEntity
  8
DEFPOINTS
 62
     0
100
AcDbPoint
 10
1196.37417554637
 20
2048.931708116449
 30
0.0
  0
ENDBLK
  5
9FB
330
9F0
100
AcDbEntity
  8
0
100
AcDbBlockEnd
  0
BLOCK
  5
A09
330
9FD
100
AcDbEntity
  8
0
100
AcDbBlockBegin
  2
*D17
 70
     1
 10
0.0
 20
0.0
 30
0.0
  3
*D17
  1

  0
LINE
  5
9FE
330
9FD
100
AcDbEntity
  8
SUNPO
 62
   144
100
AcDbLine
 10
1247.240561214936
 20
2048.931708116449
 30
0.0
 11
1186.37417554637
 21
2048.931708116449
 31
0.0
  0
LINE
  5
9FF
330
9FD
100
AcDbEntity
  8
SUNPO
 62
   144
100
AcDbLine
 10
1247.240561214936
 20
2018.931708116449
 30
0.0
 11
1186.37417554637
 21
2018.931708116449
 31
0.0
  0
LINE
  5
A00
330
9FD
100
AcDbEntity
  8
SUNPO
 62
   144
100
AcDbLine
 10
1196.37417554637
 20
2062.931708116449
 30
0.0
 11
1196.37417554637
 21
2076.931708116449
 31
0.0
  0
LINE
  5
A01
330
9FD
100
AcDbEntity
  8
SUNPO
 62
   144
100
AcDbLine
 10
1196.37417554637
 20
2004.931708116449
 30
0.0
 11
1196.37417554637
 21
1990.931708116449
 31
0.0
  0
LINE
  5
A02
330
9FD
100
AcDbEntity
  8
SUNPO
 62
   144
100
AcDbLine
 10
1196.37417554637
 20
2048.931708116449
 30
0.0
 11
1196.37417554637
 21
2018.931708116449
 31
0.0
  0
SOLID
  5
A03
330
9FD
100
AcDbEntity
  8
SUNPO
 62
   144
100
AcDbTrace
 10
1194.040842213037
 20
2062.931708116449
 30
0.0
 11
1198.707508879704
 21
2062.931708116449
 31
0.0
 12
1196.37417554637
 22
2048.931708116449
 32
0.0
 13
1196.37417554637
 23
2048.931708116449
 33
0.0
  0
SOLID
  5
A04
330
9FD
100
AcDbEntity
  8
SUNPO
 62
   144
100
AcDbTrace
 10
1194.040842213037
 20
2004.931708116449
 30
0.0
 11
1198.707508879704
 21
2004.931708116449
 31
0.0
 12
1196.37417554637
 22
2018.931708116449
 32
0.0
 13
1196.37417554637
 23
2018.931708116449
 33
0.0
  0
MTEXT
  5
A05
330
9FD
100
AcDbEntity
  8
SUNPO
 62
     7
100
AcDbMText
 10
1158.87417554637
 20
2033.931708116449
 30
0.0
 40
50.0
 41
0.0
 71
     5
 72
     1
  1
\A2;30
  7
ADD
 11
0.0000000000000001
 21
1.0
 31
0.0
1001
ACAD
1000
MTEXTBEGIN
1070
    73
1070
     1
1070
    44
1040
1.0
1070
    74
1070
     0
1000
MTEXTEND
  0
POINT
  5
A06
330
9FD
100
AcDbEntity
  8
DEFPOINTS
 62
     0
100
AcDbPoint
 10
1267.240561214936
 20
2048.931708116449
 30
0.0
  0
POINT
  5
A07
330
9FD
100
AcDbEntity
  8
DEFPOINTS
 62
     0
100
AcDbPoint
 10
1267.240561214936
 20
2018.931708116449
 30
0.0
  0
POINT
  5
A08
330
9FD
100
AcDbEntity
  8
DEFPOINTS
 62
     0
100
AcDbPoint
 10
1196.37417554637
 20
2018.931708116449
 30
0.0
  0
ENDBLK
  5
A0A
330
9FD
100
AcDbEntity
  8
0
100
AcDbBlockEnd
  0
BLOCK
  5
A28
330
A1C
100
AcDbEntity
  8
0
100
AcDbBlockBegin
  2
*D18
 70
     1
 10
0.0
 20
0.0
 30
0.0
  3
*D18
  1

  0
LINE
  5
A1D
330
A1C
100
AcDbEntity
  8
SUNPO
 62
   144
100
AcDbLine
 10
1732.61338261267
 20
2020.199018360252
 30
0.0
 11
1798.799733722126
 21
2020.199018360252
 31
0.0
  0
LINE
  5
A1E
330
A1C
100
AcDbEntity
  8
SUNPO
 62
   144
100
AcDbLine
 10
1732.61338261267
 20
1900.199018360252
 30
0.0
 11
1798.799733722126
 21
1900.199018360252
 31
0.0
  0
LINE
  5
A1F
330
A1C
100
AcDbEntity
  8
SUNPO
 62
   144
100
AcDbLine
 10
1788.799733722126
 20
2034.199018360252
 30
0.0
 11
1788.799733722126
 21
2048.199018360252
 31
0.0
  0
LINE
  5
A20
330
A1C
100
AcDbEntity
  8
SUNPO
 62
   144
100
AcDbLine
 10
1788.799733722126
 20
1886.199018360252
 30
0.0
 11
1788.799733722126
 21
1872.199018360252
 31
0.0
  0
LINE
  5
A21
330
A1C
100
AcDbEntity
  8
SUNPO
 62
   144
100
AcDbLine
 10
1788.799733722126
 20
2020.199018360252
 30
0.0
 11
1788.799733722126
 21
1900.199018360252
 31
0.0
  0
SOLID
  5
A22
330
A1C
100
AcDbEntity
  8
SUNPO
 62
   144
100
AcDbTrace
 10
1786.466400388792
 20
2034.199018360252
 30
0.0
 11
1791.133067055459
 21
2034.199018360252
 31
0.0
 12
1788.799733722126
 22
2020.199018360252
 32
0.0
 13
1788.799733722126
 23
2020.199018360252
 33
0.0
  0
SOLID
  5
A23
330
A1C
100
AcDbEntity
  8
SUNPO
 62
   144
100
AcDbTrace
 10
1786.466400388792
 20
1886.199018360252
 30
0.0
 11
1791.133067055459
 21
1886.199018360252
 31
0.0
 12
1788.799733722126
 22
1900.199018360252
 32
0.0
 13
1788.799733722126
 23
1900.199018360252
 33
0.0
  0
MTEXT
  5
A24
330
A1C
100
AcDbEntity
  8
SUNPO
 62
     7
100
AcDbMText
 10
1751.299733722126
 20
1960.199018360252
 30
0.0
 40
50.0
 41
0.0
 71
     5
 72
     1
  1
\A2;120
  7
ADD
 11
0.0000000000000001
 21
1.0
 31
0.0
1001
ACAD
1000
MTEXTBEGIN
1070
    73
1070
     1
1070
    44
1040
1.0
1070
    74
1070
     0
1000
MTEXTEND
  0
POINT
  5
A25
330
A1C
100
AcDbEntity
  8
DEFPOINTS
 62
     0
100
AcDbPoint
 10
1712.61338261267
 20
2020.199018360252
 30
0.0
  0
POINT
  5
A26
330
A1C
100
AcDbEntity
  8
DEFPOINTS
 62
     0
100
AcDbPoint
 10
1712.61338261267
 20
1900.199018360252
 30
0.0
  0
POINT
  5
A27
330
A1C
100
AcDbEntity
  8
DEFPOINTS
 62
     0
100
AcDbPoint
 10
1788.799733722126
 20
1900.199018360252
 30
0.0
  0
ENDBLK
  5
A29
330
A1C
100
AcDbEntity
  8
0
100
AcDbBlockEnd
  0
BLOCK
  5
A38
330
A2C
100
AcDbEntity
  8
0
100
AcDbBlockBegin
  2
*D19
 70
     1
 10
0.0
 20
0.0
 30
0.0
  3
*D19
  1

  0
LINE
  5
A2D
330
A2C
100
AcDbEntity
  8
SUNPO
 62
   144
100
AcDbLine
 10
1719.85782112379
 20
2020.199018360252
 30
0.0
 11
1732.518117401576
 21
2020.199018360252
 31
0.0
  0
LINE
  5
A2E
330
A2C
100
AcDbEntity
  8
SUNPO
 62
   144
100
AcDbLine
 10
1719.85782112379
 20
2030.199018360252
 30
0.0
 11
1732.518117401576
 21
2030.199018360252
 31
0.0
  0
LINE
  5
A2F
330
A2C
100
AcDbEntity
  8
SUNPO
 62
   144
100
AcDbLine
 10
1722.518117401576
 20
2006.199018360252
 30
0.0
 11
1722.518117401576
 21
1992.199018360252
 31
0.0
  0
LINE
  5
A30
330
A2C
100
AcDbEntity
  8
SUNPO
 62
   144
100
AcDbLine
 10
1722.518117401576
 20
2044.199018360252
 30
0.0
 11
1722.518117401576
 21
2058.199018360252
 31
0.0
  0
LINE
  5
A31
330
A2C
100
AcDbEntity
  8
SUNPO
 62
   144
100
AcDbLine
 10
1722.518117401576
 20
2020.199018360252
 30
0.0
 11
1722.518117401576
 21
2030.199018360252
 31
0.0
  0
SOLID
  5
A32
330
A2C
100
AcDbEntity
  8
SUNPO
 62
   144
100
AcDbTrace
 10
1720.184784068242
 20
2006.199018360252
 30
0.0
 11
1724.851450734909
 21
2006.199018360252
 31
0.0
 12
1722.518117401576
 22
2020.199018360252
 32
0.0
 13
1722.518117401576
 23
2020.199018360252
 33
0.0
  0
SOLID
  5
A33
330
A2C
100
AcDbEntity
  8
SUNPO
 62
   144
100
AcDbTrace
 10
1720.184784068242
 20
2044.199018360252
 30
0.0
 11
1724.851450734909
 21
2044.199018360252
 31
0.0
 12
1722.518117401576
 22
2030.199018360252
 32
0.0
 13
1722.518117401576
 23
2030.199018360252
 33
0.0
  0
MTEXT
  5
A34
330
A2C
100
AcDbEntity
  8
SUNPO
 62
     7
100
AcDbMText
 10
1685.018117401575
 20
2025.199018360252
 30
0.0
 40
50.0
 41
0.0
 71
     5
 72
     1
  1
\A2;10
  7
ADD
 11
0.0000000000000001
 21
1.0
 31
0.0
1001
ACAD
1000
MTEXTBEGIN
1070
    73
1070
     1
1070
    44
1040
1.0
1070
    74
1070
     0
1000
MTEXTEND
  0
POINT
  5
A35
330
A2C
100
AcDbEntity
  8
DEFPOINTS
 62
     0
100
AcDbPoint
 10
1699.85782112379
 20
2020.199018360252
 30
0.0
  0
POINT
  5
A36
330
A2C
100
AcDbEntity
  8
DEFPOINTS
 62
     0
100
AcDbPoint
 10
1699.85782112379
 20
2030.199018360252
 30
0.0
  0
POINT
  5
A37
330
A2C
100
AcDbEntity
  8
DEFPOINTS
 62
     0
100
AcDbPoint
 10
1722.518117401576
 20
2030.199018360252
 30
0.0
  0
ENDBLK
  5
A39
330
A2C
100
AcDbEntity
  8
0
100
AcDbBlockEnd
  0
BLOCK
  5
B3F
330
B35
100
AcDbEntity
  8
0
100
AcDbBlockBegin
  2
*D20
 70
     1
 10
0.0
 20
0.0
 30
0.0
  3
*D20
  1

  0
LINE
  5
B36
330
B35
100
AcDbEntity
  8
SUNPO
 62
   144
100
AcDbLine
 10
3240.0
 20
2070.0
 30
0.0
 11
3240.0
 21
2832.424833561923
 31
0.0
  0
LINE
  5
B37
330
B35
100
AcDbEntity
  8
SUNPO
 62
   144
100
AcDbLine
 10
5240.0
 20
2080.0
 30
0.0
 11
5240.0
 21
2832.424833561923
 31
0.0
  0
LINE
  5
B38
330
B35
100
AcDbEntity
  8
SUNPO
 62
   144
100
AcDbLine
 10
3254.0
 20
2822.424833561923
 30
0.0
 11
5226.0
 21
2822.424833561923
 31
0.0
  0
SOLID
  5
B39
330
B35
100
AcDbEntity
  8
SUNPO
 62
   144
100
AcDbTrace
 10
3254.0
 20
2824.758166895256
 30
0.0
 11
3254.0
 21
2820.091500228589
 31
0.0
 12
3240.0
 22
2822.424833561923
 32
0.0
 13
3240.0
 23
2822.424833561923
 33
0.0
  0
SOLID
  5
B3A
330
B35
100
AcDbEntity
  8
SUNPO
 62
   144
100
AcDbTrace
 10
5226.0
 20
2824.758166895256
 30
0.0
 11
5226.0
 21
2820.091500228589
 31
0.0
 12
5240.0
 22
2822.424833561923
 32
0.0
 13
5240.0
 23
2822.424833561923
 33
0.0
  0
MTEXT
  5
B3B
330
B35
100
AcDbEntity
  8
SUNPO
 62
     7
100
AcDbMText
 10
4240.0
 20
2859.924833561923
 30
0.0
 40
50.0
 41
0.0
 71
     5
 72
     1
  1
\A2;2000
  7
ADD
1001
ACAD
1000
MTEXTBEGIN
1070
    73
1070
     1
1070
    44
1040
1.0
1070
    74
1070
     0
1000
MTEXTEND
  0
POINT
  5
B3C
330
B35
100
AcDbEntity
  8
DEFPOINTS
 62
     0
100
AcDbPoint
 10
3240.0
 20
2050.0
 30
0.0
  0
POINT
  5
B3D
330
B35
100
AcDbEntity
  8
DEFPOINTS
 62
     0
100
AcDbPoint
 10
5240.0
 20
2060.0
 30
0.0
  0
POINT
  5
B3E
330
B35
100
AcDbEntity
  8
DEFPOINTS
 62
     0
100
AcDbPoint
 10
5240.0
 20
2822.424833561923
 30
0.0
  0
ENDBLK
  5
B40
330
B35
100
AcDbEntity
  8
0
100
AcDbBlockEnd
  0
BLOCK
  5
B4C
330
B42
100
AcDbEntity
  8
0
100
AcDbBlockBegin
  2
*D21
 70
     1
 10
0.0
 20
0.0
 30
0.0
  3
*D21
  1

  0
LINE
  5
B43
330
B42
100
AcDbEntity
  8
SUNPO
 62
   144
100
AcDbLine
 10
3240.0
 20
2090.0
 30
0.0
 11
3240.0
 21
2671.289190482719
 31
0.0
  0
LINE
  5
B44
330
B42
100
AcDbEntity
  8
SUNPO
 62
   144
100
AcDbLine
 10
3840.0
 20
2063.0
 30
0.0
 11
3840.0
 21
2671.289190482719
 31
0.0
  0
LINE
  5
B45
330
B42
100
AcDbEntity
  8
SUNPO
 62
   144
100
AcDbLine
 10
3254.0
 20
2661.289190482719
 30
0.0
 11
3826.0
 21
2661.289190482719
 31
0.0
  0
SOLID
  5
B46
330
B42
100
AcDbEntity
  8
SUNPO
 62
   144
100
AcDbTrace
 10
3254.0
 20
2663.622523816052
 30
0.0
 11
3254.0
 21
2658.955857149385
 31
0.0
 12
3240.0
 22
2661.289190482719
 32
0.0
 13
3240.0
 23
2661.289190482719
 33
0.0
  0
SOLID
  5
B47
330
B42
100
AcDbEntity
  8
SUNPO
 62
   144
100
AcDbTrace
 10
3826.0
 20
2663.622523816052
 30
0.0
 11
3826.0
 21
2658.955857149385
 31
0.0
 12
3840.0
 22
2661.289190482719
 32
0.0
 13
3840.0
 23
2661.289190482719
 33
0.0
  0
MTEXT
  5
B48
330
B42
100
AcDbEntity
  8
SUNPO
 62
     7
100
AcDbMText
 10
3540.0
 20
2698.789190482719
 30
0.0
 40
50.0
 41
0.0
 71
     5
 72
     1
  1
\A2;600
  7
ADD
1001
ACAD
1000
MTEXTBEGIN
1070
    73
1070
     1
1070
    44
1040
1.0
1070
    74
1070
     0
1000
MTEXTEND
  0
POINT
  5
B49
330
B42
100
AcDbEntity
  8
DEFPOINTS
 62
     0
100
AcDbPoint
 10
3240.0
 20
2070.0
 30
0.0
  0
POINT
  5
B4A
330
B42
100
AcDbEntity
  8
DEFPOINTS
 62
     0
100
AcDbPoint
 10
3840.0
 20
2043.0
 30
0.0
  0
POINT
  5
B4B
330
B42
100
AcDbEntity
  8
DEFPOINTS
 62
     0
100
AcDbPoint
 10
3840.0
 20
2661.289190482719
 30
0.0
  0
ENDBLK
  5
B4D
330
B42
100
AcDbEntity
  8
0
100
AcDbBlockEnd
  0
BLOCK
  5
B59
330
B4F
100
AcDbEntity
  8
0
100
AcDbBlockBegin
  2
*D22
 70
     1
 10
0.0
 20
0.0
 30
0.0
  3
*D22
  1

  0
LINE
  5
B50
330
B4F
100
AcDbEntity
  8
SUNPO
 62
   144
100
AcDbLine
 10
3840.0
 20
2240.0
 30
0.0
 11
3840.0
 21
2671.289190482719
 31
0.0
  0
LINE
  5
B51
330
B4F
100
AcDbEntity
  8
SUNPO
 62
   144
100
AcDbLine
 10
5240.0
 20
2240.0
 30
0.0
 11
5240.0
 21
2671.289190482719
 31
0.0
  0
LINE
  5
B52
330
B4F
100
AcDbEntity
  8
SUNPO
 62
   144
100
AcDbLine
 10
3854.0
 20
2661.289190482719
 30
0.0
 11
5226.0
 21
2661.289190482719
 31
0.0
  0
SOLID
  5
B53
330
B4F
100
AcDbEntity
  8
SUNPO
 62
   144
100
AcDbTrace
 10
3854.0
 20
2663.622523816052
 30
0.0
 11
3854.0
 21
2658.955857149385
 31
0.0
 12
3840.0
 22
2661.289190482719
 32
0.0
 13
3840.0
 23
2661.289190482719
 33
0.0
  0
SOLID
  5
B54
330
B4F
100
AcDbEntity
  8
SUNPO
 62
   144
100
AcDbTrace
 10
5226.0
 20
2663.622523816052
 30
0.0
 11
5226.0
 21
2658.955857149385
 31
0.0
 12
5240.0
 22
2661.289190482719
 32
0.0
 13
5240.0
 23
2661.289190482719
 33
0.0
  0
MTEXT
  5
B55
330
B4F
100
AcDbEntity
  8
SUNPO
 62
     7
100
AcDbMText
 10
4540.0
 20
2698.789190482719
 30
0.0
 40
50.0
 41
0.0
 71
     5
 72
     1
  1
\A2;1400
  7
ADD
1001
ACAD
1000
MTEXTBEGIN
1070
    73
1070
     1
1070
    44
1040
1.0
1070
    74
1070
     0
1000
MTEXTEND
  0
POINT
  5
B56
330
B4F
100
AcDbEntity
  8
DEFPOINTS
 62
     0
100
AcDbPoint
 10
3840.0
 20
2220.0
 30
0.0
  0
POINT
  5
B57
330
B4F
100
AcDbEntity
  8
DEFPOINTS
 62
     0
100
AcDbPoint
 10
5240.0
 20
2220.0
 30
0.0
  0
POINT
  5
B58
330
B4F
100
AcDbEntity
  8
DEFPOINTS
 62
     0
100
AcDbPoint
 10
5240.0
 20
2661.289190482719
 30
0.0
  0
ENDBLK
  5
B5A
330
B4F
100
AcDbEntity
  8
0
100
AcDbBlockEnd
  0
BLOCK
  5
B66
330
B5C
100
AcDbEntity
  8
0
100
AcDbBlockBegin
  2
*D23
 70
     1
 10
0.0
 20
0.0
 30
0.0
  3
*D23
  1

  0
LINE
  5
B5D
330
B5C
100
AcDbEntity
  8
SUNPO
 62
   144
100
AcDbLine
 10
1267.240561214936
 20
2038.931708116449
 30
0.0
 11
1267.240561214936
 21
2832.424833561923
 31
0.0
  0
LINE
  5
B5E
330
B5C
100
AcDbEntity
  8
SUNPO
 62
   144
100
AcDbLine
 10
1837.240561214936
 20
2038.931708116449
 30
0.0
 11
1837.240561214936
 21
2832.424833561923
 31
0.0
  0
LINE
  5
B5F
330
B5C
100
AcDbEntity
  8
SUNPO
 62
   144
100
AcDbLine
 10
1281.240561214936
 20
2822.424833561923
 30
0.0
 11
1823.240561214936
 21
2822.424833561923
 31
0.0
  0
SOLID
  5
B60
330
B5C
100
AcDbEntity
  8
SUNPO
 62
   144
100
AcDbTrace
 10
1281.240561214936
 20
2824.758166895256
 30
0.0
 11
1281.240561214936
 21
2820.091500228589
 31
0.0
 12
1267.240561214936
 22
2822.424833561923
 32
0.0
 13
1267.240561214936
 23
2822.424833561923
 33
0.0
  0
SOLID
  5
B61
330
B5C
100
AcDbEntity
  8
SUNPO
 62
   144
100
AcDbTrace
 10
1823.240561214936
 20
2824.758166895256
 30
0.0
 11
1823.240561214936
 21
2820.091500228589
 31
0.0
 12
1837.240561214936
 22
2822.424833561923
 32
0.0
 13
1837.240561214936
 23
2822.424833561923
 33
0.0
  0
MTEXT
  5
B62
330
B5C
100
AcDbEntity
  8
SUNPO
 62
     7
100
AcDbMText
 10
1552.240561214936
 20
2859.924833561923
 30
0.0
 40
50.0
 41
0.0
 71
     5
 72
     1
  1
\A2;570
  7
ADD
1001
ACAD
1000
MTEXTBEGIN
1070
    73
1070
     1
1070
    44
1040
1.0
1070
    74
1070
     0
1000
MTEXTEND
  0
POINT
  5
B63
330
B5C
100
AcDbEntity
  8
DEFPOINTS
 62
     0
100
AcDbPoint
 10
1267.240561214936
 20
2018.931708116449
 30
0.0
  0
POINT
  5
B64
330
B5C
100
AcDbEntity
  8
DEFPOINTS
 62
     0
100
AcDbPoint
 10
1837.240561214936
 20
2018.931708116449
 30
0.0
  0
POINT
  5
B65
330
B5C
100
AcDbEntity
  8
DEFPOINTS
 62
     0
100
AcDbPoint
 10
1837.240561214936
 20
2822.424833561923
 30
0.0
  0
ENDBLK
  5
B67
330
B5C
100
AcDbEntity
  8
0
100
AcDbBlockEnd
  0
BLOCK
  5
B73
330
B69
100
AcDbEntity
  8
0
100
AcDbBlockBegin
  2
*D24
 70
     1
 10
0.0
 20
0.0
 30
0.0
  3
*D24
  1

  0
LINE
  5
B6A
330
B69
100
AcDbEntity
  8
SUNPO
 62
   144
100
AcDbLine
 10
1267.240561214936
 20
2073.104519382388
 30
0.0
 11
1267.240561214936
 21
2671.289190482719
 31
0.0
  0
LINE
  5
B6B
330
B69
100
AcDbEntity
  8
SUNPO
 62
   144
100
AcDbLine
 10
1467.240561214936
 20
2073.104519382388
 30
0.0
 11
1467.240561214936
 21
2671.289190482719
 31
0.0
  0
LINE
  5
B6C
330
B69
100
AcDbEntity
  8
SUNPO
 62
   144
100
AcDbLine
 10
1281.240561214936
 20
2661.289190482719
 30
0.0
 11
1453.240561214936
 21
2661.289190482719
 31
0.0
  0
SOLID
  5
B6D
330
B69
100
AcDbEntity
  8
SUNPO
 62
   144
100
AcDbTrace
 10
1281.240561214936
 20
2663.622523816052
 30
0.0
 11
1281.240561214936
 21
2658.955857149385
 31
0.0
 12
1267.240561214936
 22
2661.289190482719
 32
0.0
 13
1267.240561214936
 23
2661.289190482719
 33
0.0
  0
SOLID
  5
B6E
330
B69
100
AcDbEntity
  8
SUNPO
 62
   144
100
AcDbTrace
 10
1453.240561214936
 20
2663.622523816052
 30
0.0
 11
1453.240561214936
 21
2658.955857149385
 31
0.0
 12
1467.240561214936
 22
2661.289190482719
 32
0.0
 13
1467.240561214936
 23
2661.289190482719
 33
0.0
  0
MTEXT
  5
B6F
330
B69
100
AcDbEntity
  8
SUNPO
 62
     7
100
AcDbMText
 10
1367.240561214936
 20
2698.789190482719
 30
0.0
 40
50.0
 41
0.0
 71
     5
 72
     1
  1
\A2;200
  7
ADD
1001
ACAD
1000
MTEXTBEGIN
1070
    73
1070
     1
1070
    44
1040
1.0
1070
    74
1070
     0
1000
MTEXTEND
  0
POINT
  5
B70
330
B69
100
AcDbEntity
  8
DEFPOINTS
 62
     0
100
AcDbPoint
 10
1267.240561214936
 20
2053.104519382388
 30
0.0
  0
POINT
  5
B71
330
B69
100
AcDbEntity
  8
DEFPOINTS
 62
     0
100
AcDbPoint
 10
1467.240561214936
 20
2053.104519382388
 30
0.0
  0
POINT
  5
B72
330
B69
100
AcDbEntity
  8
DEFPOINTS
 62
     0
100
AcDbPoint
 10
1467.240561214936
 20
2661.289190482719
 30
0.0
  0
ENDBLK
  5
B74
330
B69
100
AcDbEntity
  8
0
100
AcDbBlockEnd
  0
BLOCK
  5
B80
330
B76
100
AcDbEntity
  8
0
100
AcDbBlockBegin
  2
*D25
 70
     1
 10
0.0
 20
0.0
 30
0.0
  3
*D25
  1

  0
LINE
  5
B77
330
B76
100
AcDbEntity
  8
SUNPO
 62
   144
100
AcDbLine
 10
1467.240561214936
 20
2681.289190482719
 30
0.0
 11
1467.240561214936
 21
2671.289190482719
 31
0.0
  0
LINE
  5
B78
330
B76
100
AcDbEntity
  8
SUNPO
 62
   144
100
AcDbLine
 10
1837.240561214936
 20
2681.289190482719
 30
0.0
 11
1837.240561214936
 21
2671.289190482719
 31
0.0
  0
LINE
  5
B79
330
B76
100
AcDbEntity
  8
SUNPO
 62
   144
100
AcDbLine
 10
1481.240561214936
 20
2661.289190482719
 30
0.0
 11
1823.240561214936
 21
2661.289190482719
 31
0.0
  0
SOLID
  5
B7A
330
B76
100
AcDbEntity
  8
SUNPO
 62
   144
100
AcDbTrace
 10
1481.240561214936
 20
2663.622523816052
 30
0.0
 11
1481.240561214936
 21
2658.955857149385
 31
0.0
 12
1467.240561214936
 22
2661.289190482719
 32
0.0
 13
1467.240561214936
 23
2661.289190482719
 33
0.0
  0
SOLID
  5
B7B
330
B76
100
AcDbEntity
  8
SUNPO
 62
   144
100
AcDbTrace
 10
1823.240561214936
 20
2663.622523816052
 30
0.0
 11
1823.240561214936
 21
2658.955857149385
 31
0.0
 12
1837.240561214936
 22
2661.289190482719
 32
0.0
 13
1837.240561214936
 23
2661.289190482719
 33
0.0
  0
MTEXT
  5
B7C
330
B76
100
AcDbEntity
  8
SUNPO
 62
     7
100
AcDbMText
 10
1652.240561214936
 20
2698.789190482719
 30
0.0
 40
50.0
 41
0.0
 71
     5
 72
     1
  1
\A2;370
  7
ADD
1001
ACAD
1000
MTEXTBEGIN
1070
    73
1070
     1
1070
    44
1040
1.0
1070
    74
1070
     0
1000
MTEXTEND
  0
POINT
  5
B7D
330
B76
100
AcDbEntity
  8
DEFPOINTS
 62
     0
100
AcDbPoint
 10
1467.240561214936
 20
2661.289190482719
 30
0.0
  0
POINT
  5
B7E
330
B76
100
AcDbEntity
  8
DEFPOINTS
 62
     0
100
AcDbPoint
 10
1837.240561214936
 20
2661.289190482719
 30
0.0
  0
POINT
  5
B7F
330
B76
100
AcDbEntity
  8
DEFPOINTS
 62
     0
100
AcDbPoint
 10
1837.240561214936
 20
2661.289190482719
 30
0.0
  0
ENDBLK
  5
B81
330
B76
100
AcDbEntity
  8
0
100
AcDbBlockEnd
  0
BLOCK
  5
B8F
330
B83
100
AcDbEntity
  8
0
100
AcDbBlockBegin
  2
*D26
 70
     1
 10
0.0
 20
0.0
 30
0.0
  3
*D26
  1

  0
LINE
  5
B84
330
B83
100
AcDbEntity
  8
SUNPO
 62
   144
100
AcDbLine
 10
1267.240561214936
 20
2240.134455240026
 30
0.0
 11
1267.240561214936
 21
2482.462616270241
 31
0.0
  0
LINE
  5
B85
330
B83
100
AcDbEntity
  8
SUNPO
 62
   144
100
AcDbLine
 10
1289.740561214936
 20
2240.134455240026
 30
0.0
 11
1289.740561214936
 21
2482.462616270241
 31
0.0
  0
LINE
  5
B86
330
B83
100
AcDbEntity
  8
SUNPO
 62
   144
100
AcDbLine
 10
1253.240561214936
 20
2472.46261627024
 30
0.0
 11
1239.240561214936
 21
2472.46261627024
 31
0.0
  0
LINE
  5
B87
330
B83
100
AcDbEntity
  8
SUNPO
 62
   144
100
AcDbLine
 10
1303.740561214936
 20
2472.46261627024
 30
0.0
 11
1317.740561214936
 21
2472.46261627024
 31
0.0
  0
LINE
  5
B88
330
B83
100
AcDbEntity
  8
SUNPO
 62
   144
100
AcDbLine
 10
1267.240561214936
 20
2472.46261627024
 30
0.0
 11
1289.740561214936
 21
2472.46261627024
 31
0.0
  0
SOLID
  5
B89
330
B83
100
AcDbEntity
  8
SUNPO
 62
   144
100
AcDbTrace
 10
1253.240561214936
 20
2474.795949603574
 30
0.0
 11
1253.240561214936
 21
2470.129282936907
 31
0.0
 12
1267.240561214936
 22
2472.46261627024
 32
0.0
 13
1267.240561214936
 23
2472.46261627024
 33
0.0
  0
SOLID
  5
B8A
330
B83
100
AcDbEntity
  8
SUNPO
 62
   144
100
AcDbTrace
 10
1303.740561214936
 20
2474.795949603574
 30
0.0
 11
1303.740561214936
 21
2470.129282936907
 31
0.0
 12
1289.740561214936
 22
2472.46261627024
 32
0.0
 13
1289.740561214936
 23
2472.46261627024
 33
0.0
  0
MTEXT
  5
B8B
330
B83
100
AcDbEntity
  8
SUNPO
 62
     7
100
AcDbMText
 10
1278.490561214936
 20
2509.96261627024
 30
0.0
 40
50.0
 41
0.0
 71
     5
 72
     1
  1
\A2;22.5
  7
ADD
1001
ACAD
1000
MTEXTBEGIN
1070
    73
1070
     1
1070
    44
1040
1.0
1070
    74
1070
     0
1000
MTEXTEND
  0
POINT
  5
B8C
330
B83
100
AcDbEntity
  8
DEFPOINTS
 62
     0
100
AcDbPoint
 10
1267.240561214936
 20
2220.134455240026
 30
0.0
  0
POINT
  5
B8D
330
B83
100
AcDbEntity
  8
DEFPOINTS
 62
     0
100
AcDbPoint
 10
1289.740561214936
 20
2220.134455240026
 30
0.0
  0
POINT
  5
B8E
330
B83
100
AcDbEntity
  8
DEFPOINTS
 62
     0
100
AcDbPoint
 10
1289.740561214936
 20
2472.46261627024
 30
0.0
  0
ENDBLK
  5
B90
330
B83
100
AcDbEntity
  8
0
100
AcDbBlockEnd
  0
BLOCK
  5
B9E
330
B92
100
AcDbEntity
  8
0
100
AcDbBlockBegin
  2
*D27
 70
     1
 10
0.0
 20
0.0
 30
0.0
  3
*D27
  1

  0
LINE
  5
B93
330
B92
100
AcDbEntity
  8
SUNPO
 62
   144
100
AcDbLine
 10
1444.740561214936
 20
2238.931708116449
 30
0.0
 11
1444.740561214936
 21
2482.339047775189
 31
0.0
  0
LINE
  5
B94
330
B92
100
AcDbEntity
  8
SUNPO
 62
   144
100
AcDbLine
 10
1467.240561214936
 20
2238.931708116449
 30
0.0
 11
1467.240561214936
 21
2482.339047775189
 31
0.0
  0
LINE
  5
B95
330
B92
100
AcDbEntity
  8
SUNPO
 62
   144
100
AcDbLine
 10
1430.740561214936
 20
2472.339047775189
 30
0.0
 11
1416.740561214936
 21
2472.339047775189
 31
0.0
  0
LINE
  5
B96
330
B92
100
AcDbEntity
  8
SUNPO
 62
   144
100
AcDbLine
 10
1481.240561214936
 20
2472.339047775189
 30
0.0
 11
1495.240561214936
 21
2472.339047775189
 31
0.0
  0
LINE
  5
B97
330
B92
100
AcDbEntity
  8
SUNPO
 62
   144
100
AcDbLine
 10
1444.740561214936
 20
2472.339047775189
 30
0.0
 11
1467.240561214936
 21
2472.339047775189
 31
0.0
  0
SOLID
  5
B98
330
B92
100
AcDbEntity
  8
SUNPO
 62
   144
100
AcDbTrace
 10
1430.740561214936
 20
2474.672381108522
 30
0.0
 11
1430.740561214936
 21
2470.005714441855
 31
0.0
 12
1444.740561214936
 22
2472.339047775189
 32
0.0
 13
1444.740561214936
 23
2472.339047775189
 33
0.0
  0
SOLID
  5
B99
330
B92
100
AcDbEntity
  8
SUNPO
 62
   144
100
AcDbTrace
 10
1481.240561214936
 20
2474.672381108522
 30
0.0
 11
1481.240561214936
 21
2470.005714441855
 31
0.0
 12
1467.240561214936
 22
2472.339047775189
 32
0.0
 13
1467.240561214936
 23
2472.339047775189
 33
0.0
  0
MTEXT
  5
B9A
330
B92
100
AcDbEntity
  8
SUNPO
 62
     7
100
AcDbMText
 10
1455.990561214936
 20
2509.839047775189
 30
0.0
 40
50.0
 41
0.0
 71
     5
 72
     1
  1
\A2;22.5
  7
ADD
1001
ACAD
1000
MTEXTBEGIN
1070
    73
1070
     1
1070
    44
1040
1.0
1070
    74
1070
     0
1000
MTEXTEND
  0
POINT
  5
B9B
330
B92
100
AcDbEntity
  8
DEFPOINTS
 62
     0
100
AcDbPoint
 10
1444.740561214936
 20
2218.931708116449
 30
0.0
  0
POINT
  5
B9C
330
B92
100
AcDbEntity
  8
DEFPOINTS
 62
     0
100
AcDbPoint
 10
1467.240561214936
 20
2218.931708116449
 30
0.0
  0
POINT
  5
B9D
330
B92
100
AcDbEntity
  8
DEFPOINTS
 62
     0
100
AcDbPoint
 10
1467.240561214936
 20
2472.339047775189
 30
0.0
  0
ENDBLK
  5
B9F
330
B92
100
AcDbEntity
  8
0
100
AcDbBlockEnd
  0
BLOCK
  5
BAB
330
BA1
100
AcDbEntity
  8
0
100
AcDbBlockBegin
  2
*D28
 70
     1
 10
0.0
 20
0.0
 30
0.0
  3
*D28
  1

  0
LINE
  5
BA2
330
BA1
100
AcDbEntity
  8
SUNPO
 62
   144
100
AcDbLine
 10
1289.740561214936
 20
2240.134455240026
 30
0.0
 11
1289.740561214936
 21
2582.923595814574
 31
0.0
  0
LINE
  5
BA3
330
BA1
100
AcDbEntity
  8
SUNPO
 62
   144
100
AcDbLine
 10
1444.740561214936
 20
2240.134455240026
 30
0.0
 11
1444.740561214936
 21
2582.923595814574
 31
0.0
  0
LINE
  5
BA4
330
BA1
100
AcDbEntity
  8
SUNPO
 62
   144
100
AcDbLine
 10
1303.740561214936
 20
2572.923595814574
 30
0.0
 11
1430.740561214936
 21
2572.923595814574
 31
0.0
  0
SOLID
  5
BA5
330
BA1
100
AcDbEntity
  8
SUNPO
 62
   144
100
AcDbTrace
 10
1303.740561214936
 20
2575.256929147908
 30
0.0
 11
1303.740561214936
 21
2570.590262481241
 31
0.0
 12
1289.740561214936
 22
2572.923595814574
 32
0.0
 13
1289.740561214936
 23
2572.923595814574
 33
0.0
  0
SOLID
  5
BA6
330
BA1
100
AcDbEntity
  8
SUNPO
 62
   144
100
AcDbTrace
 10
1430.740561214936
 20
2575.256929147908
 30
0.0
 11
1430.740561214936
 21
2570.590262481241
 31
0.0
 12
1444.740561214936
 22
2572.923595814574
 32
0.0
 13
1444.740561214936
 23
2572.923595814574
 33
0.0
  0
MTEXT
  5
BA7
330
BA1
100
AcDbEntity
  8
SUNPO
 62
     7
100
AcDbMText
 10
1367.240561214936
 20
2610.423595814574
 30
0.0
 40
50.0
 41
0.0
 71
     5
 72
     1
  1
\A2;155
  7
ADD
1001
ACAD
1000
MTEXTBEGIN
1070
    73
1070
     1
1070
    44
1040
1.0
1070
    74
1070
     0
1000
MTEXTEND
  0
POINT
  5
BA8
330
BA1
100
AcDbEntity
  8
DEFPOINTS
 62
     0
100
AcDbPoint
 10
1289.740561214936
 20
2220.134455240026
 30
0.0
  0
POINT
  5
BA9
330
BA1
100
AcDbEntity
  8
DEFPOINTS
 62
     0
100
AcDbPoint
 10
1444.740561214936
 20
2220.134455240026
 30
0.0
  0
POINT
  5
BAA
330
BA1
100
AcDbEntity
  8
DEFPOINTS
 62
     0
100
AcDbPoint
 10
1444.740561214936
 20
2572.923595814574
 30
0.0
  0
ENDBLK
  5
BAC
330
BA1
100
AcDbEntity
  8
0
100
AcDbBlockEnd
  0
BLOCK
  5
BB5
330
BAE
100
AcDbEntity
  8
0
100
AcDbBlockBegin
  2
*D29
 70
     1
 10
0.0
 20
0.0
 30
0.0
  3
*D29
  1

  0
LINE
  5
BAF
330
BAE
100
AcDbEntity
  8
SUNPO
 62
   144
100
AcDbLine
 10
1651.034771833028
 20
2350.403693803583
 30
0.0
 11
1483.689909423308
 21
2234.485517680577
 31
0.0
  0
MTEXT
  5
BB0
330
BAE
100
AcDbEntity
  8
SUNPO
 62
     7
100
AcDbMText
 10
1566.560115848808
 20
2337.506856411609
 30
0.0
 40
50.0
 41
0.0
 71
     5
 72
     1
  1
\A2;R30
  7
ADD
 11
0.8220449381530087
 21
0.5694226195516088
 31
0.0
1001
ACAD
1000
MTEXTBEGIN
1070
    73
1070
     1
1070
    44
1040
1.0
1070
    74
1070
     0
1000
MTEXTEND
  0
LINE
  5
BB1
330
BAE
100
AcDbEntity
  8
SUNPO
 62
   144
100
AcDbLine
 10
1417.926314371068
 20
2188.931708116449
 30
0.0
 11
1442.587662515658
 21
2206.014386702997
 31
0.0
  0
SOLID
  5
BB2
330
BAE
100
AcDbEntity
  8
SUNPO
 62
   144
100
AcDbTrace
 10
1478.944720927045
 20
2241.335892165186
 30
0.0
 11
1488.435097919572
 21
2227.635143195969
 31
0.0
 12
1442.587662515658
 22
2206.014386702997
 32
0.0
 13
1442.587662515658
 23
2206.014386702997
 33
0.0
  0
POINT
  5
BB3
330
BAE
100
AcDbEntity
  8
DEFPOINTS
 62
     0
100
AcDbPoint
 10
1442.587662515658
 20
2206.014386702997
 30
0.0
  0
POINT
  5
BB4
330
BAE
100
AcDbEntity
  8
DEFPOINTS
 62
     0
100
AcDbPoint
 10
1417.926314371068
 20
2188.931708116449
 30
0.0
  0
ENDBLK
  5
BB6
330
BAE
100
AcDbEntity
  8
0
100
AcDbBlockEnd
  0
BLOCK
  5
BBF
330
BB8
100
AcDbEntity
  8
0
100
AcDbBlockBegin
  2
*D30
 70
     1
 10
0.0
 20
0.0
 30
0.0
  3
*D30
  1

  0
LINE
  5
BB9
330
BB8
100
AcDbEntity
  8
SUNPO
 62
   144
100
AcDbLine
 10
1239.258507067926
 20
1919.831247957036
 30
0.0
 11
1422.112246202186
 21
2009.306588779144
 31
0.0
  0
MTEXT
  5
BBA
330
BB8
100
AcDbEntity
  8
SUNPO
 62
     7
100
AcDbMText
 10
1291.747354660109
 20
1987.264302142738
 30
0.0
 40
50.0
 41
0.0
 71
     5
 72
     1
  1
\A2;R20
  7
ADD
 11
0.8982288939928537
 21
0.4395279900033386
 31
0.0
1001
ACAD
1000
MTEXTBEGIN
1070
    73
1070
     1
1070
    44
1040
1.0
1070
    74
1070
     0
1000
MTEXTEND
  0
LINE
  5
BBB
330
BB8
100
AcDbEntity
  8
SUNPO
 62
   144
100
AcDbLine
 10
1484.988268781686
 20
2040.073548079378
 30
0.0
 11
1467.023690901828
 21
2031.282988279311
 31
0.0
  0
SOLID
  5
BBC
330
BB8
100
AcDbEntity
  8
SUNPO
 62
   144
100
AcDbTrace
 10
1418.449512952157
 20
2016.791829562418
 30
0.0
 11
1425.774979452213
 21
2001.821347995871
 31
0.0
 12
1467.023690901828
 22
2031.282988279311
 32
0.0
 13
1467.023690901828
 23
2031.282988279311
 33
0.0
  0
POINT
  5
BBD
330
BB8
100
AcDbEntity
  8
DEFPOINTS
 62
     0
100
AcDbPoint
 10
1467.023690901828
 20
2031.282988279311
 30
0.0
  0
POINT
  5
BBE
330
BB8
100
AcDbEntity
  8
DEFPOINTS
 62
     0
100
AcDbPoint
 10
1484.988268781686
 20
2040.073548079378
 30
0.0
  0
ENDBLK
  5
BC0
330
BB8
100
AcDbEntity
  8
0
100
AcDbBlockEnd
  0
ENDSEC
  0
SECTION
  2
ENTITIES
  0
LINE
  5
60A
330
1F
100
AcDbEntity
  8
HOJO
100
AcDbLine
 10
360.0
 20
260.0
 30
0.0
 11
5580.0
 21
260.0
 31
0.0
  0
LINE
  5
60B
330
1F
100
AcDbEntity
  8
HOJO
100
AcDbLine
 10
360.0
 20
560.0
 30
0.0
 11
5580.0
 21
560.0
 31
0.0
  0
LINE
  5
60C
330
1F
100
AcDbEntity
  8
HOJO
100
AcDbLine
 10
360.0
 20
260.0
 30
0.0
 11
360.0
 21
560.0
 31
0.0
  0
LINE
  5
60D
330
1F
100
AcDbEntity
  8
HOJO
100
AcDbLine
 10
2360.0
 20
260.0
 30
0.0
 11
2360.0
 21
560.0
 31
0.0
  0
LINE
  5
60F
330
1F
100
AcDbEntity
  8
HOJO
100
AcDbLine
 10
3160.0
 20
260.0
 30
0.0
 11
3160.0
 21
560.0
 31
0.0
  0
LINE
  5
610
330
1F
100
AcDbEntity
  8
HOJO
100
AcDbLine
 10
3660.0
 20
260.0
 30
0.0
 11
3660.0
 21
560.0
 31
0.0
  0
LINE
  5
629
330
1F
100
AcDbEntity
  8
3C1
100
AcDbLine
 10
3240.0
 20
1900.0
 30
0.0
 11
5240.0
 21
1900.0
 31
0.0
  0
LINE
  5
62A
330
1F
100
AcDbEntity
  8
3C1
100
AcDbLine
 10
5240.0
 20
1900.0
 30
0.0
 11
5240.0
 21
2220.0
 31
0.0
  0
LINE
  5
62B
330
1F
100
AcDbEntity
  8
3C1
100
AcDbLine
 10
5240.0
 20
2220.0
 30
0.0
 11
3840.0
 21
2220.0
 31
0.0
  0
LINE
  5
62C
330
1F
100
AcDbEntity
  8
3C1
100
AcDbLine
 10
3840.0
 20
2220.0
 30
0.0
 11
3840.0
 21
2220.0
 31
0.0
  0
LINE
  5
62D
330
1F
100
AcDbEntity
  8
3C1
100
AcDbLine
 10
3840.0
 20
2220.0
 30
0.0
 11
3240.0
 21
2050.0
 31
0.0
  0
LINE
  5
62E
330
1F
100
AcDbEntity
  8
3C1
100
AcDbLine
 10
3240.0
 20
2050.0
 30
0.0
 11
3240.0
 21
1900.0
 31
0.0
  0
LINE
  5
62F
330
1F
100
AcDbEntity
  8
3C1
100
AcDbLine
 10
3240.0
 20
2020.0
 30
0.0
 11
3840.0
 21
2220.0
 31
0.0
  0
LINE
  5
631
330
1F
100
AcDbEntity
  8
3C1
100
AcDbLine
 10
3240.0
 20
2020.0
 30
0.0
 11
5240.0
 21
2020.0
 31
0.0
  0
LINE
  5
632
330
1F
100
AcDbEntity
  8
3C1
100
AcDbLine
 10
3240.0
 20
2030.0
 30
0.0
 11
3840.0
 21
2030.0
 31
0.0
  0
LINE
  5
634
330
1F
100
AcDbEntity
  8
3C1
100
AcDbLine
 10
3240.0
 20
2043.0
 30
0.0
 11
5240.0
 21
2043.0
 31
0.0
  0
LINE
  5
8EC
330
1F
100
AcDbEntity
  8
3C1
100
AcDbLine
 10
1267.240561214936
 20
1898.931708116449
 30
0.0
 11
1837.240561214936
 21
1898.931708116449
 31
0.0
  0
LINE
  5
8ED
330
1F
100
AcDbEntity
  8
3C1
100
AcDbLine
 10
1837.240561214936
 20
1898.931708116449
 30
0.0
 11
1837.240561214936
 21
2041.931708116448
 31
0.0
  0
LINE
  5
8EF
330
1F
100
AcDbEntity
  8
3C1
100
AcDbLine
 10
1467.240561214936
 20
2038.931708116449
 30
0.0
 11
1467.240561214936
 21
2038.931708116449
 31
0.0
  0
LINE
  5
8F2
330
1F
100
AcDbEntity
  8
3C1
100
AcDbLine
 10
1267.240561214936
 20
1898.931708116449
 30
0.0
 11
1267.240561214936
 21
2041.931708116448
 31
0.0
  0
LINE
  5
8F3
330
1F
100
AcDbEntity
  8
3C1
100
AcDbLine
 10
1316.168417777458
 20
2218.931708116449
 30
0.0
 11
1417.926314371068
 21
2218.931708116449
 31
0.0
  0
LINE
  5
8F7
330
1F
100
AcDbEntity
  8
3C1
100
AcDbLine
 10
1267.240561214936
 20
2041.931708116448
 30
0.0
 11
1286.407906449693
 21
2192.714823963199
 31
0.0
  0
LINE
  5
8FC
330
1F
100
AcDbEntity
  8
3C1
100
AcDbLine
 10
1486.229116934417
 20
2020.112077796308
 30
0.0
 11
1837.240561214936
 21
2041.931708116448
 31
0.0
  0
LINE
  5
8FD
330
1F
100
AcDbEntity
  8
3C1
100
AcDbLine
 10
1447.738253855832
 20
2192.285551308485
 30
0.0
 11
1465.113642458509
 21
2037.837652618021
 31
0.0
  0
ARC
  5
8FE
330
1F
100
AcDbEntity
  8
3C1
100
AcDbCircle
 10
1316.168417777458
 20
2188.931708116449
 30
0.0
 40
30.0
100
AcDbArc
 50
90.0
 51
172.7554931475587
  0
ARC
  5
8FF
330
1F
100
AcDbEntity
  8
3C1
100
AcDbCircle
 10
1417.926314371068
 20
2188.931708116449
 30
0.0
 40
30.0
100
AcDbArc
 50
6.418786730238807
 51
90.0
  0
LINE
  5
945
330
1F
100
AcDbEntity
  8
3C1
100
AcDbLine
 10
1468.379253090186
 20
2028.931708116449
 30
0.0
 11
1750.480321463229
 21
2028.931708116449
 31
0.0
  0
LINE
  5
946
330
1F
100
AcDbEntity
  8
3C1
100
AcDbLine
 10
1468.379253090186
 20
2028.931708116449
 30
0.0
 11
1268.130391723411
 21
2048.931708116449
 31
0.0
  0
ARC
  5
94B
330
1F
100
AcDbEntity
  8
3C1
100
AcDbCircle
 10
1484.988268781686
 20
2040.073548079378
 30
0.0
 40
20.0
100
AcDbArc
 50
186.4187867302387
 51
273.5570526057393
  0
LINE
  5
94D
330
1F
100
AcDbEntity
  8
3C1
100
AcDbLine
 10
1482.751514784576
 20
2020.199018360252
 30
0.0
 11
1674.725972944787
 21
2020.199018360252
 31
0.0
  0
LINE
  5
94E
330
1F
100
AcDbEntity
  8
3C1
100
AcDbLine
 10
1674.725972944787
 20
2020.199018360252
 30
0.0
 11
1750.500792280553
 21
2020.199018360252
 31
0.0
  0
LINE
  5
A3C
330
1F
100
AcDbEntity
  8
SUNPO
100
AcDbLine
 10
1337.922824118097
 20
2316.128998630327
 30
0.0
 11
1337.922824118097
 21
2316.128998630327
 31
0.0
  0
LINE
  5
A41
330
1F
100
AcDbEntity
  8
SUNPO
100
AcDbLine
 10
1837.240561214936
 20
1898.931708116449
 30
0.0
 11
1837.240561214936
 21
2541.337202363604
 31
0.0
  0
TEXT
  5
DA0
330
1F
100
AcDbEntity
  8
MOJI
100
AcDbText
 10
2538.349075517556
 20
382.2460811206074
 30
0.0
 40
50.0
  1
CBL1-T2
  7
ADD
100
AcDbText
  0
LINE
  5
DA1
330
1F
100
AcDbEntity
  8
SUNPO
 62
   144
100
AcDbLine
 10
1239.258507067926
 20
1919.831247957036
 30
0.0
 11
1422.112246202186
 21
2009.306588779144
 31
0.0
  0
LINE
  5
DA3
330
1F
100
AcDbEntity
  8
SUNPO
 62
   144
100
AcDbLine
 10
1484.988268781686
 20
2040.073548079378
 30
0.0
 11
1467.023690901828
 21
2031.282988279311
 31
0.0
  0
SOLID
  5
DA4
330
1F
100
AcDbEntity
  8
SUNPO
 62
   144
100
AcDbTrace
 10
1418.449512952157
 20
2016.791829562418
 30
0.0
 11
1425.774979452213
 21
2001.821347995871
 31
0.0
 12
1467.023690901828
 22
2031.282988279311
 32
0.0
 13
1467.023690901828
 23
2031.282988279311
 33
0.0
  0
LINE
  5
DA5
330
1F
100
AcDbEntity
  8
SUNPO
 62
   144
100
AcDbLine
 10
1651.034771833028
 20
2350.403693803583
 30
0.0
 11
1483.689909423308
 21
2234.485517680577
 31
0.0
  0
LINE
  5
DA7
330
1F
100
AcDbEntity
  8
SUNPO
 62
   144
100
AcDbLine
 10
1417.926314371068
 20
2188.931708116449
 30
0.0
 11
1442.587662515658
 21
2206.014386702997
 31
0.0
  0
SOLID
  5
DA8
330
1F
100
AcDbEntity
  8
SUNPO
 62
   144
100
AcDbTrace
 10
1478.944720927045
 20
2241.335892165186
 30
0.0
 11
1488.435097919572
 21
2227.635143195969
 31
0.0
 12
1442.587662515658
 22
2206.014386702997
 32
0.0
 13
1442.587662515658
 23
2206.014386702997
 33
0.0
  0
LINE
  5
DA9
330
1F
100
AcDbEntity
  8
SUNPO
 62
   144
100
AcDbLine
 10
1289.740561214936
 20
2240.134455240026
 30
0.0
 11
1289.740561214936
 21
2582.923595814574
 31
0.0
  0
LINE
  5
DAA
330
1F
100
AcDbEntity
  8
SUNPO
 62
   144
100
AcDbLine
 10
1444.740561214936
 20
2240.134455240026
 30
0.0
 11
1444.740561214936
 21
2582.923595814574
 31
0.0
  0
LINE
  5
DAB
330
1F
100
AcDbEntity
  8
SUNPO
 62
   144
100
AcDbLine
 10
1303.740561214936
 20
2572.923595814574
 30
0.0
 11
1430.740561214936
 21
2572.923595814574
 31
0.0
  0
SOLID
  5
DAC
330
1F
100
AcDbEntity
  8
SUNPO
 62
   144
100
AcDbTrace
 10
1303.740561214936
 20
2575.256929147908
 30
0.0
 11
1303.740561214936
 21
2570.590262481241
 31
0.0
 12
1289.740561214936
 22
2572.923595814574
 32
0.0
 13
1289.740561214936
 23
2572.923595814574
 33
0.0
  0
SOLID
  5
DAD
330
1F
100
AcDbEntity
  8
SUNPO
 62
   144
100
AcDbTrace
 10
1430.740561214936
 20
2575.256929147908
 30
0.0
 11
1430.740561214936
 21
2570.590262481241
 31
0.0
 12
1444.740561214936
 22
2572.923595814574
 32
0.0
 13
1444.740561214936
 23
2572.923595814574
 33
0.0
  0
LINE
  5
DAF
330
1F
100
AcDbEntity
  8
SUNPO
 62
   144
100
AcDbLine
 10
1444.740561214936
 20
2238.931708116449
 30
0.0
 11
1444.740561214936
 21
2482.339047775189
 31
0.0
  0
LINE
  5
DB0
330
1F
100
AcDbEntity
  8
SUNPO
 62
   144
100
AcDbLine
 10
1467.240561214936
 20
2238.931708116449
 30
0.0
 11
1467.240561214936
 21
2482.339047775189
 31
0.0
  0
LINE
  5
DB1
330
1F
100
AcDbEntity
  8
SUNPO
 62
   144
100
AcDbLine
 10
1430.740561214936
 20
2472.339047775189
 30
0.0
 11
1416.740561214936
 21
2472.339047775189
 31
0.0
  0
LINE
  5
DB2
330
1F
100
AcDbEntity
  8
SUNPO
 62
   144
100
AcDbLine
 10
1481.240561214936
 20
2472.339047775189
 30
0.0
 11
1495.240561214936
 21
2472.339047775189
 31
0.0
  0
LINE
  5
DB3
330
1F
100
AcDbEntity
  8
SUNPO
 62
   144
100
AcDbLine
 10
1444.740561214936
 20
2472.339047775189
 30
0.0
 11
1467.240561214936
 21
2472.339047775189
 31
0.0
  0
SOLID
  5
DB4
330
1F
100
AcDbEntity
  8
SUNPO
 62
   144
100
AcDbTrace
 10
1430.740561214936
 20
2474.672381108522
 30
0.0
 11
1430.740561214936
 21
2470.005714441855
 31
0.0
 12
1444.740561214936
 22
2472.339047775189
 32
0.0
 13
1444.740561214936
 23
2472.339047775189
 33
0.0
  0
SOLID
  5
DB5
330
1F
100
AcDbEntity
  8
SUNPO
 62
   144
100
AcDbTrace
 10
1481.240561214936
 20
2474.672381108522
 30
0.0
 11
1481.240561214936
 21
2470.005714441855
 31
0.0
 12
1467.240561214936
 22
2472.339047775189
 32
0.0
 13
1467.240561214936
 23
2472.339047775189
 33
0.0
  0
LINE
  5
DB7
330
1F
100
AcDbEntity
  8
SUNPO
 62
   144
100
AcDbLine
 10
1267.240561214936
 20
2240.134455240026
 30
0.0
 11
1267.240561214936
 21
2482.462616270241
 31
0.0
  0
LINE
  5
DB8
330
1F
100
AcDbEntity
  8
SUNPO
 62
   144
100
AcDbLine
 10
1289.740561214936
 20
2240.134455240026
 30
0.0
 11
1289.740561214936
 21
2482.462616270241
 31
0.0
  0
LINE
  5
DB9
330
1F
100
AcDbEntity
  8
SUNPO
 62
   144
100
AcDbLine
 10
1253.240561214936
 20
2472.46261627024
 30
0.0
 11
1239.240561214936
 21
2472.46261627024
 31
0.0
  0
LINE
  5
DBA
330
1F
100
AcDbEntity
  8
SUNPO
 62
   144
100
AcDbLine
 10
1303.740561214936
 20
2472.46261627024
 30
0.0
 11
1317.740561214936
 21
2472.46261627024
 31
0.0
  0
LINE
  5
DBB
330
1F
100
AcDbEntity
  8
SUNPO
 62
   144
100
AcDbLine
 10
1267.240561214936
 20
2472.46261627024
 30
0.0
 11
1289.740561214936
 21
2472.46261627024
 31
0.0
  0
SOLID
  5
DBC
330
1F
100
AcDbEntity
  8
SUNPO
 62
   144
100
AcDbTrace
 10
1253.240561214936
 20
2474.795949603574
 30
0.0
 11
1253.240561214936
 21
2470.129282936907
 31
0.0
 12
1267.240561214936
 22
2472.46261627024
 32
0.0
 13
1267.240561214936
 23
2472.46261627024
 33
0.0
  0
SOLID
  5
DBD
330
1F
100
AcDbEntity
  8
SUNPO
 62
   144
100
AcDbTrace
 10
1303.740561214936
 20
2474.795949603574
 30
0.0
 11
1303.740561214936
 21
2470.129282936907
 31
0.0
 12
1289.740561214936
 22
2472.46261627024
 32
0.0
 13
1289.740561214936
 23
2472.46261627024
 33
0.0
  0
LINE
  5
DBF
330
1F
100
AcDbEntity
  8
SUNPO
 62
   144
100
AcDbLine
 10
1467.240561214936
 20
2681.289190482719
 30
0.0
 11
1467.240561214936
 21
2671.289190482719
 31
0.0
  0
LINE
  5
DC0
330
1F
100
AcDbEntity
  8
SUNPO
 62
   144
100
AcDbLine
 10
1837.240561214936
 20
2681.289190482719
 30
0.0
 11
1837.240561214936
 21
2671.289190482719
 31
0.0
  0
LINE
  5
DC1
330
1F
100
AcDbEntity
  8
SUNPO
 62
   144
100
AcDbLine
 10
1481.240561214936
 20
2661.289190482719
 30
0.0
 11
1823.240561214936
 21
2661.289190482719
 31
0.0
  0
SOLID
  5
DC2
330
1F
100
AcDbEntity
  8
SUNPO
 62
   144
100
AcDbTrace
 10
1481.240561214936
 20
2663.622523816052
 30
0.0
 11
1481.240561214936
 21
2658.955857149385
 31
0.0
 12
1467.240561214936
 22
2661.289190482719
 32
0.0
 13
1467.240561214936
 23
2661.289190482719
 33
0.0
  0
SOLID
  5
DC3
330
1F
100
AcDbEntity
  8
SUNPO
 62
   144
100
AcDbTrace
 10
1823.240561214936
 20
2663.622523816052
 30
0.0
 11
1823.240561214936
 21
2658.955857149385
 31
0.0
 12
1837.240561214936
 22
2661.289190482719
 32
0.0
 13
1837.240561214936
 23
2661.289190482719
 33
0.0
  0
LINE
  5
DC5
330
1F
100
AcDbEntity
  8
SUNPO
 62
   144
100
AcDbLine
 10
1267.240561214936
 20
2073.104519382388
 30
0.0
 11
1267.240561214936
 21
2671.289190482719
 31
0.0
  0
LINE
  5
DC6
330
1F
100
AcDbEntity
  8
SUNPO
 62
   144
100
AcDbLine
 10
1467.240561214936
 20
2073.104519382388
 30
0.0
 11
1467.240561214936
 21
2671.289190482719
 31
0.0
  0
LINE
  5
DC7
330
1F
100
AcDbEntity
  8
SUNPO
 62
   144
100
AcDbLine
 10
1281.240561214936
 20
2661.289190482719
 30
0.0
 11
1453.240561214936
 21
2661.289190482719
 31
0.0
  0
SOLID
  5
DC8
330
1F
100
AcDbEntity
  8
SUNPO
 62
   144
100
AcDbTrace
 10
1281.240561214936
 20
2663.622523816052
 30
0.0
 11
1281.240561214936
 21
2658.955857149385
 31
0.0
 12
1267.240561214936
 22
2661.289190482719
 32
0.0
 13
1267.240561214936
 23
2661.289190482719
 33
0.0
  0
SOLID
  5
DC9
330
1F
100
AcDbEntity
  8
SUNPO
 62
   144
100
AcDbTrace
 10
1453.240561214936
 20
2663.622523816052
 30
0.0
 11
1453.240561214936
 21
2658.955857149385
 31
0.0
 12
1467.240561214936
 22
2661.289190482719
 32
0.0
 13
1467.240561214936
 23
2661.289190482719
 33
0.0
  0
LINE
  5
DCB
330
1F
100
AcDbEntity
  8
SUNPO
 62
   144
100
AcDbLine
 10
1267.240561214936
 20
2038.931708116449
 30
0.0
 11
1267.240561214936
 21
2832.424833561923
 31
0.0
  0
LINE
  5
DCC
330
1F
100
AcDbEntity
  8
SUNPO
 62
   144
100
AcDbLine
 10
1837.240561214936
 20
2038.931708116449
 30
0.0
 11
1837.240561214936
 21
2832.424833561923
 31
0.0
  0
LINE
  5
DCD
330
1F
100
AcDbEntity
  8
SUNPO
 62
   144
100
AcDbLine
 10
1281.240561214936
 20
2822.424833561923
 30
0.0
 11
1823.240561214936
 21
2822.424833561923
 31
0.0
  0
SOLID
  5
DCE
330
1F
100
AcDbEntity
  8
SUNPO
 62
   144
100
AcDbTrace
 10
1281.240561214936
 20
2824.758166895256
 30
0.0
 11
1281.240561214936
 21
2820.091500228589
 31
0.0
 12
1267.240561214936
 22
2822.424833561923
 32
0.0
 13
1267.240561214936
 23
2822.424833561923
 33
0.0
  0
SOLID
  5
DCF
330
1F
100
AcDbEntity
  8
SUNPO
 62
   144
100
AcDbTrace
 10
1823.240561214936
 20
2824.758166895256
 30
0.0
 11
1823.240561214936
 21
2820.091500228589
 31
0.0
 12
1837.240561214936
 22
2822.424833561923
 32
0.0
 13
1837.240561214936
 23
2822.424833561923
 33
0.0
  0
LINE
  5
DD1
330
1F
100
AcDbEntity
  8
SUNPO
 62
   144
100
AcDbLine
 10
3840.0
 20
2240.0
 30
0.0
 11
3840.0
 21
2671.289190482719
 31
0.0
  0
LINE
  5
DD2
330
1F
100
AcDbEntity
  8
SUNPO
 62
   144
100
AcDbLine
 10
5240.0
 20
2240.0
 30
0.0
 11
5240.0
 21
2671.289190482719
 31
0.0
  0
LINE
  5
DD3
330
1F
100
AcDbEntity
  8
SUNPO
 62
   144
100
AcDbLine
 10
3854.0
 20
2661.289190482719
 30
0.0
 11
5226.0
 21
2661.289190482719
 31
0.0
  0
SOLID
  5
DD4
330
1F
100
AcDbEntity
  8
SUNPO
 62
   144
100
AcDbTrace
 10
3854.0
 20
2663.622523816052
 30
0.0
 11
3854.0
 21
2658.955857149385
 31
0.0
 12
3840.0
 22
2661.289190482719
 32
0.0
 13
3840.0
 23
2661.289190482719
 33
0.0
  0
SOLID
  5
DD5
330
1F
100
AcDbEntity
  8
SUNPO
 62
   144
100
AcDbTrace
 10
5226.0
 20
2663.622523816052
 30
0.0
 11
5226.0
 21
2658.955857149385
 31
0.0
 12
5240.0
 22
2661.289190482719
 32
0.0
 13
5240.0
 23
2661.289190482719
 33
0.0
  0
LINE
  5
DD7
330
1F
100
AcDbEntity
  8
SUNPO
 62
   144
100
AcDbLine
 10
3240.0
 20
2090.0
 30
0.0
 11
3240.0
 21
2671.289190482719
 31
0.0
  0
LINE
  5
DD8
330
1F
100
AcDbEntity
  8
SUNPO
 62
   144
100
AcDbLine
 10
3840.0
 20
2063.0
 30
0.0
 11
3840.0
 21
2671.289190482719
 31
0.0
  0
LINE
  5
DD9
330
1F
100
AcDbEntity
  8
SUNPO
 62
   144
100
AcDbLine
 10
3254.0
 20
2661.289190482719
 30
0.0
 11
3826.0
 21
2661.289190482719
 31
0.0
  0
SOLID
  5
DDA
330
1F
100
AcDbEntity
  8
SUNPO
 62
   144
100
AcDbTrace
 10
3254.0
 20
2663.622523816052
 30
0.0
 11
3254.0
 21
2658.955857149385
 31
0.0
 12
3240.0
 22
2661.289190482719
 32
0.0
 13
3240.0
 23
2661.289190482719
 33
0.0
  0
SOLID
  5
DDB
330
1F
100
AcDbEntity
  8
SUNPO
 62
   144
100
AcDbTrace
 10
3826.0
 20
2663.622523816052
 30
0.0
 11
3826.0
 21
2658.955857149385
 31
0.0
 12
3840.0
 22
2661.289190482719
 32
0.0
 13
3840.0
 23
2661.289190482719
 33
0.0
  0
LINE
  5
DDD
330
1F
100
AcDbEntity
  8
SUNPO
 62
   144
100
AcDbLine
 10
3240.0
 20
2070.0
 30
0.0
 11
3240.0
 21
2832.424833561923
 31
0.0
  0
LINE
  5
DDE
330
1F
100
AcDbEntity
  8
SUNPO
 62
   144
100
AcDbLine
 10
5240.0
 20
2080.0
 30
0.0
 11
5240.0
 21
2832.424833561923
 31
0.0
  0
LINE
  5
DDF
330
1F
100
AcDbEntity
  8
SUNPO
 62
   144
100
AcDbLine
 10
3254.0
 20
2822.424833561923
 30
0.0
 11
5226.0
 21
2822.424833561923
 31
0.0
  0
SOLID
  5
DE0
330
1F
100
AcDbEntity
  8
SUNPO
 62
   144
100
AcDbTrace
 10
3254.0
 20
2824.758166895256
 30
0.0
 11
3254.0
 21
2820.091500228589
 31
0.0
 12
3240.0
 22
2822.424833561923
 32
0.0
 13
3240.0
 23
2822.424833561923
 33
0.0
  0
SOLID
  5
DE1
330
1F
100
AcDbEntity
  8
SUNPO
 62
   144
100
AcDbTrace
 10
5226.0
 20
2824.758166895256
 30
0.0
 11
5226.0
 21
2820.091500228589
 31
0.0
 12
5240.0
 22
2822.424833561923
 32
0.0
 13
5240.0
 23
2822.424833561923
 33
0.0
  0
LINE
  5
DE3
330
1F
100
AcDbEntity
  8
SUNPO
 62
   144
100
AcDbLine
 10
1719.85782112379
 20
2020.199018360252
 30
0.0
 11
1732.518117401576
 21
2020.199018360252
 31
0.0
  0
LINE
  5
DE4
330
1F
100
AcDbEntity
  8
SUNPO
 62
   144
100
AcDbLine
 10
1719.85782112379
 20
2030.199018360252
 30
0.0
 11
1732.518117401576
 21
2030.199018360252
 31
0.0
  0
LINE
  5
DE5
330
1F
100
AcDbEntity
  8
SUNPO
 62
   144
100
AcDbLine
 10
1722.518117401576
 20
2006.199018360252
 30
0.0
 11
1722.518117401576
 21
1992.199018360252
 31
0.0
  0
LINE
  5
DE6
330
1F
100
AcDbEntity
  8
SUNPO
 62
   144
100
AcDbLine
 10
1722.518117401576
 20
2044.199018360252
 30
0.0
 11
1722.518117401576
 21
2058.199018360252
 31
0.0
  0
LINE
  5
DE7
330
1F
100
AcDbEntity
  8
SUNPO
 62
   144
100
AcDbLine
 10
1722.518117401576
 20
2020.199018360252
 30
0.0
 11
1722.518117401576
 21
2030.199018360252
 31
0.0
  0
SOLID
  5
DE8
330
1F
100
AcDbEntity
  8
SUNPO
 62
   144
100
AcDbTrace
 10
1720.184784068242
 20
2006.199018360252
 30
0.0
 11
1724.851450734909
 21
2006.199018360252
 31
0.0
 12
1722.518117401576
 22
2020.199018360252
 32
0.0
 13
1722.518117401576
 23
2020.199018360252
 33
0.0
  0
SOLID
  5
DE9
330
1F
100
AcDbEntity
  8
SUNPO
 62
   144
100
AcDbTrace
 10
1720.184784068242
 20
2044.199018360252
 30
0.0
 11
1724.851450734909
 21
2044.199018360252
 31
0.0
 12
1722.518117401576
 22
2030.199018360252
 32
0.0
 13
1722.518117401576
 23
2030.199018360252
 33
0.0
  0
LINE
  5
DEB
330
1F
100
AcDbEntity
  8
SUNPO
 62
   144
100
AcDbLine
 10
1732.61338261267
 20
2020.199018360252
 30
0.0
 11
1798.799733722126
 21
2020.199018360252
 31
0.0
  0
LINE
  5
DEC
330
1F
100
AcDbEntity
  8
SUNPO
 62
   144
100
AcDbLine
 10
1732.61338261267
 20
1900.199018360252
 30
0.0
 11
1798.799733722126
 21
1900.199018360252
 31
0.0
  0
LINE
  5
DED
330
1F
100
AcDbEntity
  8
SUNPO
 62
   144
100
AcDbLine
 10
1788.799733722126
 20
2034.199018360252
 30
0.0
 11
1788.799733722126
 21
2048.199018360252
 31
0.0
  0
LINE
  5
DEE
330
1F
100
AcDbEntity
  8
SUNPO
 62
   144
100
AcDbLine
 10
1788.799733722126
 20
1886.199018360252
 30
0.0
 11
1788.799733722126
 21
1872.199018360252
 31
0.0
  0
LINE
  5
DEF
330
1F
100
AcDbEntity
  8
SUNPO
 62
   144
100
AcDbLine
 10
1788.799733722126
 20
2020.199018360252
 30
0.0
 11
1788.799733722126
 21
1900.199018360252
 31
0.0
  0
SOLID
  5
DF0
330
1F
100
AcDbEntity
  8
SUNPO
 62
   144
100
AcDbTrace
 10
1786.466400388792
 20
2034.199018360252
 30
0.0
 11
1791.133067055459
 21
2034.199018360252
 31
0.0
 12
1788.799733722126
 22
2020.199018360252
 32
0.0
 13
1788.799733722126
 23
2020.199018360252
 33
0.0
  0
SOLID
  5
DF1
330
1F
100
AcDbEntity
  8
SUNPO
 62
   144
100
AcDbTrace
 10
1786.466400388792
 20
1886.199018360252
 30
0.0
 11
1791.133067055459
 21
1886.199018360252
 31
0.0
 12
1788.799733722126
 22
1900.199018360252
 32
0.0
 13
1788.799733722126
 23
1900.199018360252
 33
0.0
  0
LINE
  5
DF3
330
1F
100
AcDbEntity
  8
SUNPO
 62
   144
100
AcDbLine
 10
1247.240561214936
 20
2048.931708116449
 30
0.0
 11
1186.37417554637
 21
2048.931708116449
 31
0.0
  0
LINE
  5
DF4
330
1F
100
AcDbEntity
  8
SUNPO
 62
   144
100
AcDbLine
 10
1247.240561214936
 20
2018.931708116449
 30
0.0
 11
1186.37417554637
 21
2018.931708116449
 31
0.0
  0
LINE
  5
DF5
330
1F
100
AcDbEntity
  8
SUNPO
 62
   144
100
AcDbLine
 10
1196.37417554637
 20
2062.931708116449
 30
0.0
 11
1196.37417554637
 21
2076.931708116449
 31
0.0
  0
LINE
  5
DF6
330
1F
100
AcDbEntity
  8
SUNPO
 62
   144
100
AcDbLine
 10
1196.37417554637
 20
2004.931708116449
 30
0.0
 11
1196.37417554637
 21
1990.931708116449
 31
0.0
  0
LINE
  5
DF7
330
1F
100
AcDbEntity
  8
SUNPO
 62
   144
100
AcDbLine
 10
1196.37417554637
 20
2048.931708116449
 30
0.0
 11
1196.37417554637
 21
2018.931708116449
 31
0.0
  0
SOLID
  5
DF8
330
1F
100
AcDbEntity
  8
SUNPO
 62
   144
100
AcDbTrace
 10
1194.040842213037
 20
2062.931708116449
 30
0.0
 11
1198.707508879704
 21
2062.931708116449
 31
0.0
 12
1196.37417554637
 22
2048.931708116449
 32
0.0
 13
1196.37417554637
 23
2048.931708116449
 33
0.0
  0
SOLID
  5
DF9
330
1F
100
AcDbEntity
  8
SUNPO
 62
   144
100
AcDbTrace
 10
1194.040842213037
 20
2004.931708116449
 30
0.0
 11
1198.707508879704
 21
2004.931708116449
 31
0.0
 12
1196.37417554637
 22
2018.931708116449
 32
0.0
 13
1196.37417554637
 23
2018.931708116449
 33
0.0
  0
LINE
  5
DFB
330
1F
100
AcDbEntity
  8
SUNPO
 62
   144
100
AcDbLine
 10
1253.120677342771
 20
2218.931708116449
 30
0.0
 11
1186.37417554637
 21
2218.931708116449
 31
0.0
  0
LINE
  5
DFC
330
1F
100
AcDbEntity
  8
SUNPO
 62
   144
100
AcDbLine
 10
1253.120677342771
 20
2048.931708116449
 30
0.0
 11
1186.37417554637
 21
2048.931708116449
 31
0.0
  0
LINE
  5
DFD
330
1F
100
AcDbEntity
  8
SUNPO
 62
   144
100
AcDbLine
 10
1196.37417554637
 20
2204.931708116449
 30
0.0
 11
1196.37417554637
 21
2062.931708116449
 31
0.0
  0
SOLID
  5
DFE
330
1F
100
AcDbEntity
  8
SUNPO
 62
   144
100
AcDbTrace
 10
1194.040842213037
 20
2204.931708116449
 30
0.0
 11
1198.707508879704
 21
2204.931708116449
 31
0.0
 12
1196.37417554637
 22
2218.931708116449
 32
0.0
 13
1196.37417554637
 23
2218.931708116449
 33
0.0
  0
SOLID
  5
DFF
330
1F
100
AcDbEntity
  8
SUNPO
 62
   144
100
AcDbTrace
 10
1194.040842213037
 20
2062.931708116449
 30
0.0
 11
1198.707508879704
 21
2062.931708116449
 31
0.0
 12
1196.37417554637
 22
2048.931708116449
 32
0.0
 13
1196.37417554637
 23
2048.931708116449
 33
0.0
  0
LINE
  5
E01
330
1F
100
AcDbEntity
  8
SUNPO
 62
   144
100
AcDbLine
 10
1247.240561214936
 20
2018.931708116448
 30
0.0
 11
1110.0
 21
2018.931708116448
 31
0.0
  0
LINE
  5
E02
330
1F
100
AcDbEntity
  8
SUNPO
 62
   144
100
AcDbLine
 10
1247.240561214936
 20
2218.931708116449
 30
0.0
 11
1110.0
 21
2218.931708116449
 31
0.0
  0
LINE
  5
E03
330
1F
100
AcDbEntity
  8
SUNPO
 62
   144
100
AcDbLine
 10
1120.0
 20
2032.931708116449
 30
0.0
 11
1120.0
 21
2204.931708116449
 31
0.0
  0
SOLID
  5
E04
330
1F
100
AcDbEntity
  8
SUNPO
 62
   144
100
AcDbTrace
 10
1117.666666666666
 20
2032.931708116449
 30
0.0
 11
1122.333333333333
 21
2032.931708116449
 31
0.0
 12
1120.0
 22
2018.931708116448
 32
0.0
 13
1120.0
 23
2018.931708116448
 33
0.0
  0
SOLID
  5
E05
330
1F
100
AcDbEntity
  8
SUNPO
 62
   144
100
AcDbTrace
 10
1117.666666666666
 20
2204.931708116449
 30
0.0
 11
1122.333333333333
 21
2204.931708116449
 31
0.0
 12
1120.0
 22
2218.931708116449
 32
0.0
 13
1120.0
 23
2218.931708116449
 33
0.0
  0
LINE
  5
E07
330
1F
100
AcDbEntity
  8
SUNPO
 62
   144
100
AcDbLine
 10
1247.240561214936
 20
1898.931708116449
 30
0.0
 11
1110.0
 21
1898.931708116449
 31
0.0
  0
LINE
  5
E08
330
1F
100
AcDbEntity
  8
SUNPO
 62
   144
100
AcDbLine
 10
1247.240561214936
 20
2018.931708116448
 30
0.0
 11
1110.0
 21
2018.931708116448
 31
0.0
  0
LINE
  5
E09
330
1F
100
AcDbEntity
  8
SUNPO
 62
   144
100
AcDbLine
 10
1120.0
 20
1884.931708116448
 30
0.0
 11
1120.0
 21
1870.931708116449
 31
0.0
  0
LINE
  5
E0A
330
1F
100
AcDbEntity
  8
SUNPO
 62
   144
100
AcDbLine
 10
1120.0
 20
2032.931708116449
 30
0.0
 11
1120.0
 21
2046.931708116449
 31
0.0
  0
LINE
  5
E0B
330
1F
100
AcDbEntity
  8
SUNPO
 62
   144
100
AcDbLine
 10
1120.0
 20
1898.931708116449
 30
0.0
 11
1120.0
 21
2018.931708116448
 31
0.0
  0
SOLID
  5
E0C
330
1F
100
AcDbEntity
  8
SUNPO
 62
   144
100
AcDbTrace
 10
1117.666666666666
 20
1884.931708116448
 30
0.0
 11
1122.333333333333
 21
1884.931708116448
 31
0.0
 12
1120.0
 22
1898.931708116449
 32
0.0
 13
1120.0
 23
1898.931708116449
 33
0.0
  0
SOLID
  5
E0D
330
1F
100
AcDbEntity
  8
SUNPO
 62
   144
100
AcDbTrace
 10
1117.666666666666
 20
2032.931708116449
 30
0.0
 11
1122.333333333333
 21
2032.931708116449
 31
0.0
 12
1120.0
 22
2018.931708116448
 32
0.0
 13
1120.0
 23
2018.931708116448
 33
0.0
  0
LINE
  5
E0F
330
1F
100
AcDbEntity
  8
SUNPO
 62
   144
100
AcDbLine
 10
1247.240561214936
 20
1898.931708116449
 30
0.0
 11
1036.279791854143
 21
1898.931708116449
 31
0.0
  0
LINE
  5
E10
330
1F
100
AcDbEntity
  8
SUNPO
 62
   144
100
AcDbLine
 10
1247.240561214936
 20
2218.931708116449
 30
0.0
 11
1036.279791854143
 21
2218.931708116449
 31
0.0
  0
LINE
  5
E11
330
1F
100
AcDbEntity
  8
SUNPO
 62
   144
100
AcDbLine
 10
1046.279791854143
 20
1912.931708116449
 30
0.0
 11
1046.279791854143
 21
2204.931708116449
 31
0.0
  0
SOLID
  5
E12
330
1F
100
AcDbEntity
  8
SUNPO
 62
   144
100
AcDbTrace
 10
1043.94645852081
 20
1912.931708116449
 30
0.0
 11
1048.613125187477
 21
1912.931708116449
 31
0.0
 12
1046.279791854143
 22
1898.931708116449
 32
0.0
 13
1046.279791854143
 23
1898.931708116449
 33
0.0
  0
SOLID
  5
E13
330
1F
100
AcDbEntity
  8
SUNPO
 62
   144
100
AcDbTrace
 10
1043.94645852081
 20
2204.931708116449
 30
0.0
 11
1048.613125187477
 21
2204.931708116449
 31
0.0
 12
1046.279791854143
 22
2218.931708116449
 32
0.0
 13
1046.279791854143
 23
2218.931708116449
 33
0.0
  0
LINE
  5
E15
330
1F
100
AcDbEntity
  8
SUNPO
 62
   144
100
AcDbLine
 10
1267.240561214936
 20
1878.931708116449
 30
0.0
 11
1267.240561214936
 21
1740.0
 31
0.0
  0
LINE
  5
E16
330
1F
100
AcDbEntity
  8
SUNPO
 62
   144
100
AcDbLine
 10
1837.240561214936
 20
1878.931708116448
 30
0.0
 11
1837.240561214936
 21
1740.0
 31
0.0
  0
LINE
  5
E17
330
1F
100
AcDbEntity
  8
SUNPO
 62
   144
100
AcDbLine
 10
1281.240561214936
 20
1750.0
 30
0.0
 11
1823.240561214936
 21
1750.0
 31
0.0
  0
SOLID
  5
E18
330
1F
100
AcDbEntity
  8
SUNPO
 62
   144
100
AcDbTrace
 10
1281.240561214936
 20
1752.333333333333
 30
0.0
 11
1281.240561214936
 21
1747.666666666666
 31
0.0
 12
1267.240561214936
 22
1750.0
 32
0.0
 13
1267.240561214936
 23
1750.0
 33
0.0
  0
SOLID
  5
E19
330
1F
100
AcDbEntity
  8
SUNPO
 62
   144
100
AcDbTrace
 10
1823.240561214936
 20
1752.333333333333
 30
0.0
 11
1823.240561214936
 21
1747.666666666666
 31
0.0
 12
1837.240561214936
 22
1750.0
 32
0.0
 13
1837.240561214936
 23
1750.0
 33
0.0
  0
LINE
  5
E1B
330
1F
100
AcDbEntity
  8
SUNPO
 62
   144
100
AcDbLine
 10
1857.240561214936
 20
1898.931708116449
 30
0.0
 11
2022.009838019225
 21
1898.931708116449
 31
0.0
  0
LINE
  5
E1C
330
1F
100
AcDbEntity
  8
SUNPO
 62
   144
100
AcDbLine
 10
1857.240561214936
 20
2041.931708116448
 30
0.0
 11
2022.009838019225
 21
2041.931708116448
 31
0.0
  0
LINE
  5
E1D
330
1F
100
AcDbEntity
  8
SUNPO
 62
   144
100
AcDbLine
 10
2012.009838019225
 20
1884.931708116448
 30
0.0
 11
2012.009838019225
 21
1870.931708116449
 31
0.0
  0
LINE
  5
E1E
330
1F
100
AcDbEntity
  8
SUNPO
 62
   144
100
AcDbLine
 10
2012.009838019225
 20
2055.931708116449
 30
0.0
 11
2012.009838019225
 21
2069.931708116448
 31
0.0
  0
LINE
  5
E1F
330
1F
100
AcDbEntity
  8
SUNPO
 62
   144
100
AcDbLine
 10
2012.009838019225
 20
1898.931708116449
 30
0.0
 11
2012.009838019225
 21
2041.931708116448
 31
0.0
  0
SOLID
  5
E20
330
1F
100
AcDbEntity
  8
SUNPO
 62
   144
100
AcDbTrace
 10
2009.676504685892
 20
1884.931708116448
 30
0.0
 11
2014.343171352558
 21
1884.931708116448
 31
0.0
 12
2012.009838019225
 22
1898.931708116449
 32
0.0
 13
2012.009838019225
 23
1898.931708116449
 33
0.0
  0
SOLID
  5
E21
330
1F
100
AcDbEntity
  8
SUNPO
 62
   144
100
AcDbTrace
 10
2009.676504685892
 20
2055.931708116449
 30
0.0
 11
2014.343171352558
 21
2055.931708116449
 31
0.0
 12
2012.009838019225
 22
2041.931708116448
 32
0.0
 13
2012.009838019225
 23
2041.931708116448
 33
0.0
  0
TEXT
  5
E23
330
1F
100
AcDbEntity
  8
MOJI
100
AcDbText
 10
1207.485423762687
 20
376.87489577013
 30
0.0
 40
50.0
  1
斜切下げ（一般）
  7
ADD
100
AcDbText
  0
LINE
  5
E24
330
1F
100
AcDbEntity
  8
SUNPO
 62
   144
100
AcDbLine
 10
3860.0
 20
2020.0
 30
0.0
 11
3930.0
 21
2020.0
 31
0.0
  0
LINE
  5
E25
330
1F
100
AcDbEntity
  8
SUNPO
 62
   144
100
AcDbLine
 10
3860.0
 20
2030.0
 30
0.0
 11
3930.0
 21
2030.0
 31
0.0
  0
LINE
  5
E26
330
1F
100
AcDbEntity
  8
SUNPO
 62
   144
100
AcDbLine
 10
3920.0
 20
2006.0
 30
0.0
 11
3920.0
 21
1992.0
 31
0.0
  0
LINE
  5
E27
330
1F
100
AcDbEntity
  8
SUNPO
 62
   144
100
AcDbLine
 10
3920.0
 20
2044.0
 30
0.0
 11
3920.0
 21
2058.0
 31
0.0
  0
LINE
  5
E28
330
1F
100
AcDbEntity
  8
SUNPO
 62
   144
100
AcDbLine
 10
3920.0
 20
2020.0
 30
0.0
 11
3920.0
 21
2030.0
 31
0.0
  0
SOLID
  5
E29
330
1F
100
AcDbEntity
  8
SUNPO
 62
   144
100
AcDbTrace
 10
3917.666666666667
 20
2006.0
 30
0.0
 11
3922.333333333333
 21
2006.0
 31
0.0
 12
3920.0
 22
2020.0
 32
0.0
 13
3920.0
 23
2020.0
 33
0.0
  0
SOLID
  5
E2A
330
1F
100
AcDbEntity
  8
SUNPO
 62
   144
100
AcDbTrace
 10
3917.666666666667
 20
2044.0
 30
0.0
 11
3922.333333333333
 21
2044.0
 31
0.0
 12
3920.0
 22
2030.0
 32
0.0
 13
3920.0
 23
2030.0
 33
0.0
  0
LINE
  5
E2C
330
1F
100
AcDbEntity
  8
SUNPO
 62
   144
100
AcDbLine
 10
3820.0
 20
1900.0
 30
0.0
 11
3830.0
 21
1900.0
 31
0.0
  0
LINE
  5
E2D
330
1F
100
AcDbEntity
  8
SUNPO
 62
   144
100
AcDbLine
 10
3820.0
 20
2020.0
 30
0.0
 11
3830.0
 21
2020.0
 31
0.0
  0
LINE
  5
E2E
330
1F
100
AcDbEntity
  8
SUNPO
 62
   144
100
AcDbLine
 10
3840.0
 20
1886.0
 30
0.0
 11
3840.0
 21
1872.0
 31
0.0
  0
LINE
  5
E2F
330
1F
100
AcDbEntity
  8
SUNPO
 62
   144
100
AcDbLine
 10
3840.0
 20
2034.0
 30
0.0
 11
3840.0
 21
2048.0
 31
0.0
  0
LINE
  5
E30
330
1F
100
AcDbEntity
  8
SUNPO
 62
   144
100
AcDbLine
 10
3840.0
 20
1900.0
 30
0.0
 11
3840.0
 21
2020.0
 31
0.0
  0
SOLID
  5
E31
330
1F
100
AcDbEntity
  8
SUNPO
 62
   144
100
AcDbTrace
 10
3837.666666666666
 20
1886.0
 30
0.0
 11
3842.333333333334
 21
1886.0
 31
0.0
 12
3840.0
 22
1900.0
 32
0.0
 13
3840.0
 23
1900.0
 33
0.0
  0
SOLID
  5
E32
330
1F
100
AcDbEntity
  8
SUNPO
 62
   144
100
AcDbTrace
 10
3837.666666666666
 20
2034.0
 30
0.0
 11
3842.333333333334
 21
2034.0
 31
0.0
 12
3840.0
 22
2020.0
 32
0.0
 13
3840.0
 23
2020.0
 33
0.0
  0
LINE
  5
E34
330
1F
100
AcDbEntity
  8
SUNPO
 62
   144
100
AcDbLine
 10
3220.0
 20
2050.0
 30
0.0
 11
3030.0
 21
2050.0
 31
0.0
  0
LINE
  5
E35
330
1F
100
AcDbEntity
  8
SUNPO
 62
   144
100
AcDbLine
 10
3220.0
 20
2220.0
 30
0.0
 11
3030.0
 21
2220.0
 31
0.0
  0
LINE
  5
E36
330
1F
100
AcDbEntity
  8
SUNPO
 62
   144
100
AcDbLine
 10
3040.0
 20
2064.0
 30
0.0
 11
3040.0
 21
2206.0
 31
0.0
  0
SOLID
  5
E37
330
1F
100
AcDbEntity
  8
SUNPO
 62
   144
100
AcDbTrace
 10
3037.666666666666
 20
2064.0
 30
0.0
 11
3042.333333333333
 21
2064.0
 31
0.0
 12
3040.0
 22
2050.0
 32
0.0
 13
3040.0
 23
2050.0
 33
0.0
  0
SOLID
  5
E38
330
1F
100
AcDbEntity
  8
SUNPO
 62
   144
100
AcDbTrace
 10
3037.666666666666
 20
2206.0
 30
0.0
 11
3042.333333333333
 21
2206.0
 31
0.0
 12
3040.0
 22
2220.0
 32
0.0
 13
3040.0
 23
2220.0
 33
0.0
  0
LINE
  5
E3A
330
1F
100
AcDbEntity
  8
SUNPO
 62
   144
100
AcDbLine
 10
3220.0
 20
2020.0
 30
0.0
 11
2940.0
 21
2020.0
 31
0.0
  0
LINE
  5
E3B
330
1F
100
AcDbEntity
  8
SUNPO
 62
   144
100
AcDbLine
 10
3220.0
 20
2050.0
 30
0.0
 11
2940.0
 21
2050.0
 31
0.0
  0
LINE
  5
E3C
330
1F
100
AcDbEntity
  8
SUNPO
 62
   144
100
AcDbLine
 10
2950.0
 20
2006.0
 30
0.0
 11
2950.0
 21
1992.0
 31
0.0
  0
LINE
  5
E3D
330
1F
100
AcDbEntity
  8
SUNPO
 62
   144
100
AcDbLine
 10
2950.0
 20
2064.0
 30
0.0
 11
2950.0
 21
2078.0
 31
0.0
  0
LINE
  5
E3E
330
1F
100
AcDbEntity
  8
SUNPO
 62
   144
100
AcDbLine
 10
2950.0
 20
2020.0
 30
0.0
 11
2950.0
 21
2050.0
 31
0.0
  0
SOLID
  5
E3F
330
1F
100
AcDbEntity
  8
SUNPO
 62
   144
100
AcDbTrace
 10
2947.666666666666
 20
2006.0
 30
0.0
 11
2952.333333333333
 21
2006.0
 31
0.0
 12
2950.0
 22
2020.0
 32
0.0
 13
2950.0
 23
2020.0
 33
0.0
  0
SOLID
  5
E40
330
1F
100
AcDbEntity
  8
SUNPO
 62
   144
100
AcDbTrace
 10
2947.666666666666
 20
2064.0
 30
0.0
 11
2952.333333333333
 21
2064.0
 31
0.0
 12
2950.0
 22
2050.0
 32
0.0
 13
2950.0
 23
2050.0
 33
0.0
  0
LINE
  5
E42
330
1F
100
AcDbEntity
  8
SUNPO
 62
   144
100
AcDbLine
 10
3220.0
 20
2020.0
 30
0.0
 11
2810.0
 21
2020.0
 31
0.0
  0
LINE
  5
E43
330
1F
100
AcDbEntity
  8
SUNPO
 62
   144
100
AcDbLine
 10
3220.0
 20
2220.0
 30
0.0
 11
2810.0
 21
2220.0
 31
0.0
  0
LINE
  5
E44
330
1F
100
AcDbEntity
  8
SUNPO
 62
   144
100
AcDbLine
 10
2820.0
 20
2034.0
 30
0.0
 11
2820.0
 21
2206.0
 31
0.0
  0
SOLID
  5
E45
330
1F
100
AcDbEntity
  8
SUNPO
 62
   144
100
AcDbTrace
 10
2817.666666666666
 20
2034.0
 30
0.0
 11
2822.333333333333
 21
2034.0
 31
0.0
 12
2820.0
 22
2020.0
 32
0.0
 13
2820.0
 23
2020.0
 33
0.0
  0
SOLID
  5
E46
330
1F
100
AcDbEntity
  8
SUNPO
 62
   144
100
AcDbTrace
 10
2817.666666666666
 20
2206.0
 30
0.0
 11
2822.333333333333
 21
2206.0
 31
0.0
 12
2820.0
 22
2220.0
 32
0.0
 13
2820.0
 23
2220.0
 33
0.0
  0
LINE
  5
E48
330
1F
100
AcDbEntity
  8
SUNPO
 62
   144
100
AcDbLine
 10
3220.0
 20
1900.0
 30
0.0
 11
2810.0
 21
1900.0
 31
0.0
  0
LINE
  5
E49
330
1F
100
AcDbEntity
  8
SUNPO
 62
   144
100
AcDbLine
 10
3220.0
 20
2020.0
 30
0.0
 11
2810.0
 21
2020.0
 31
0.0
  0
LINE
  5
E4A
330
1F
100
AcDbEntity
  8
SUNPO
 62
   144
100
AcDbLine
 10
2820.0
 20
1886.0
 30
0.0
 11
2820.0
 21
1872.0
 31
0.0
  0
LINE
  5
E4B
330
1F
100
AcDbEntity
  8
SUNPO
 62
   144
100
AcDbLine
 10
2820.0
 20
2034.0
 30
0.0
 11
2820.0
 21
2048.0
 31
0.0
  0
LINE
  5
E4C
330
1F
100
AcDbEntity
  8
SUNPO
 62
   144
100
AcDbLine
 10
2820.0
 20
1900.0
 30
0.0
 11
2820.0
 21
2020.0
 31
0.0
  0
SOLID
  5
E4D
330
1F
100
AcDbEntity
  8
SUNPO
 62
   144
100
AcDbTrace
 10
2817.666666666666
 20
1886.0
 30
0.0
 11
2822.333333333333
 21
1886.0
 31
0.0
 12
2820.0
 22
1900.0
 32
0.0
 13
2820.0
 23
1900.0
 33
0.0
  0
SOLID
  5
E4E
330
1F
100
AcDbEntity
  8
SUNPO
 62
   144
100
AcDbTrace
 10
2817.666666666666
 20
2034.0
 30
0.0
 11
2822.333333333333
 21
2034.0
 31
0.0
 12
2820.0
 22
2020.0
 32
0.0
 13
2820.0
 23
2020.0
 33
0.0
  0
LINE
  5
E50
330
1F
100
AcDbEntity
  8
SUNPO
 62
   144
100
AcDbLine
 10
3220.0
 20
1900.0
 30
0.0
 11
2670.0
 21
1900.0
 31
0.0
  0
LINE
  5
E51
330
1F
100
AcDbEntity
  8
SUNPO
 62
   144
100
AcDbLine
 10
3220.0
 20
2220.0
 30
0.0
 11
2670.0
 21
2220.0
 31
0.0
  0
LINE
  5
E52
330
1F
100
AcDbEntity
  8
SUNPO
 62
   144
100
AcDbLine
 10
2680.0
 20
1914.0
 30
0.0
 11
2680.0
 21
2206.0
 31
0.0
  0
SOLID
  5
E53
330
1F
100
AcDbEntity
  8
SUNPO
 62
   144
100
AcDbTrace
 10
2677.666666666667
 20
1914.0
 30
0.0
 11
2682.333333333333
 21
1914.0
 31
0.0
 12
2680.0
 22
1900.0
 32
0.0
 13
2680.0
 23
1900.0
 33
0.0
  0
SOLID
  5
E54
330
1F
100
AcDbEntity
  8
SUNPO
 62
   144
100
AcDbTrace
 10
2677.666666666667
 20
2206.0
 30
0.0
 11
2682.333333333333
 21
2206.0
 31
0.0
 12
2680.0
 22
2220.0
 32
0.0
 13
2680.0
 23
2220.0
 33
0.0
  0
LINE
  5
E56
330
1F
100
AcDbEntity
  8
SUNPO
 62
   144
100
AcDbLine
 10
5260.0
 20
1900.0
 30
0.0
 11
5380.0
 21
1900.0
 31
0.0
  0
LINE
  5
E57
330
1F
100
AcDbEntity
  8
SUNPO
 62
   144
100
AcDbLine
 10
5260.0
 20
2043.0
 30
0.0
 11
5380.0
 21
2043.0
 31
0.0
  0
LINE
  5
E58
330
1F
100
AcDbEntity
  8
SUNPO
 62
   144
100
AcDbLine
 10
5370.0
 20
1886.0
 30
0.0
 11
5370.0
 21
1872.0
 31
0.0
  0
LINE
  5
E59
330
1F
100
AcDbEntity
  8
SUNPO
 62
   144
100
AcDbLine
 10
5370.0
 20
2056.999999999999
 30
0.0
 11
5370.0
 21
2070.999999999999
 31
0.0
  0
LINE
  5
E5A
330
1F
100
AcDbEntity
  8
SUNPO
 62
   144
100
AcDbLine
 10
5370.0
 20
1900.0
 30
0.0
 11
5370.0
 21
2043.0
 31
0.0
  0
SOLID
  5
E5B
330
1F
100
AcDbEntity
  8
SUNPO
 62
   144
100
AcDbTrace
 10
5367.666666666667
 20
1886.0
 30
0.0
 11
5372.333333333333
 21
1886.0
 31
0.0
 12
5370.0
 22
1900.0
 32
0.0
 13
5370.0
 23
1900.0
 33
0.0
  0
SOLID
  5
E5C
330
1F
100
AcDbEntity
  8
SUNPO
 62
   144
100
AcDbTrace
 10
5367.666666666668
 20
2056.999999999999
 30
0.0
 11
5372.333333333334
 21
2056.999999999999
 31
0.0
 12
5370.0
 22
2043.0
 32
0.0
 13
5370.0
 23
2043.0
 33
0.0
  0
LINE
  5
E5E
330
1F
100
AcDbEntity
  8
SUNPO
 62
   144
100
AcDbLine
 10
3240.0
 20
1880.0
 30
0.0
 11
3240.0
 21
1740.0
 31
0.0
  0
LINE
  5
E5F
330
1F
100
AcDbEntity
  8
SUNPO
 62
   144
100
AcDbLine
 10
5240.0
 20
1880.0
 30
0.0
 11
5240.0
 21
1740.0
 31
0.0
  0
LINE
  5
E60
330
1F
100
AcDbEntity
  8
SUNPO
 62
   144
100
AcDbLine
 10
3254.0
 20
1750.0
 30
0.0
 11
5226.0
 21
1750.0
 31
0.0
  0
SOLID
  5
E61
330
1F
100
AcDbEntity
  8
SUNPO
 62
   144
100
AcDbTrace
 10
3254.0
 20
1752.333333333333
 30
0.0
 11
3254.0
 21
1747.666666666666
 31
0.0
 12
3240.0
 22
1750.0
 32
0.0
 13
3240.0
 23
1750.0
 33
0.0
  0
SOLID
  5
E62
330
1F
100
AcDbEntity
  8
SUNPO
 62
   144
100
AcDbTrace
 10
5226.0
 20
1752.333333333333
 30
0.0
 11
5226.0
 21
1747.666666666666
 31
0.0
 12
5240.0
 22
1750.0
 32
0.0
 13
5240.0
 23
1750.0
 33
0.0
  0
TEXT
  5
E64
330
1F
100
AcDbEntity
  8
MOJI
100
AcDbText
 10
3246.680311730542
 20
359.2274732162223
 30
0.0
 40
70.0
  1
１／２０
  7
ADD
100
AcDbText
  0
TEXT
  5
E65
330
1F
100
AcDbEntity
  8
MOJI
100
AcDbText
 10
381.8862574011546
 20
488.6918916770627
 30
0.0
 40
50.0
  1
製品名
  7
ADD
100
AcDbText
  0
TEXT
  5
E66
330
1F
100
AcDbEntity
  8
MOJI
100
AcDbText
 10
2376.290169028722
 20
494.4531736811823
 30
0.0
 40
50.0
  1
型式
  7
ADD
100
AcDbText
  0
TEXT
  5
E67
330
1F
100
AcDbEntity
  8
MOJI
100
AcDbText
 10
3177.510249231658
 20
488.6918916770627
 30
0.0
 40
50.0
  1
縮尺
  7
ADD
100
AcDbText
  0
TEXT
  5
E68
330
1F
100
AcDbEntity
  8
MOJI
100
AcDbText
 10
3730.870883051572
 20
352.2726133092145
 30
0.0
 40
100.0
  1
千葉県コンクリート製品協同組合
  7
ADD
100
AcDbText
  0
LINE
  5
E69
330
1F
100
AcDbEntity
  8
HOJO
100
AcDbLine
 10
360.0
 20
260.0
 30
0.0
 11
5580.0
 21
260.0
 31
0.0
  0
LINE
  5
E6A
330
1F
100
AcDbEntity
  8
HOJO
100
AcDbLine
 10
5580.0
 20
260.0
 30
0.0
 11
5580.0
 21
3940.0
 31
0.0
  0
LINE
  5
E6B
330
1F
100
AcDbEntity
  8
HOJO
100
AcDbLine
 10
5580.0
 20
3940.0
 30
0.0
 11
360.0
 21
3940.0
 31
0.0
  0
LINE
  5
E6C
330
1F
100
AcDbEntity
  8
HOJO
100
AcDbLine
 10
360.0
 20
3940.0
 30
0.0
 11
360.0
 21
260.0
 31
0.0
  0
LINE
  5
E6D
330
1F
100
AcDbEntity
  8
HOJO
100
AcDbLine
 10
0.0
 20
0.0
 30
0.0
 11
5940.0
 21
0.0
 31
0.0
  0
LINE
  5
E6E
330
1F
100
AcDbEntity
  8
HOJO
100
AcDbLine
 10
5940.0
 20
0.0
 30
0.0
 11
5940.0
 21
4200.0
 31
0.0
  0
LINE
  5
E6F
330
1F
100
AcDbEntity
  8
HOJO
100
AcDbLine
 10
5940.0
 20
4200.0
 30
0.0
 11
0.0
 21
4200.0
 31
0.0
  0
LINE
  5
E70
330
1F
100
AcDbEntity
  8
HOJO
100
AcDbLine
 10
0.0
 20
4200.0
 30
0.0
 11
0.0
 21
0.0
 31
0.0
  0
TEXT
  5
E71
330
1F
100
AcDbEntity
  8
MOJI
 62
     7
100
AcDbText
 10
4144.761904761905
 20
1762.5
 30
0.0
 40
50.0
  1
2000
  7
ADD
100
AcDbText
  0
TEXT
  5
E72
330
1F
100
AcDbEntity
  8
MOJI
 62
     7
100
AcDbText
 10
5357.5
 20
1896.500000000001
 30
0.0
 40
50.0
  1
143
 50
90.0
  7
ADD
100
AcDbText
  0
TEXT
  5
E73
330
1F
100
AcDbEntity
  8
MOJI
 62
     7
100
AcDbText
 10
2667.499999999999
 20
1988.571428571429
 30
0.0
 40
50.0
  1
320
 50
90.0
  7
ADD
100
AcDbText
  0
TEXT
  5
E74
330
1F
100
AcDbEntity
  8
MOJI
 62
     7
100
AcDbText
 10
2807.499999999999
 20
1885.0
 30
0.0
 40
50.0
  1
120
 50
90.0
  7
ADD
100
AcDbText
  0
TEXT
  5
E75
330
1F
100
AcDbEntity
  8
MOJI
 62
     7
100
AcDbText
 10
2807.499999999999
 20
2048.571428571429
 30
0.0
 40
50.0
  1
200
 50
90.0
  7
ADD
100
AcDbText
  0
TEXT
  5
E76
330
1F
100
AcDbEntity
  8
MOJI
 62
     7
100
AcDbText
 10
2937.5
 20
1987.380952380953
 30
0.0
 40
50.0
  1
30
 50
90.0
  7
ADD
100
AcDbText
  0
TEXT
  5
E77
330
1F
100
AcDbEntity
  8
MOJI
 62
     7
100
AcDbText
 10
3027.499999999999
 20
2060.0
 30
0.0
 40
50.0
  1
170
 50
90.0
  7
ADD
100
AcDbText
  0
TEXT
  5
E78
330
1F
100
AcDbEntity
  8
MOJI
 62
     7
100
AcDbText
 10
3827.5
 20
1885.0
 30
0.0
 40
50.0
  1
120
 50
90.0
  7
ADD
100
AcDbText
  0
TEXT
  5
E79
330
1F
100
AcDbEntity
  8
MOJI
 62
     7
100
AcDbText
 10
3907.499999999999
 20
1973.809523809524
 30
0.0
 40
50.0
  1
10
 50
90.0
  7
ADD
100
AcDbText
  0
TEXT
  5
E7A
330
1F
100
AcDbEntity
  8
MOJI
 62
     7
100
AcDbText
 10
1999.509838019225
 20
1895.431708116449
 30
0.0
 40
50.0
  1
143
 50
90.0
  7
ADD
100
AcDbText
  0
TEXT
  5
E7B
330
1F
100
AcDbEntity
  8
MOJI
 62
     7
100
AcDbText
 10
1480.811989786365
 20
1762.5
 30
0.0
 40
50.0
  1
570
  7
ADD
100
AcDbText
  0
TEXT
  5
E7C
330
1F
100
AcDbEntity
  8
MOJI
 62
     7
100
AcDbText
 10
1033.779791854143
 20
1987.503136687878
 30
0.0
 40
50.0
  1
320
 50
90.0
  7
ADD
100
AcDbText
  0
TEXT
  5
E7D
330
1F
100
AcDbEntity
  8
MOJI
 62
     7
100
AcDbText
 10
1107.499999999999
 20
1883.931708116449
 30
0.0
 40
50.0
  1
120
 50
90.0
  7
ADD
100
AcDbText
  0
TEXT
  5
E7E
330
1F
100
AcDbEntity
  8
MOJI
 62
     7
100
AcDbText
 10
1107.499999999999
 20
2047.503136687878
 30
0.0
 40
50.0
  1
200
 50
90.0
  7
ADD
100
AcDbText
  0
TEXT
  5
E7F
330
1F
100
AcDbEntity
  8
MOJI
 62
     7
100
AcDbText
 10
1183.87417554637
 20
2058.931708116449
 30
0.0
 40
50.0
  1
170
 50
90.0
  7
ADD
100
AcDbText
  0
TEXT
  5
E80
330
1F
100
AcDbEntity
  8
MOJI
 62
     7
100
AcDbText
 10
1183.87417554637
 20
1986.312660497402
 30
0.0
 40
50.0
  1
30
 50
90.0
  7
ADD
100
AcDbText
  0
TEXT
  5
E81
330
1F
100
AcDbEntity
  8
MOJI
 62
     7
100
AcDbText
 10
1776.299733722126
 20
1885.199018360252
 30
0.0
 40
50.0
  1
120
 50
90.0
  7
ADD
100
AcDbText
  0
TEXT
  5
E82
330
1F
100
AcDbEntity
  8
MOJI
 62
     7
100
AcDbText
 10
1710.018117401576
 20
1974.008542169776
 30
0.0
 40
50.0
  1
10
 50
90.0
  7
ADD
100
AcDbText
  0
TEXT
  5
E83
330
1F
100
AcDbEntity
  8
MOJI
 62
     7
100
AcDbText
 10
4144.761904761905
 20
2834.924833561923
 30
0.0
 40
50.0
  1
2000
  7
ADD
100
AcDbText
  0
TEXT
  5
E84
330
1F
100
AcDbEntity
  8
MOJI
 62
     7
100
AcDbText
 10
3467.380952380952
 20
2673.789190482719
 30
0.0
 40
50.0
  1
600
  7
ADD
100
AcDbText
  0
TEXT
  5
E85
330
1F
100
AcDbEntity
  8
MOJI
 62
     7
100
AcDbText
 10
4441.190476190477
 20
2673.789190482719
 30
0.0
 40
50.0
  1
1400
  7
ADD
100
AcDbText
  0
TEXT
  5
E86
330
1F
100
AcDbEntity
  8
MOJI
 62
     7
100
AcDbText
 10
1480.811989786365
 20
2834.924833561923
 30
0.0
 40
50.0
  1
570
  7
ADD
100
AcDbText
  0
TEXT
  5
E87
330
1F
100
AcDbEntity
  8
MOJI
 62
     7
100
AcDbText
 10
1295.811989786365
 20
2673.789190482719
 30
0.0
 40
50.0
  1
200
  7
ADD
100
AcDbText
  0
TEXT
  5
E88
330
1F
100
AcDbEntity
  8
MOJI
 62
     7
100
AcDbText
 10
1580.811989786365
 20
2673.789190482719
 30
0.0
 40
50.0
  1
370
  7
ADD
100
AcDbText
  0
TEXT
  5
E89
330
1F
100
AcDbEntity
  8
MOJI
 62
     7
100
AcDbText
 10
1195.157227881603
 20
2484.96261627024
 30
0.0
 40
50.0
  1
22.5
  7
ADD
100
AcDbText
  0
TEXT
  5
E8A
330
1F
100
AcDbEntity
  8
MOJI
 62
     7
100
AcDbText
 10
1372.657227881603
 20
2484.839047775189
 30
0.0
 40
50.0
  1
22.5
  7
ADD
100
AcDbText
  0
TEXT
  5
E8B
330
1F
100
AcDbEntity
  8
MOJI
 62
     7
100
AcDbText
 10
1292.240561214936
 20
2585.423595814575
 30
0.0
 40
50.0
  1
155
  7
ADD
100
AcDbText
  0
TEXT
  5
E8C
330
1F
100
AcDbEntity
  8
MOJI
 62
     7
100
AcDbText
 10
1520.120935902496
 20
2274.926920562307
 30
0.0
 40
50.0
  1
R30
 50
34.70997306741208
  7
ADD
100
AcDbText
  0
TEXT
  5
E8D
330
1F
100
AcDbEntity
  8
MOJI
 62
     7
100
AcDbText
 10
1236.437707472625
 20
1932.367228149814
 30
0.0
 40
50.0
  1
R20
 50
26.07376892425034
  7
ADD
100
AcDbText
  0
VIEWPORT
  5
72
330
1B
100
AcDbEntity
 67
     1
  8
0
100
AcDbViewport
 10
432.8765700444728
 20
277.0
 30
0.0
 40
955.0553900889456
 41
628.4520000000001
 68
     2
 69
     1
1001
ACAD
1000
MVIEW
1002
{
1070
    16
1010
0.0
1020
0.0
1030
0.0
1010
0.0
1020
0.0
1030
1.0
1040
0.0
1040
628.4520000000001
1040
432.8765700444728
1040
277.0
1040
50.0
1040
0.0
1040
0.0
1070
     0
1070
   100
1070
     1
1070
     1
1070
     0
1070
     0
1070
     0
1070
     0
1040
0.0
1040
0.0
1040
0.0
1040
10.0
1040
10.0
1040
10.0
1040
10.0
1070
     0
1002
{
1002
}
1002
}
  0
VIEWPORT
  5
74
330
1B
100
AcDbEntity
 67
     1
  8
VIEWPORT
100
AcDbViewport
 10
414.3779638919211
 20
277.3177265058034
 30
0.0
 40
840.0353682728887
 41
567.2285469943826
 68
     1
 69
     2
1001
ACAD
1000
MVIEW
1002
{
1070
    16
1010
0.0
1020
0.0
1030
0.0
1010
0.0
1020
0.0
1030
1.0
1040
0.0
1040
579.5583043546323
1040
424.4938908624541
1040
286.1973242720074
1040
50.0
1040
0.0
1040
0.0
1070
     0
1070
   100
1070
     1
1070
     1
1070
     0
1070
     0
1070
     0
1070
     0
1040
0.0
1040
0.0
1040
0.0
1040
10.0
1040
10.0
1040
10.0
1040
10.0
1070
     0
1002
{
1002
}
1002
}
  0
ENDSEC
  0
SECTION
  2
OBJECTS
  0
DICTIONARY
  5
C
330
0
100
AcDbDictionary
  3
ACAD_GROUP
350
D
  3
ACAD_LAYOUT
350
1A
  3
ACAD_MLINESTYLE
350
17
  3
ACAD_PLOTSETTINGS
350
19
  3
DWGPROPS
350
4C7
1001
ACAD
1000
TREAT_AS_HARD
1070
     0
  0
DICTIONARY
  5
BDC
330
1F
100
AcDbDictionary
  3
ACAD_LAYOUTSELFREF
350
EF7
1001
ACAD
1000
TREAT_AS_HARD
1070
     1
  0
DICTIONARY
  5
BDE
330
1B
100
AcDbDictionary
  3
ACAD_LAYOUTSELFREF
350
EF6
1001
ACAD
1000
TREAT_AS_HARD
1070
     1
  0
DICTIONARY
  5
D
102
{ACAD_REACTORS
330
C
102
}
330
C
100
AcDbDictionary
1001
ACAD
1000
TREAT_AS_HARD
1070
     0
  0
DICTIONARY
  5
1A
102
{ACAD_REACTORS
330
C
102
}
330
C
100
AcDbDictionary
1001
ACAD
1000
TREAT_AS_HARD
1070
     0
  0
DICTIONARY
  5
17
102
{ACAD_REACTORS
330
C
102
}
330
C
100
AcDbDictionary
  3
STANDARD
350
18
1001
ACAD
1000
TREAT_AS_HARD
1070
     0
  0
DICTIONARY
  5
19
102
{ACAD_REACTORS
330
C
102
}
330
C
100
AcDbDictionary
1001
ACAD
1000
TREAT_AS_HARD
1070
     0
  0
XRECORD
  5
4C7
102
{ACAD_REACTORS
330
C
102
}
330
C
100
AcDbXrecord
  1
DWGPROPS COOKIE
  2
印刷用テスト
  3
AutoCAD2000による建築設計
  4
鈴木 裕二
  6

  7

  8
U2
  9

300
=
301
=
302
=
303
=
304
=
305
=
306
=
307
=
308
=
309
=
 40
0.7653446875
 41
2451285.4846114
 42
2451333.689743032
  1

 90
        0
  0
XRECORD
  5
EF7
102
{ACAD_REACTORS
330
BDC
102
}
330
BDC
100
AcDbXrecord
340
1F
  0
XRECORD
  5
EF6
102
{ACAD_REACTORS
330
BDE
102
}
330
BDE
100
AcDbXrecord
340
1B
  0
MLINESTYLE
  5
18
102
{ACAD_REACTORS
330
17
102
}
330
17
100
AcDbMlineStyle
  2
STANDARD
 70
     0
  3

 62
   256
 51
90.0
 52
90.0
 71
     2
 49
0.5
 62
   256
  6
BYLAYER
 49
-0.5
 62
   256
  6
BYLAYER
  0
ENDSEC
  0
EOF
