  0
SECTION
  2
HEADER
  9
$ACADVER
  1
AC1012
  9
$DWGCODEPAGE
  3
dos932
  9
$INSBASE
 10
0.0
 20
0.0
 30
0.0
  9
$EXTMIN
 10
0.0
 20
0.0
 30
0.0
  9
$EXTMAX
 10
5940.0
 20
4200.0
 30
0.0
  9
$LIMMIN
 10
0.0
 20
0.0
  9
$LIMMAX
 10
5940.0
 20
4200.0
  9
$ORTHOMODE
 70
     0
  9
$REGENMODE
 70
     1
  9
$FILLMODE
 70
     1
  9
$QTEXTMODE
 70
     0
  9
$MIRRTEXT
 70
     0
  9
$DRAGMODE
 70
     2
  9
$LTSCALE
 40
10.0
  9
$OSMODE
 70
  3071
  9
$ATTMODE
 70
     1
  9
$TEXTSIZE
 40
50.0
  9
$TRACEWID
 40
1.0
  9
$TEXTSTYLE
  7
ADD
  9
$CLAYER
  8
MOJI
  9
$CELTYPE
  6
BYLAYER
  9
$CECOLOR
 62
   256
  9
$CELTSCALE
 40
1.0
  9
$DELOBJ
 70
     1
  9
$DISPSILH
 70
     0
  9
$DIMSCALE
 40
20.0
  9
$DIMASZ
 40
2.5
  9
$DIMEXO
 40
1.0
  9
$DIMDLI
 40
7.0
  9
$DIMRND
 40
0.0
  9
$DIMDLE
 40
0.0
  9
$DIMEXE
 40
0.5
  9
$DIMTP
 40
0.0
  9
$DIMTM
 40
0.0
  9
$DIMTXT
 40
2.5
  9
$DIMCEN
 40
2.5
  9
$DIMTSZ
 40
0.0
  9
$DIMTOL
 70
     0
  9
$DIMLIM
 70
     0
  9
$DIMTIH
 70
     0
  9
$DIMTOH
 70
     0
  9
$DIMSE1
 70
     0
  9
$DIMSE2
 70
     0
  9
$DIMTAD
 70
     1
  9
$DIMZIN
 70
     8
  9
$DIMBLK
  1

  9
$DIMASO
 70
     1
  9
$DIMSHO
 70
     1
  9
$DIMPOST
  1

  9
$DIMAPOST
  1

  9
$DIMALT
 70
     0
  9
$DIMALTD
 70
     3
  9
$DIMALTF
 40
0.03937007874016
  9
$DIMLFAC
 40
1.0
  9
$DIMTOFL
 70
     1
  9
$DIMTVP
 40
0.7
  9
$DIMTIX
 70
     1
  9
$DIMSOXD
 70
     0
  9
$DIMSAH
 70
     0
  9
$DIMBLK1
  1

  9
$DIMBLK2
  1

  9
$DIMSTYLE
  2
ADD
  9
$DIMCLRD
 70
   144
  9
$DIMCLRE
 70
   144
  9
$DIMCLRT
 70
     7
  9
$DIMTFAC
 40
1.0
  9
$DIMGAP
 40
0.625
  9
$DIMJUST
 70
     0
  9
$DIMSD1
 70
     0
  9
$DIMSD2
 70
     0
  9
$DIMTOLJ
 70
     2
  9
$DIMTZIN
 70
     8
  9
$DIMALTZ
 70
     0
  9
$DIMALTTZ
 70
     0
  9
$DIMFIT
 70
     5
  9
$DIMUPT
 70
     0
  9
$DIMUNIT
 70
     2
  9
$DIMDEC
 70
     1
  9
$DIMTDEC
 70
     1
  9
$DIMALTU
 70
     2
  9
$DIMALTTD
 70
     3
  9
$DIMTXSTY
  7
ADD
  9
$DIMAUNIT
 70
     0
  9
$LUNITS
 70
     2
  9
$LUPREC
 70
     4
  9
$SKETCHINC
 40
1.0
  9
$FILLETRAD
 40
0.0
  9
$AUNITS
 70
     0
  9
$AUPREC
 70
     1
  9
$MENU
  1
.
  9
$ELEVATION
 40
0.0
  9
$PELEVATION
 40
0.0
  9
$THICKNESS
 40
0.0
  9
$LIMCHECK
 70
     0
  9
$BLIPMODE
 70
     0
  9
$CHAMFERA
 40
10.0
  9
$CHAMFERB
 40
10.0
  9
$CHAMFERC
 40
20.0
  9
$CHAMFERD
 40
0.0
  9
$SKPOLY
 70
     0
  9
$TDCREATE
 40
2451801.142532870
  9
$TDUPDATE
 40
2452523.667514016
  9
$TDINDWG
 40
0.1732164236
  9
$TDUSRTIMER
 40
0.1732164236
  9
$USRTIMER
 70
     1
  9
$ANGBASE
 50
0.0
  9
$ANGDIR
 70
     0
  9
$PDMODE
 70
     0
  9
$PDSIZE
 40
0.0
  9
$PLINEWID
 40
0.0
  9
$COORDS
 70
     1
  9
$SPLFRAME
 70
     0
  9
$SPLINETYPE
 70
     6
  9
$SPLINESEGS
 70
     8
  9
$ATTDIA
 70
     0
  9
$ATTREQ
 70
     1
  9
$HANDLING
 70
 22529
  9
$HANDSEED
  5
E8D
  9
$SURFTAB1
 70
     6
  9
$SURFTAB2
 70
     6
  9
$SURFTYPE
 70
     6
  9
$SURFU
 70
     6
  9
$SURFV
 70
     6
  9
$UCSNAME
  2

  9
$UCSORG
 10
0.0
 20
0.0
 30
0.0
  9
$UCSXDIR
 10
1.0
 20
0.0
 30
0.0
  9
$UCSYDIR
 10
0.0
 20
1.0
 30
0.0
  9
$PUCSNAME
  2

  9
$PUCSORG
 10
0.0
 20
0.0
 30
0.0
  9
$PUCSXDIR
 10
1.0
 20
0.0
 30
0.0
  9
$PUCSYDIR
 10
0.0
 20
1.0
 30
0.0
  9
$USERI1
 70
     0
  9
$USERI2
 70
     0
  9
$USERI3
 70
     0
  9
$USERI4
 70
     0
  9
$USERI5
 70
     0
  9
$USERR1
 40
841.0
  9
$USERR2
 40
594.0
  9
$USERR3
 40
1.0
  9
$USERR4
 40
0.0
  9
$USERR5
 40
0.0
  9
$WORLDVIEW
 70
     1
  9
$SHADEDGE
 70
     3
  9
$SHADEDIF
 70
    70
  9
$TILEMODE
 70
     1
  9
$MAXACTVP
 70
    48
  9
$PINSBASE
 10
0.0
 20
0.0
 30
0.0
  9
$PLIMCHECK
 70
     0
  9
$PEXTMIN
 10
-5.639720244523232
 20
-6.296546991387913
 30
0.0
  9
$PEXTMAX
 10
834.3956480283654
 20
560.9320000029947
 30
0.0
  9
$PLIMMIN
 10
-7.500000000000001
 20
-20.0
  9
$PLIMMAX
 10
833.5000000000002
 20
574.0000000000001
  9
$UNITMODE
 70
     0
  9
$VISRETAIN
 70
     1
  9
$PLINEGEN
 70
     0
  9
$PSLTSCALE
 70
     1
  9
$TREEDEPTH
 70
  3020
  9
$PICKSTYLE
 70
     1
  9
$CMLSTYLE
  2
STANDARD
  9
$CMLJUST
 70
     0
  9
$CMLSCALE
 40
20.0
  9
$SAVEIMAGES
 70
     1
  0
ENDSEC
  0
SECTION
  2
CLASSES
  0
CLASS
  1
ACDBDICTIONARYWDFLT
  2
AcDbDictionaryWithDefault
  3
AutoCAD 2000
 90
    32768
280
     0
281
     0
  0
CLASS
  1
ACDBPLACEHOLDER
  2
AcDbPlaceHolder
  3
AutoCAD 2000
 90
    32768
280
     0
281
     0
  0
CLASS
  1
LAYOUT
  2
AcDbLayout
  3
AutoCAD 2000
 90
    32768
280
     0
281
     0
  0
CLASS
  1
RTEXT
  2
RText
  3
RText|AutoCAD Express Tool|expresstools@autodesk.com
 90
    32768
280
     0
281
     1
  0
CLASS
  1
DICTIONARYVAR
  2
AcDbDictionaryVar
  3
AutoCAD 2000
 90
    32768
280
     0
281
     0
  0
CLASS
  1
LONG_TRANSACTION
  2
AcDbLongTransaction
  3
AutoCAD 2000
 90
    32768
280
     0
281
     0
  0
CLASS
  1
LWPOLYLINE
  2
AcDbPolyline
  3
AutoCAD 2000
 90
    32768
280
     0
281
     1
  0
CLASS
  1
HATCH
  2
AcDbHatch
  3
AutoCAD 2000
 90
    32768
280
     0
281
     1
  0
CLASS
  1
XRECORD
  2
AcDbXrecord
  3
AutoCAD 2000
 90
    32768
280
     0
281
     0
  0
CLASS
  1
LONG_TRANSACTION
  2
AcDbLongTransaction
  3
AutoCAD 2000
 90
    32768
280
     0
281
     0
  0
CLASS
  1
LWPOLYLINE
  2
AcDbPolyline
  3
AutoCAD 2000
 90
    32768
280
     0
281
     1
  0
CLASS
  1
HATCH
  2
AcDbHatch
  3
AutoCAD 2000
 90
    32768
280
     0
281
     1
  0
CLASS
  1
XRECORD
  2
AcDbXrecord
  3
AutoCAD 2000
 90
    32768
280
     0
281
     0
  0
CLASS
  1
LONG_TRANSACTION
  2
AcDbLongTransaction
  3
AutoCAD 2000
 90
    32768
280
     0
281
     0
  0
CLASS
  1
LWPOLYLINE
  2
AcDbPolyline
  3
AutoCAD 2000
 90
    32768
280
     0
281
     1
  0
CLASS
  1
HATCH
  2
AcDbHatch
  3
AutoCAD 2000
 90
    32768
280
     0
281
     1
  0
CLASS
  1
XRECORD
  2
AcDbXrecord
  3
AutoCAD 2000
 90
    32768
280
     0
281
     0
  0
CLASS
  1
LONG_TRANSACTION
  2
AcDbLongTransaction
  3
AutoCAD 2000
 90
    32768
280
     0
281
     0
  0
CLASS
  1
LWPOLYLINE
  2
AcDbPolyline
  3
AutoCAD 2000
 90
    32768
280
     0
281
     1
  0
CLASS
  1
HATCH
  2
AcDbHatch
  3
AutoCAD 2000
 90
    32768
280
     0
281
     1
  0
CLASS
  1
XRECORD
  2
AcDbXrecord
  3
AutoCAD 2000
 90
    32768
280
     0
281
     0
  0
CLASS
  1
LONG_TRANSACTION
  2
AcDbLongTransaction
  3
AutoCAD 2000
 90
    32768
280
     0
281
     0
  0
CLASS
  1
LWPOLYLINE
  2
AcDbPolyline
  3
AutoCAD 2000
 90
    32768
280
     0
281
     1
  0
CLASS
  1
HATCH
  2
AcDbHatch
  3
AutoCAD 2000
 90
    32768
280
     0
281
     1
  0
CLASS
  1
XRECORD
  2
AcDbXrecord
  3
AutoCAD 2000
 90
    32768
280
     0
281
     0
  0
ENDSEC
  0
SECTION
  2
TABLES
  0
TABLE
  2
VPORT
  5
8
330
0
100
AcDbSymbolTable
 70
     2
  0
VPORT
  5
E7D
330
8
100
AcDbSymbolTableRecord
100
AcDbViewportTableRecord
  2
*ACTIVE
 70
     0
 10
0.0
 20
0.0
 11
1.0
 21
1.0
 12
3170.24117914227
 22
2159.565211767681
 13
0.0
 23
0.0
 14
10.0
 24
10.0
 15
10.0
 25
10.0
 16
0.0
 26
0.0
 36
1.0
 17
0.0
 27
0.0
 37
0.0
 40
4352.678083319658
 41
1.615281501340482
 42
50.0
 43
0.0
 44
0.0
 50
0.0
 51
0.0
 71
     0
 72
   100
 73
     1
 74
     1
 75
     0
 76
     0
 77
     0
 78
     0
  0
ENDTAB
  0
TABLE
  2
LTYPE
  5
5
330
0
100
AcDbSymbolTable
 70
     5
  0
LTYPE
  5
14
330
5
100
AcDbSymbolTableRecord
100
AcDbLinetypeTableRecord
  2
BYBLOCK
 70
     0
  3

 72
    65
 73
     0
 40
0.0
  0
LTYPE
  5
15
330
5
100
AcDbSymbolTableRecord
100
AcDbLinetypeTableRecord
  2
BYLAYER
 70
     0
  3

 72
    65
 73
     0
 40
0.0
  0
LTYPE
  5
16
330
5
100
AcDbSymbolTableRecord
100
AcDbLinetypeTableRecord
  2
CONTINUOUS
 70
     0
  3
Solid line
 72
    65
 73
     0
 40
0.0
  0
LTYPE
  5
555
330
5
100
AcDbSymbolTableRecord
100
AcDbLinetypeTableRecord
  2
CENTER
 70
     0
  3
Center ____ _ ____ _ ____ _ ____ _ ____ _ ____
 72
    65
 73
     4
 40
50.8
 49
31.75
 74
     0
 49
-6.349999999999999
 74
     0
 49
6.349999999999999
 74
     0
 49
-6.349999999999999
 74
     0
  0
LTYPE
  5
556
330
5
100
AcDbSymbolTableRecord
100
AcDbLinetypeTableRecord
  2
HIDDEN
 70
     0
  3
Hidden __ __ __ __ __ __ __ __ __ __ __ __ __ _
 72
    65
 73
     2
 40
9.524999999999998
 49
6.349999999999999
 74
     0
 49
-3.174999999999999
 74
     0
  0
LTYPE
  5
557
330
5
100
AcDbSymbolTableRecord
100
AcDbLinetypeTableRecord
  2
HIDDEN2
 70
     0
  3
Hidden (.5x) _ _ _ _ _ _ _ _ _ _ _ _ _ _ _ _ _
 72
    65
 73
     2
 40
4.762499999999999
 49
3.174999999999999
 74
     0
 49
-1.587499999999999
 74
     0
  0
LTYPE
  5
558
330
5
100
AcDbSymbolTableRecord
100
AcDbLinetypeTableRecord
  2
PHANTOM
 70
     0
  3
Phantom ______  __  __  ______  __  __  ______
 72
    65
 73
     6
 40
63.5
 49
31.75
 74
     0
 49
-6.349999999999999
 74
     0
 49
6.349999999999999
 74
     0
 49
-6.349999999999999
 74
     0
 49
6.349999999999999
 74
     0
 49
-6.349999999999999
 74
     0
  0
ENDTAB
  0
TABLE
  2
LAYER
  5
2
330
0
100
AcDbSymbolTable
 70
    22
  0
LAYER
  5
10
330
2
100
AcDbSymbolTableRecord
100
AcDbLayerTableRecord
  2
0
 70
     0
 62
     7
  6
CONTINUOUS
  0
LAYER
  5
75
330
2
100
AcDbSymbolTableRecord
100
AcDbLayerTableRecord
  2
VIEWPORT
 70
     0
 62
     1
  6
CONTINUOUS
  0
LAYER
  5
504
330
2
100
AcDbSymbolTableRecord
100
AcDbLayerTableRecord
  2
DEFPOINTS
 70
     0
 62
     7
  6
CONTINUOUS
  0
LAYER
  5
505
330
2
100
AcDbSymbolTableRecord
100
AcDbLayerTableRecord
  2
1C1
 70
     0
 62
   254
  6
CONTINUOUS
  0
LAYER
  5
506
330
2
100
AcDbSymbolTableRecord
100
AcDbLayerTableRecord
  2
1C2
 70
     0
 62
   254
  6
CONTINUOUS
  0
LAYER
  5
507
330
2
100
AcDbSymbolTableRecord
100
AcDbLayerTableRecord
  2
2C1
 70
     0
 62
   144
  6
CONTINUOUS
  0
LAYER
  5
508
330
2
100
AcDbSymbolTableRecord
100
AcDbLayerTableRecord
  2
2C2
 70
     0
 62
   144
  6
CONTINUOUS
  0
LAYER
  5
509
330
2
100
AcDbSymbolTableRecord
100
AcDbLayerTableRecord
  2
2H1
 70
     0
 62
   144
  6
HIDDEN
  0
LAYER
  5
50A
330
2
100
AcDbSymbolTableRecord
100
AcDbLayerTableRecord
  2
2H2
 70
     0
 62
   144
  6
HIDDEN2
  0
LAYER
  5
50B
330
2
100
AcDbSymbolTableRecord
100
AcDbLayerTableRecord
  2
2P1
 70
     0
 62
   144
  6
PHANTOM
  0
LAYER
  5
50C
330
2
100
AcDbSymbolTableRecord
100
AcDbLayerTableRecord
  2
3C1
 70
     0
 62
     7
  6
CONTINUOUS
  0
LAYER
  5
50D
330
2
100
AcDbSymbolTableRecord
100
AcDbLayerTableRecord
  2
3C2
 70
     0
 62
     7
  6
CONTINUOUS
  0
LAYER
  5
50E
330
2
100
AcDbSymbolTableRecord
100
AcDbLayerTableRecord
  2
3C3
 70
     0
 62
     7
  6
CONTINUOUS
  0
LAYER
  5
50F
330
2
100
AcDbSymbolTableRecord
100
AcDbLayerTableRecord
  2
4H1
 70
     0
 62
     6
  6
HIDDEN
  0
LAYER
  5
510
330
2
100
AcDbSymbolTableRecord
100
AcDbLayerTableRecord
  2
4H2
 70
     0
 62
     6
  6
HIDDEN2
  0
LAYER
  5
511
330
2
100
AcDbSymbolTableRecord
100
AcDbLayerTableRecord
  2
5C1
 70
     0
 62
    55
  6
CONTINUOUS
  0
LAYER
  5
512
330
2
100
AcDbSymbolTableRecord
100
AcDbLayerTableRecord
  2
5C2
 70
     0
 62
    55
  6
CONTINUOUS
  0
LAYER
  5
513
330
2
100
AcDbSymbolTableRecord
100
AcDbLayerTableRecord
  2
8C1
 70
     0
 62
    92
  6
CONTINUOUS
  0
LAYER
  5
514
330
2
100
AcDbSymbolTableRecord
100
AcDbLayerTableRecord
  2
HOJO
 70
     0
 62
     5
  6
CONTINUOUS
  0
LAYER
  5
515
330
2
100
AcDbSymbolTableRecord
100
AcDbLayerTableRecord
  2
KIJUN
 70
     0
 62
     1
  6
CENTER
  0
LAYER
  5
516
330
2
100
AcDbSymbolTableRecord
100
AcDbLayerTableRecord
  2
MOJI
 70
     0
 62
     7
  6
CONTINUOUS
  0
LAYER
  5
517
330
2
100
AcDbSymbolTableRecord
100
AcDbLayerTableRecord
  2
SUNPO
 70
     0
 62
   144
  6
CONTINUOUS
  0
ENDTAB
  0
TABLE
  2
STYLE
  5
3
330
0
100
AcDbSymbolTable
 70
     6
  0
STYLE
  5
11
330
3
100
AcDbSymbolTableRecord
100
AcDbTextStyleTableRecord
  2
STANDARD
 70
     0
 40
0.0
 41
1.0
 50
0.0
 71
     0
 42
2.5
  3
txt
  4

  0
STYLE
  5
2C
330
3
100
AcDbSymbolTableRecord
100
AcDbTextStyleTableRecord
  2

 70
     1
 40
0.0
 41
1.0
 50
0.0
 71
     0
 42
2.5
  3
ltypeshp.shx
  4

  0
STYLE
  5
18E
330
3
100
AcDbSymbolTableRecord
100
AcDbTextStyleTableRecord
  2
ADD
 70
     0
 40
0.0
 41
1.0
 50
0.0
 71
     0
 42
50.0
  3
romans.shx
  4
bigfont.shx
  0
STYLE
  5
191
330
3
100
AcDbSymbolTableRecord
100
AcDbTextStyleTableRecord
  2
MSG
 70
     0
 40
0.0
 41
1.0
 50
0.0
 71
     0
 42
2.5
  3
MS Gothic.ttf
  4

1001
ACAD
1000
MS Gothic
1071
    32817
  0
STYLE
  5
5C8
330
3
100
AcDbSymbolTableRecord
100
AcDbTextStyleTableRecord
  2
STANDARD15
 70
     0
 40
0.0
 41
1.0
 50
15.0
 71
     0
 42
2.5
  3
ROMANS
  4
bigfont
  0
STYLE
  5
5C9
330
3
100
AcDbSymbolTableRecord
100
AcDbTextStyleTableRecord
  2
ROMANS15
 70
     0
 40
0.0
 41
1.0
 50
15.0
 71
     0
 42
2.5
  3
romans
  4

  0
ENDTAB
  0
TABLE
  2
VIEW
  5
6
330
0
100
AcDbSymbolTable
 70
     1
  0
VIEW
  5
54D
330
6
100
AcDbSymbolTableRecord
100
AcDbViewTableRecord
  2
ALL
 70
     0
 40
594.0
 10
420.5
 20
297.0
 41
865.125
 11
0.0
 21
0.0
 31
1.0
 12
0.0
 22
0.0
 32
0.0
 42
50.0
 43
0.0
 44
0.0
 50
0.0
 71
     0
  0
ENDTAB
  0
TABLE
  2
UCS
  5
7
330
0
100
AcDbSymbolTable
 70
     0
  0
ENDTAB
  0
TABLE
  2
APPID
  5
9
330
0
100
AcDbSymbolTable
 70
     4
  0
APPID
  5
12
330
9
100
AcDbSymbolTableRecord
100
AcDbRegAppTableRecord
  2
ACAD
 70
     0
  0
APPID
  5
5CB
330
9
100
AcDbSymbolTableRecord
100
AcDbRegAppTableRecord
  2
ARAIGUMI_YOHEKI
 70
     0
  0
APPID
  5
5CC
330
9
100
AcDbSymbolTableRecord
100
AcDbRegAppTableRecord
  2
CONTENTTABDATA
 70
     0
  0
APPID
  5
5CD
330
9
100
AcDbSymbolTableRecord
100
AcDbRegAppTableRecord
  2
CONTENTCURRENTTAB
 70
     0
  0
ENDTAB
  0
TABLE
  2
DIMSTYLE
  5
A
330
0
100
AcDbSymbolTable
 70
    10
  0
DIMSTYLE
105
27
330
A
100
AcDbSymbolTableRecord
100
AcDbDimStyleTableRecord
  2
ISO-25
 70
     0
  3

  4

  5

  6

  7

 40
1.0
 41
2.5
 42
0.625
 43
3.75
 44
1.25
 45
0.0
 46
0.0
 47
0.0
 48
0.0
140
2.5
141
2.5
142
0.0
143
0.03937007874016
144
1.0
145
0.0
146
1.0
147
0.625
 71
     0
 72
     0
 73
     0
 74
     0
 75
     0
 76
     0
 77
     1
 78
     8
170
     0
171
     3
172
     1
173
     0
174
     0
175
     0
176
     0
177
     0
178
     0
270
     2
271
     2
272
     2
273
     2
274
     3
340
11
275
     0
280
     0
281
     0
282
     0
283
     0
284
     8
285
     0
286
     0
287
     3
288
     0
  0
DIMSTYLE
105
197
330
A
100
AcDbSymbolTableRecord
100
AcDbDimStyleTableRecord
  2
ADD
 70
     0
  3

  4

  5

  6

  7

 40
1.0
 41
2.5
 42
1.0
 43
7.0
 44
0.5
 45
0.0
 46
0.0
 47
0.0
 48
0.0
140
2.5
141
2.5
142
0.0
143
0.03937007874016
144
1.0
145
0.7
146
1.0
147
0.625
 71
     0
 72
     0
 73
     0
 74
     0
 75
     0
 76
     0
 77
     1
 78
     8
170
     0
171
     3
172
     1
173
     0
174
     1
175
     0
176
   144
177
   144
178
     7
270
     2
271
     1
272
     1
273
     2
274
     3
340
18E
275
     0
280
     0
281
     0
282
     0
283
     2
284
     8
285
     0
286
     0
287
     5
288
     0
  0
DIMSTYLE
105
3E6
330
A
100
AcDbSymbolTableRecord
100
AcDbDimStyleTableRecord
  2
ADD$2
 70
     0
  3

  4

  5

  6

  7

 40
1.0
 41
2.5
 42
1.0
 43
7.0
 44
0.5
 45
0.0
 46
0.0
 47
0.0
 48
0.0
140
2.5
141
2.5
142
0.0
143
0.03937007874016
144
1.0
145
0.7
146
1.0
147
0.625
 71
     0
 72
     0
 73
     0
 74
     0
 75
     0
 76
     0
 77
     1
 78
     8
170
     0
171
     3
172
     1
173
     0
174
     1
175
     0
176
   144
177
   144
178
     7
270
     2
271
     1
272
     1
273
     2
274
     3
340
18E
275
     0
280
     0
281
     0
282
     0
283
     2
284
     8
285
     0
286
     0
287
     5
288
     0
  0
DIMSTYLE
105
3E7
330
A
100
AcDbSymbolTableRecord
100
AcDbDimStyleTableRecord
  2
ADD$4
 70
     0
  3

  4

  5

  6

  7

 40
1.0
 41
2.5
 42
1.0
 43
7.0
 44
0.5
 45
0.0
 46
0.0
 47
0.0
 48
0.0
140
2.5
141
2.5
142
0.0
143
0.03937007874016
144
1.0
145
0.0
146
1.0
147
0.625
 71
     0
 72
     0
 73
     0
 74
     0
 75
     0
 76
     0
 77
     1
 78
     8
170
     0
171
     3
172
     1
173
     0
174
     1
175
     0
176
   144
177
   144
178
     7
270
     2
271
     1
272
     1
273
     2
274
     3
340
18E
275
     0
280
     0
281
     0
282
     0
283
     2
284
     8
285
     0
286
     0
287
     5
288
     0
  0
DIMSTYLE
105
3E8
330
A
100
AcDbSymbolTableRecord
100
AcDbDimStyleTableRecord
  2
ADD$3
 70
     0
  3

  4

  5

  6

  7

 40
1.0
 41
2.5
 42
1.0
 43
7.0
 44
0.5
 45
0.0
 46
0.0
 47
0.0
 48
0.0
140
2.5
141
2.5
142
0.0
143
0.03937007874016
144
1.0
145
0.0
146
1.0
147
0.625
 71
     0
 72
     0
 73
     0
 74
     0
 75
     0
 76
     0
 77
     1
 78
     8
170
     0
171
     3
172
     1
173
     0
174
     1
175
     0
176
   144
177
   144
178
     7
270
     2
271
     1
272
     1
273
     2
274
     3
340
18E
275
     0
280
     0
281
     0
282
     0
283
     2
284
     8
285
     0
286
     0
287
     5
288
     0
  0
DIMSTYLE
105
3E9
330
A
100
AcDbSymbolTableRecord
100
AcDbDimStyleTableRecord
  2
ADD$6
 70
     0
  3

  4

  5

  6

  7

 40
1.0
 41
2.5
 42
1.0
 43
7.0
 44
0.5
 45
0.0
 46
0.0
 47
0.0
 48
0.0
140
2.5
141
2.5
142
0.0
143
0.03937007874016
144
1.0
145
0.0
146
1.0
147
0.625
 71
     0
 72
     0
 73
     0
 74
     0
 75
     0
 76
     0
 77
     1
 78
     8
170
     0
171
     3
172
     1
173
     0
174
     1
175
     0
176
   144
177
   144
178
     7
270
     2
271
     1
272
     1
273
     2
274
     3
340
18E
275
     0
280
     0
281
     0
282
     0
283
     2
284
     8
285
     0
286
     0
287
     5
288
     0
  0
DIMSTYLE
105
3EA
330
A
100
AcDbSymbolTableRecord
100
AcDbDimStyleTableRecord
  2
ADD$7
 70
     0
  3

  4

  5

  6

  7

 40
1.0
 41
2.5
 42
1.0
 43
7.0
 44
0.5
 45
0.0
 46
0.0
 47
0.0
 48
0.0
140
2.5
141
2.5
142
0.0
143
0.03937007874016
144
1.0
145
0.0
146
1.0
147
0.625
 71
     0
 72
     0
 73
     0
 74
     0
 75
     0
 76
     0
 77
     0
 78
     8
170
     0
171
     3
172
     1
173
     0
174
     1
175
     0
176
   144
177
   144
178
     7
270
     2
271
     1
272
     1
273
     2
274
     3
340
18E
275
     0
280
     0
281
     0
282
     0
283
     2
284
     8
285
     0
286
     0
287
     5
288
     0
  0
DIMSTYLE
105
518
330
A
100
AcDbSymbolTableRecord
100
AcDbDimStyleTableRecord
  2
STANDARD
 70
     0
  3

  4

  5

  6

  7

 40
1.0
 41
0.18
 42
0.0625
 43
0.38
 44
0.18
 45
0.0
 46
0.0
 47
0.0
 48
0.0
140
0.18
141
0.09
142
0.0
143
25.4
144
1.0
145
0.0
146
1.0
147
0.09
 71
     0
 72
     0
 73
     1
 74
     1
 75
     0
 76
     0
 77
     0
 78
     0
170
     0
171
     2
172
     0
173
     0
174
     0
175
     0
176
     0
177
     0
178
     0
270
     2
271
     4
272
     4
273
     2
274
     2
340
11
275
     0
280
     0
281
     0
282
     0
283
     1
284
     0
285
     0
286
     0
287
     3
288
     0
  0
DIMSTYLE
105
550
330
A
100
AcDbSymbolTableRecord
100
AcDbDimStyleTableRecord
  2
ADD$0
 70
     0
  3

  4

  5

  6

  7

 40
1.0
 41
0.7
 42
1.0
 43
7.0
 44
0.5
 45
0.0
 46
0.0
 47
0.0
 48
0.0
140
2.5
141
2.5
142
0.0
143
0.03937007874016
144
1.0
145
0.7
146
1.0
147
0.625
 71
     0
 72
     0
 73
     0
 74
     0
 75
     0
 76
     0
 77
     1
 78
     8
170
     0
171
     3
172
     1
173
     0
174
     1
175
     0
176
   144
177
   144
178
     7
270
     2
271
     1
272
     1
273
     2
274
     3
340
18E
275
     0
280
     0
281
     0
282
     0
283
     2
284
     8
285
     0
286
     0
287
     5
288
     0
  0
DIMSTYLE
105
59B
330
A
100
AcDbSymbolTableRecord
100
AcDbDimStyleTableRecord
  2
ADD_M
 70
     0
  3

  4

  5

  6

  7

 40
1.0
 41
2.5
 42
1.0
 43
7.0
 44
0.5
 45
0.0
 46
0.0
 47
0.0
 48
0.0
140
2.5
141
2.5
142
0.0
143
0.03937007874016
144
1.0
145
0.7
146
1.0
147
0.625
 71
     0
 72
     0
 73
     0
 74
     0
 75
     0
 76
     0
 77
     1
 78
     8
170
     0
171
     3
172
     1
173
     0
174
     1
175
     0
176
   144
177
   144
178
     7
270
     2
271
     1
272
     1
273
     2
274
     3
340
18E
275
     0
280
     0
281
     0
282
     0
283
     2
284
     8
285
     0
286
     0
287
     5
288
     0
  0
ENDTAB
  0
TABLE
  2
BLOCK_RECORD
  5
1
330
0
100
AcDbSymbolTable
 70
    31
  0
BLOCK_RECORD
  5
1F
102
{ACAD_XDICTIONARY
360
B8D
102
}
330
1
100
AcDbSymbolTableRecord
100
AcDbBlockTableRecord
  2
*MODEL_SPACE
  0
BLOCK_RECORD
  5
1B
102
{ACAD_XDICTIONARY
360
B8F
102
}
330
1
100
AcDbSymbolTableRecord
100
AcDbBlockTableRecord
  2
*PAPER_SPACE
  0
BLOCK_RECORD
  5
192
330
1
100
AcDbSymbolTableRecord
100
AcDbBlockTableRecord
  2
_DOT
  0
BLOCK_RECORD
  5
5CE
330
1
100
AcDbSymbolTableRecord
100
AcDbBlockTableRecord
  2
A4
  0
BLOCK_RECORD
  5
636
330
1
100
AcDbSymbolTableRecord
100
AcDbBlockTableRecord
  2
*D2
  0
BLOCK_RECORD
  5
6BE
330
1
100
AcDbSymbolTableRecord
100
AcDbBlockTableRecord
  2
*D3
  0
BLOCK_RECORD
  5
6CD
330
1
100
AcDbSymbolTableRecord
100
AcDbBlockTableRecord
  2
*D4
  0
BLOCK_RECORD
  5
91B
330
1
100
AcDbSymbolTableRecord
100
AcDbBlockTableRecord
  2
*D5
  0
BLOCK_RECORD
  5
967
330
1
100
AcDbSymbolTableRecord
100
AcDbBlockTableRecord
  2
*D6
  0
BLOCK_RECORD
  5
974
330
1
100
AcDbSymbolTableRecord
100
AcDbBlockTableRecord
  2
*D7
  0
BLOCK_RECORD
  5
984
330
1
100
AcDbSymbolTableRecord
100
AcDbBlockTableRecord
  2
*D8
  0
BLOCK_RECORD
  5
993
330
1
100
AcDbSymbolTableRecord
100
AcDbBlockTableRecord
  2
*D9
  0
BLOCK_RECORD
  5
9A2
330
1
100
AcDbSymbolTableRecord
100
AcDbBlockTableRecord
  2
*D10
  0
BLOCK_RECORD
  5
9B1
330
1
100
AcDbSymbolTableRecord
100
AcDbBlockTableRecord
  2
*D11
  0
BLOCK_RECORD
  5
9C0
330
1
100
AcDbSymbolTableRecord
100
AcDbBlockTableRecord
  2
*D12
  0
BLOCK_RECORD
  5
9CF
330
1
100
AcDbSymbolTableRecord
100
AcDbBlockTableRecord
  2
*D13
  0
BLOCK_RECORD
  5
9ED
330
1
100
AcDbSymbolTableRecord
100
AcDbBlockTableRecord
  2
*D14
  0
BLOCK_RECORD
  5
9FA
330
1
100
AcDbSymbolTableRecord
100
AcDbBlockTableRecord
  2
*D15
  0
BLOCK_RECORD
  5
A16
330
1
100
AcDbSymbolTableRecord
100
AcDbBlockTableRecord
  2
*D16
  0
BLOCK_RECORD
  5
A23
330
1
100
AcDbSymbolTableRecord
100
AcDbBlockTableRecord
  2
*D17
  0
BLOCK_RECORD
  5
A32
330
1
100
AcDbSymbolTableRecord
100
AcDbBlockTableRecord
  2
*D18
  0
BLOCK_RECORD
  5
A41
330
1
100
AcDbSymbolTableRecord
100
AcDbBlockTableRecord
  2
*D19
  0
BLOCK_RECORD
  5
AA3
330
1
100
AcDbSymbolTableRecord
100
AcDbBlockTableRecord
  2
*D20
  0
BLOCK_RECORD
  5
AB2
330
1
100
AcDbSymbolTableRecord
100
AcDbBlockTableRecord
  2
*D21
  0
BLOCK_RECORD
  5
ACE
330
1
100
AcDbSymbolTableRecord
100
AcDbBlockTableRecord
  2
*D22
  0
BLOCK_RECORD
  5
ADB
330
1
100
AcDbSymbolTableRecord
100
AcDbBlockTableRecord
  2
*D23
  0
BLOCK_RECORD
  5
AE8
330
1
100
AcDbSymbolTableRecord
100
AcDbBlockTableRecord
  2
*D24
  0
BLOCK_RECORD
  5
B06
330
1
100
AcDbSymbolTableRecord
100
AcDbBlockTableRecord
  2
*D25
  0
BLOCK_RECORD
  5
B15
330
1
100
AcDbSymbolTableRecord
100
AcDbBlockTableRecord
  2
*D26
  0
BLOCK_RECORD
  5
B22
330
1
100
AcDbSymbolTableRecord
100
AcDbBlockTableRecord
  2
*D27
  0
BLOCK_RECORD
  5
B2C
330
1
100
AcDbSymbolTableRecord
100
AcDbBlockTableRecord
  2
*D28
  0
BLOCK_RECORD
  5
B36
330
1
100
AcDbSymbolTableRecord
100
AcDbBlockTableRecord
  2
*D29
  0
BLOCK_RECORD
  5
B55
330
1
100
AcDbSymbolTableRecord
100
AcDbBlockTableRecord
  2
*D30
  0
ENDTAB
  0
ENDSEC
  0
SECTION
  2
BLOCKS
  0
BLOCK
  5
20
330
1F
100
AcDbEntity
  8
0
100
AcDbBlockBegin
  2
*MODEL_SPACE
 70
     0
 10
0.0
 20
0.0
 30
0.0
  3
*MODEL_SPACE
  1

  0
ENDBLK
  5
21
330
1F
100
AcDbEntity
  8
0
100
AcDbBlockEnd
  0
BLOCK
  5
1C
330
1B
100
AcDbEntity
 67
     1
  8
0
100
AcDbBlockBegin
  2
*PAPER_SPACE
 70
     0
 10
0.0
 20
0.0
 30
0.0
  3
*PAPER_SPACE
  1

  0
ENDBLK
  5
1D
330
1B
100
AcDbEntity
 67
     1
  8
0
100
AcDbBlockEnd
  0
BLOCK
  5
195
330
192
100
AcDbEntity
  8
0
100
AcDbBlockBegin
  2
_DOT
 70
     0
 10
0.0
 20
0.0
 30
0.0
  3
_DOT
  1

  0
POLYLINE
  5
193
330
192
100
AcDbEntity
  8
0
 62
     0
100
AcDb2dPolyline
 66
     1
 10
0.0
 20
0.0
 30
0.0
 70
     1
 40
0.5
 41
0.5
  0
VERTEX
  5
E80
330
193
100
AcDbEntity
  8
0
 62
     0
100
AcDbVertex
100
AcDb2dVertex
 10
-0.25
 20
0.0
 30
0.0
 42
1.0
  0
VERTEX
  5
E81
330
193
100
AcDbEntity
  8
0
 62
     0
100
AcDbVertex
100
AcDb2dVertex
 10
0.25
 20
0.0
 30
0.0
 42
1.0
  0
SEQEND
  5
E82
330
193
100
AcDbEntity
  8
0
 62
     0
  0
LINE
  5
194
330
192
100
AcDbEntity
  8
0
 62
     0
100
AcDbLine
 10
-0.5
 20
0.0
 30
0.0
 11
-1.0
 21
0.0
 31
0.0
  0
ENDBLK
  5
196
330
192
100
AcDbEntity
  8
0
100
AcDbBlockEnd
  0
BLOCK
  5
5D1
330
5CE
100
AcDbEntity
  8
0
100
AcDbBlockBegin
  2
A4
 70
     0
 10
0.0
 20
0.0
 30
0.0
  3
A4
  1

  0
POLYLINE
  5
5CF
330
5CE
100
AcDbEntity
  8
HOJO
100
AcDb2dPolyline
 66
     1
 10
0.0
 20
0.0
 30
0.0
 70
     1
  0
VERTEX
  5
E83
330
5CF
100
AcDbEntity
  8
HOJO
100
AcDbVertex
100
AcDb2dVertex
 10
0.0
 20
0.0
 30
0.0
  0
VERTEX
  5
E84
330
5CF
100
AcDbEntity
  8
HOJO
100
AcDbVertex
100
AcDb2dVertex
 10
297.0
 20
0.0
 30
0.0
  0
VERTEX
  5
E85
330
5CF
100
AcDbEntity
  8
HOJO
100
AcDbVertex
100
AcDb2dVertex
 10
297.0
 20
210.0
 30
0.0
  0
VERTEX
  5
E86
330
5CF
100
AcDbEntity
  8
HOJO
100
AcDbVertex
100
AcDb2dVertex
 10
0.0
 20
210.0
 30
0.0
  0
SEQEND
  5
E87
330
5CF
100
AcDbEntity
  8
HOJO
  0
POLYLINE
  5
5D0
330
5CE
100
AcDbEntity
  8
HOJO
100
AcDb2dPolyline
 66
     1
 10
0.0
 20
0.0
 30
0.0
 70
     1
  0
VERTEX
  5
E88
330
5D0
100
AcDbEntity
  8
HOJO
100
AcDbVertex
100
AcDb2dVertex
 10
18.0
 20
13.0
 30
0.0
  0
VERTEX
  5
E89
330
5D0
100
AcDbEntity
  8
HOJO
100
AcDbVertex
100
AcDb2dVertex
 10
279.0
 20
13.0
 30
0.0
  0
VERTEX
  5
E8A
330
5D0
100
AcDbEntity
  8
HOJO
100
AcDbVertex
100
AcDb2dVertex
 10
279.0
 20
197.0
 30
0.0
  0
VERTEX
  5
E8B
330
5D0
100
AcDbEntity
  8
HOJO
100
AcDbVertex
100
AcDb2dVertex
 10
18.0
 20
197.0
 30
0.0
  0
SEQEND
  5
E8C
330
5D0
100
AcDbEntity
  8
HOJO
  0
ENDBLK
  5
5D2
330
5CE
100
AcDbEntity
  8
0
100
AcDbBlockEnd
  0
BLOCK
  5
640
330
636
100
AcDbEntity
  8
0
100
AcDbBlockBegin
  2
*D2
 70
     1
 10
0.0
 20
0.0
 30
0.0
  3
*D2
  1

  0
LINE
  5
BFF
330
636
100
AcDbEntity
  8
SUNPO
 62
   144
100
AcDbLine
 10
3240.0
 20
1880.0
 30
0.0
 11
3240.0
 21
1740.0
 31
0.0
  0
LINE
  5
C00
330
636
100
AcDbEntity
  8
SUNPO
 62
   144
100
AcDbLine
 10
5240.0
 20
1880.0
 30
0.0
 11
5240.0
 21
1740.0
 31
0.0
  0
LINE
  5
C01
330
636
100
AcDbEntity
  8
SUNPO
 62
   144
100
AcDbLine
 10
3254.0
 20
1750.0
 30
0.0
 11
5226.0
 21
1750.0
 31
0.0
  0
SOLID
  5
C02
330
636
100
AcDbEntity
  8
SUNPO
 62
   144
100
AcDbTrace
 10
3254.0
 20
1752.333333333333
 30
0.0
 11
3254.0
 21
1747.666666666666
 31
0.0
 12
3240.0
 22
1750.0
 32
0.0
 13
3240.0
 23
1750.0
 33
0.0
  0
SOLID
  5
C03
330
636
100
AcDbEntity
  8
SUNPO
 62
   144
100
AcDbTrace
 10
5226.0
 20
1752.333333333333
 30
0.0
 11
5226.0
 21
1747.666666666666
 31
0.0
 12
5240.0
 22
1750.0
 32
0.0
 13
5240.0
 23
1750.0
 33
0.0
  0
MTEXT
  5
C04
330
636
100
AcDbEntity
  8
SUNPO
 62
     7
100
AcDbMText
 10
4240.0
 20
1787.5
 30
0.0
 40
50.0
 41
0.0
 71
     5
 72
     1
  1
\A2;2000
  7
ADD
1001
ACAD
1000
MTEXTBEGIN
1070
    73
1070
     1
1070
    44
1040
1.0
1070
    74
1070
     0
1000
MTEXTEND
  0
POINT
  5
C05
330
636
100
AcDbEntity
  8
DEFPOINTS
 62
     0
100
AcDbPoint
 10
3240.0
 20
1900.0
 30
0.0
  0
POINT
  5
C06
330
636
100
AcDbEntity
  8
DEFPOINTS
 62
     0
100
AcDbPoint
 10
5240.0
 20
1900.0
 30
0.0
  0
POINT
  5
C07
330
636
100
AcDbEntity
  8
DEFPOINTS
 62
     0
100
AcDbPoint
 10
5240.0
 20
1750.0
 30
0.0
  0
ENDBLK
  5
641
330
636
100
AcDbEntity
  8
0
100
AcDbBlockEnd
  0
BLOCK
  5
6CA
330
6BE
100
AcDbEntity
  8
0
100
AcDbBlockBegin
  2
*D3
 70
     1
 10
0.0
 20
0.0
 30
0.0
  3
*D3
  1

  0
LINE
  5
C08
330
6BE
100
AcDbEntity
  8
SUNPO
 62
   144
100
AcDbLine
 10
3220.0
 20
1900.0
 30
0.0
 11
2810.0
 21
1900.0
 31
0.0
  0
LINE
  5
C09
330
6BE
100
AcDbEntity
  8
SUNPO
 62
   144
100
AcDbLine
 10
3220.0
 20
2020.0
 30
0.0
 11
2810.0
 21
2020.0
 31
0.0
  0
LINE
  5
C0A
330
6BE
100
AcDbEntity
  8
SUNPO
 62
   144
100
AcDbLine
 10
2820.0
 20
1886.0
 30
0.0
 11
2820.0
 21
1872.0
 31
0.0
  0
LINE
  5
C0B
330
6BE
100
AcDbEntity
  8
SUNPO
 62
   144
100
AcDbLine
 10
2820.0
 20
2034.0
 30
0.0
 11
2820.0
 21
2048.0
 31
0.0
  0
LINE
  5
C0C
330
6BE
100
AcDbEntity
  8
SUNPO
 62
   144
100
AcDbLine
 10
2820.0
 20
1900.0
 30
0.0
 11
2820.0
 21
2020.0
 31
0.0
  0
SOLID
  5
C0D
330
6BE
100
AcDbEntity
  8
SUNPO
 62
   144
100
AcDbTrace
 10
2817.666666666666
 20
1886.0
 30
0.0
 11
2822.333333333333
 21
1886.0
 31
0.0
 12
2820.0
 22
1900.0
 32
0.0
 13
2820.0
 23
1900.0
 33
0.0
  0
SOLID
  5
C0E
330
6BE
100
AcDbEntity
  8
SUNPO
 62
   144
100
AcDbTrace
 10
2817.666666666666
 20
2034.0
 30
0.0
 11
2822.333333333333
 21
2034.0
 31
0.0
 12
2820.0
 22
2020.0
 32
0.0
 13
2820.0
 23
2020.0
 33
0.0
  0
MTEXT
  5
C0F
330
6BE
100
AcDbEntity
  8
SUNPO
 62
     7
100
AcDbMText
 10
2782.499999999999
 20
1960.0
 30
0.0
 40
50.0
 41
0.0
 71
     5
 72
     1
  1
\A2;120
  7
ADD
 11
0.0000000000000001
 21
1.0
 31
0.0
1001
ACAD
1000
MTEXTBEGIN
1070
    73
1070
     1
1070
    44
1040
1.0
1070
    74
1070
     0
1000
MTEXTEND
  0
POINT
  5
C10
330
6BE
100
AcDbEntity
  8
DEFPOINTS
 62
     0
100
AcDbPoint
 10
3240.0
 20
1900.0
 30
0.0
  0
POINT
  5
C11
330
6BE
100
AcDbEntity
  8
DEFPOINTS
 62
     0
100
AcDbPoint
 10
3240.0
 20
2020.0
 30
0.0
  0
POINT
  5
C12
330
6BE
100
AcDbEntity
  8
DEFPOINTS
 62
     0
100
AcDbPoint
 10
2820.0
 20
2020.0
 30
0.0
  0
ENDBLK
  5
6CB
330
6BE
100
AcDbEntity
  8
0
100
AcDbBlockEnd
  0
BLOCK
  5
6D7
330
6CD
100
AcDbEntity
  8
0
100
AcDbBlockBegin
  2
*D4
 70
     1
 10
0.0
 20
0.0
 30
0.0
  3
*D4
  1

  0
LINE
  5
C13
330
6CD
100
AcDbEntity
  8
SUNPO
 62
   144
100
AcDbLine
 10
3220.0
 20
2020.0
 30
0.0
 11
2810.0
 21
2020.0
 31
0.0
  0
LINE
  5
C14
330
6CD
100
AcDbEntity
  8
SUNPO
 62
   144
100
AcDbLine
 10
3220.0
 20
2220.0
 30
0.0
 11
2810.0
 21
2220.0
 31
0.0
  0
LINE
  5
C15
330
6CD
100
AcDbEntity
  8
SUNPO
 62
   144
100
AcDbLine
 10
2820.0
 20
2034.0
 30
0.0
 11
2820.0
 21
2206.0
 31
0.0
  0
SOLID
  5
C16
330
6CD
100
AcDbEntity
  8
SUNPO
 62
   144
100
AcDbTrace
 10
2817.666666666666
 20
2034.0
 30
0.0
 11
2822.333333333333
 21
2034.0
 31
0.0
 12
2820.0
 22
2020.0
 32
0.0
 13
2820.0
 23
2020.0
 33
0.0
  0
SOLID
  5
C17
330
6CD
100
AcDbEntity
  8
SUNPO
 62
   144
100
AcDbTrace
 10
2817.666666666666
 20
2206.0
 30
0.0
 11
2822.333333333333
 21
2206.0
 31
0.0
 12
2820.0
 22
2220.0
 32
0.0
 13
2820.0
 23
2220.0
 33
0.0
  0
MTEXT
  5
C18
330
6CD
100
AcDbEntity
  8
SUNPO
 62
     7
100
AcDbMText
 10
2782.499999999999
 20
2120.0
 30
0.0
 40
50.0
 41
0.0
 71
     5
 72
     1
  1
\A2;200
  7
ADD
 11
0.0000000000000001
 21
1.0
 31
0.0
1001
ACAD
1000
MTEXTBEGIN
1070
    73
1070
     1
1070
    44
1040
1.0
1070
    74
1070
     0
1000
MTEXTEND
  0
POINT
  5
C19
330
6CD
100
AcDbEntity
  8
DEFPOINTS
 62
     0
100
AcDbPoint
 10
3240.0
 20
2020.0
 30
0.0
  0
POINT
  5
C1A
330
6CD
100
AcDbEntity
  8
DEFPOINTS
 62
     0
100
AcDbPoint
 10
3240.0
 20
2220.0
 30
0.0
  0
POINT
  5
C1B
330
6CD
100
AcDbEntity
  8
DEFPOINTS
 62
     0
100
AcDbPoint
 10
2820.0
 20
2220.0
 30
0.0
  0
ENDBLK
  5
6D8
330
6CD
100
AcDbEntity
  8
0
100
AcDbBlockEnd
  0
BLOCK
  5
925
330
91B
100
AcDbEntity
  8
0
100
AcDbBlockBegin
  2
*D5
 70
     1
 10
0.0
 20
0.0
 30
0.0
  3
*D5
  1

  0
LINE
  5
91C
330
91B
100
AcDbEntity
  8
SUNPO
 62
   144
100
AcDbLine
 10
5260.0
 20
1900.0
 30
0.0
 11
5380.537624357931
 21
1900.0
 31
0.0
  0
LINE
  5
91D
330
91B
100
AcDbEntity
  8
SUNPO
 62
   144
100
AcDbLine
 10
5260.0
 20
2050.0
 30
0.0
 11
5380.537624357932
 21
2050.0
 31
0.0
  0
LINE
  5
91E
330
91B
100
AcDbEntity
  8
SUNPO
 62
   144
100
AcDbLine
 10
5370.537624357932
 20
1914.0
 30
0.0
 11
5370.537624357932
 21
2036.0
 31
0.0
  0
SOLID
  5
91F
330
91B
100
AcDbEntity
  8
SUNPO
 62
   144
100
AcDbTrace
 10
5368.204291024598
 20
1914.0
 30
0.0
 11
5372.870957691264
 21
1914.0
 31
0.0
 12
5370.537624357932
 22
1900.0
 32
0.0
 13
5370.537624357932
 23
1900.0
 33
0.0
  0
SOLID
  5
920
330
91B
100
AcDbEntity
  8
SUNPO
 62
   144
100
AcDbTrace
 10
5368.204291024598
 20
2036.0
 30
0.0
 11
5372.870957691264
 21
2036.0
 31
0.0
 12
5370.537624357933
 22
2050.0
 32
0.0
 13
5370.537624357933
 23
2050.0
 33
0.0
  0
MTEXT
  5
921
330
91B
100
AcDbEntity
  8
SUNPO
 62
     7
100
AcDbMText
 10
5333.037624357931
 20
1975.000000000001
 30
0.0
 40
50.0
 41
0.0
 71
     5
 72
     1
  1
\A2;150
  7
ADD
 11
0.0000000000000001
 21
1.0
 31
0.0
1001
ACAD
1000
MTEXTBEGIN
1070
    73
1070
     1
1070
    44
1040
1.0
1070
    74
1070
     0
1000
MTEXTEND
  0
POINT
  5
922
330
91B
100
AcDbEntity
  8
DEFPOINTS
 62
     0
100
AcDbPoint
 10
5240.0
 20
1900.0
 30
0.0
  0
POINT
  5
923
330
91B
100
AcDbEntity
  8
DEFPOINTS
 62
     0
100
AcDbPoint
 10
5240.0
 20
2050.0
 30
0.0
  0
POINT
  5
924
330
91B
100
AcDbEntity
  8
DEFPOINTS
 62
     0
100
AcDbPoint
 10
5370.537624357933
 20
2050.0
 30
0.0
  0
ENDBLK
  5
926
330
91B
100
AcDbEntity
  8
0
100
AcDbBlockEnd
  0
BLOCK
  5
971
330
967
100
AcDbEntity
  8
0
100
AcDbBlockBegin
  2
*D6
 70
     1
 10
0.0
 20
0.0
 30
0.0
  3
*D6
  1

  0
LINE
  5
968
330
967
100
AcDbEntity
  8
SUNPO
 62
   144
100
AcDbLine
 10
4104.5
 20
2000.0
 30
0.0
 11
4104.5
 21
1935.82033191917
 31
0.0
  0
LINE
  5
969
330
967
100
AcDbEntity
  8
SUNPO
 62
   144
100
AcDbLine
 10
4379.5
 20
2000.0
 30
0.0
 11
4379.5
 21
1935.82033191917
 31
0.0
  0
LINE
  5
96A
330
967
100
AcDbEntity
  8
SUNPO
 62
   144
100
AcDbLine
 10
4118.5
 20
1945.82033191917
 30
0.0
 11
4365.499999999999
 21
1945.82033191917
 31
0.0
  0
SOLID
  5
96B
330
967
100
AcDbEntity
  8
SUNPO
 62
   144
100
AcDbTrace
 10
4118.5
 20
1948.153665252503
 30
0.0
 11
4118.5
 21
1943.486998585837
 31
0.0
 12
4104.5
 22
1945.82033191917
 32
0.0
 13
4104.5
 23
1945.82033191917
 33
0.0
  0
SOLID
  5
96C
330
967
100
AcDbEntity
  8
SUNPO
 62
   144
100
AcDbTrace
 10
4365.499999999999
 20
1948.153665252503
 30
0.0
 11
4365.499999999999
 21
1943.486998585837
 31
0.0
 12
4379.5
 22
1945.82033191917
 32
0.0
 13
4379.5
 23
1945.82033191917
 33
0.0
  0
MTEXT
  5
96D
330
967
100
AcDbEntity
  8
SUNPO
 62
     7
100
AcDbMText
 10
4242.0
 20
1983.32033191917
 30
0.0
 40
50.0
 41
0.0
 71
     5
 72
     1
  1
\A2;275
  7
ADD
1001
ACAD
1000
MTEXTBEGIN
1070
    73
1070
     1
1070
    44
1040
1.0
1070
    74
1070
     0
1000
MTEXTEND
  0
POINT
  5
96E
330
967
100
AcDbEntity
  8
DEFPOINTS
 62
     0
100
AcDbPoint
 10
4104.5
 20
2020.0
 30
0.0
  0
POINT
  5
96F
330
967
100
AcDbEntity
  8
DEFPOINTS
 62
     0
100
AcDbPoint
 10
4379.5
 20
2020.0
 30
0.0
  0
POINT
  5
970
330
967
100
AcDbEntity
  8
DEFPOINTS
 62
     0
100
AcDbPoint
 10
4379.5
 20
1945.82033191917
 30
0.0
  0
ENDBLK
  5
972
330
967
100
AcDbEntity
  8
0
100
AcDbBlockEnd
  0
BLOCK
  5
97E
330
974
100
AcDbEntity
  8
0
100
AcDbBlockBegin
  2
*D7
 70
     1
 10
0.0
 20
0.0
 30
0.0
  3
*D7
  1

  0
LINE
  5
975
330
974
100
AcDbEntity
  8
SUNPO
 62
   144
100
AcDbLine
 10
4115.0
 20
2240.0
 30
0.0
 11
4115.0
 21
2364.078361552822
 31
0.0
  0
LINE
  5
976
330
974
100
AcDbEntity
  8
SUNPO
 62
   144
100
AcDbLine
 10
4365.0
 20
2240.0
 30
0.0
 11
4365.0
 21
2364.078361552822
 31
0.0
  0
LINE
  5
977
330
974
100
AcDbEntity
  8
SUNPO
 62
   144
100
AcDbLine
 10
4129.0
 20
2354.078361552821
 30
0.0
 11
4351.0
 21
2354.078361552821
 31
0.0
  0
SOLID
  5
978
330
974
100
AcDbEntity
  8
SUNPO
 62
   144
100
AcDbTrace
 10
4129.0
 20
2356.411694886155
 30
0.0
 11
4129.0
 21
2351.745028219488
 31
0.0
 12
4115.0
 22
2354.078361552821
 32
0.0
 13
4115.0
 23
2354.078361552821
 33
0.0
  0
SOLID
  5
979
330
974
100
AcDbEntity
  8
SUNPO
 62
   144
100
AcDbTrace
 10
4351.0
 20
2356.411694886155
 30
0.0
 11
4351.0
 21
2351.745028219488
 31
0.0
 12
4365.0
 22
2354.078361552821
 32
0.0
 13
4365.0
 23
2354.078361552821
 33
0.0
  0
MTEXT
  5
97A
330
974
100
AcDbEntity
  8
SUNPO
 62
     7
100
AcDbMText
 10
4240.0
 20
2391.578361552821
 30
0.0
 40
50.0
 41
0.0
 71
     5
 72
     1
  1
\A2;250
  7
ADD
1001
ACAD
1000
MTEXTBEGIN
1070
    73
1070
     1
1070
    44
1040
1.0
1070
    74
1070
     0
1000
MTEXTEND
  0
POINT
  5
97B
330
974
100
AcDbEntity
  8
DEFPOINTS
 62
     0
100
AcDbPoint
 10
4115.0
 20
2220.0
 30
0.0
  0
POINT
  5
97C
330
974
100
AcDbEntity
  8
DEFPOINTS
 62
     0
100
AcDbPoint
 10
4365.0
 20
2220.0
 30
0.0
  0
POINT
  5
97D
330
974
100
AcDbEntity
  8
DEFPOINTS
 62
     0
100
AcDbPoint
 10
4365.0
 20
2354.078361552821
 30
0.0
  0
ENDBLK
  5
97F
330
974
100
AcDbEntity
  8
0
100
AcDbBlockEnd
  0
BLOCK
  5
990
330
984
100
AcDbEntity
  8
0
100
AcDbBlockBegin
  2
*D8
 70
     1
 10
0.0
 20
0.0
 30
0.0
  3
*D8
  1

  0
LINE
  5
985
330
984
100
AcDbEntity
  8
SUNPO
 62
   144
100
AcDbLine
 10
4084.500000000001
 20
2020.0
 30
0.0
 11
3942.406359957405
 21
2020.0
 31
0.0
  0
LINE
  5
986
330
984
100
AcDbEntity
  8
SUNPO
 62
   144
100
AcDbLine
 10
4084.5
 20
2120.0
 30
0.0
 11
3942.406359957405
 21
2120.0
 31
0.0
  0
LINE
  5
987
330
984
100
AcDbEntity
  8
SUNPO
 62
   144
100
AcDbLine
 10
3952.406359957405
 20
2006.0
 30
0.0
 11
3952.406359957405
 21
1992.0
 31
0.0
  0
LINE
  5
988
330
984
100
AcDbEntity
  8
SUNPO
 62
   144
100
AcDbLine
 10
3952.406359957405
 20
2134.0
 30
0.0
 11
3952.406359957405
 21
2148.0
 31
0.0
  0
LINE
  5
989
330
984
100
AcDbEntity
  8
SUNPO
 62
   144
100
AcDbLine
 10
3952.406359957405
 20
2020.0
 30
0.0
 11
3952.406359957405
 21
2120.0
 31
0.0
  0
SOLID
  5
98A
330
984
100
AcDbEntity
  8
SUNPO
 62
   144
100
AcDbTrace
 10
3950.073026624072
 20
2006.0
 30
0.0
 11
3954.739693290738
 21
2006.0
 31
0.0
 12
3952.406359957405
 22
2020.0
 32
0.0
 13
3952.406359957405
 23
2020.0
 33
0.0
  0
SOLID
  5
98B
330
984
100
AcDbEntity
  8
SUNPO
 62
   144
100
AcDbTrace
 10
3950.073026624072
 20
2134.0
 30
0.0
 11
3954.739693290738
 21
2134.0
 31
0.0
 12
3952.406359957405
 22
2120.0
 32
0.0
 13
3952.406359957405
 23
2120.0
 33
0.0
  0
MTEXT
  5
98C
330
984
100
AcDbEntity
  8
SUNPO
 62
     7
100
AcDbMText
 10
3914.906359957404
 20
2070.0
 30
0.0
 40
50.0
 41
0.0
 71
     5
 72
     1
  1
\A2;100
  7
ADD
 11
0.0000000000000001
 21
1.0
 31
0.0
1001
ACAD
1000
MTEXTBEGIN
1070
    73
1070
     1
1070
    44
1040
1.0
1070
    74
1070
     0
1000
MTEXTEND
  0
POINT
  5
98D
330
984
100
AcDbEntity
  8
DEFPOINTS
 62
     0
100
AcDbPoint
 10
4104.5
 20
2020.0
 30
0.0
  0
POINT
  5
98E
330
984
100
AcDbEntity
  8
DEFPOINTS
 62
     0
100
AcDbPoint
 10
4104.5
 20
2120.0
 30
0.0
  0
POINT
  5
98F
330
984
100
AcDbEntity
  8
DEFPOINTS
 62
     0
100
AcDbPoint
 10
3952.406359957405
 20
2120.0
 30
0.0
  0
ENDBLK
  5
991
330
984
100
AcDbEntity
  8
0
100
AcDbBlockEnd
  0
BLOCK
  5
99F
330
993
100
AcDbEntity
  8
0
100
AcDbBlockBegin
  2
*D9
 70
     1
 10
0.0
 20
0.0
 30
0.0
  3
*D9
  1

  0
LINE
  5
994
330
993
100
AcDbEntity
  8
SUNPO
 62
   144
100
AcDbLine
 10
4092.576923076923
 20
2120.0
 30
0.0
 11
4005.940738683121
 21
2120.0
 31
0.0
  0
LINE
  5
995
330
993
100
AcDbEntity
  8
SUNPO
 62
   144
100
AcDbLine
 10
4092.576923076923
 20
2220.0
 30
0.0
 11
4005.940738683121
 21
2220.0
 31
0.0
  0
LINE
  5
996
330
993
100
AcDbEntity
  8
SUNPO
 62
   144
100
AcDbLine
 10
4015.940738683121
 20
2106.0
 30
0.0
 11
4015.940738683121
 21
2092.0
 31
0.0
  0
LINE
  5
997
330
993
100
AcDbEntity
  8
SUNPO
 62
   144
100
AcDbLine
 10
4015.940738683121
 20
2234.0
 30
0.0
 11
4015.940738683121
 21
2248.0
 31
0.0
  0
LINE
  5
998
330
993
100
AcDbEntity
  8
SUNPO
 62
   144
100
AcDbLine
 10
4015.940738683121
 20
2120.0
 30
0.0
 11
4015.940738683121
 21
2220.0
 31
0.0
  0
SOLID
  5
999
330
993
100
AcDbEntity
  8
SUNPO
 62
   144
100
AcDbTrace
 10
4013.607405349786
 20
2106.0
 30
0.0
 11
4018.274072016454
 21
2106.0
 31
0.0
 12
4015.940738683121
 22
2120.0
 32
0.0
 13
4015.940738683121
 23
2120.0
 33
0.0
  0
SOLID
  5
99A
330
993
100
AcDbEntity
  8
SUNPO
 62
   144
100
AcDbTrace
 10
4013.607405349786
 20
2234.0
 30
0.0
 11
4018.274072016454
 21
2234.0
 31
0.0
 12
4015.940738683121
 22
2220.0
 32
0.0
 13
4015.940738683121
 23
2220.0
 33
0.0
  0
MTEXT
  5
99B
330
993
100
AcDbEntity
  8
SUNPO
 62
     7
100
AcDbMText
 10
3978.44073868312
 20
2170.0
 30
0.0
 40
50.0
 41
0.0
 71
     5
 72
     1
  1
\A2;100
  7
ADD
 11
0.0000000000000001
 21
1.0
 31
0.0
1001
ACAD
1000
MTEXTBEGIN
1070
    73
1070
     1
1070
    44
1040
1.0
1070
    74
1070
     0
1000
MTEXTEND
  0
POINT
  5
99C
330
993
100
AcDbEntity
  8
DEFPOINTS
 62
     0
100
AcDbPoint
 10
4112.576923076924
 20
2120.0
 30
0.0
  0
POINT
  5
99D
330
993
100
AcDbEntity
  8
DEFPOINTS
 62
     0
100
AcDbPoint
 10
4112.576923076924
 20
2220.0
 30
0.0
  0
POINT
  5
99E
330
993
100
AcDbEntity
  8
DEFPOINTS
 62
     0
100
AcDbPoint
 10
4015.940738683121
 20
2220.0
 30
0.0
  0
ENDBLK
  5
9A0
330
993
100
AcDbEntity
  8
0
100
AcDbBlockEnd
  0
BLOCK
  5
9AE
330
9A2
100
AcDbEntity
  8
0
100
AcDbBlockBegin
  2
*D10
 70
     1
 10
0.0
 20
0.0
 30
0.0
  3
*D10
  1

  0
LINE
  5
9A3
330
9A2
100
AcDbEntity
  8
SUNPO
 62
   144
100
AcDbLine
 10
4424.573095777772
 20
2020.0
 30
0.0
 11
4492.134536768584
 21
2020.0
 31
0.0
  0
LINE
  5
9A4
330
9A2
100
AcDbEntity
  8
SUNPO
 62
   144
100
AcDbLine
 10
4424.573095777772
 20
2050.0
 30
0.0
 11
4492.134536768584
 21
2050.0
 31
0.0
  0
LINE
  5
9A5
330
9A2
100
AcDbEntity
  8
SUNPO
 62
   144
100
AcDbLine
 10
4482.134536768583
 20
2006.0
 30
0.0
 11
4482.134536768583
 21
1992.0
 31
0.0
  0
LINE
  5
9A6
330
9A2
100
AcDbEntity
  8
SUNPO
 62
   144
100
AcDbLine
 10
4482.134536768584
 20
2064.0
 30
0.0
 11
4482.134536768584
 21
2078.0
 31
0.0
  0
LINE
  5
9A7
330
9A2
100
AcDbEntity
  8
SUNPO
 62
   144
100
AcDbLine
 10
4482.134536768583
 20
2020.0
 30
0.0
 11
4482.134536768584
 21
2050.0
 31
0.0
  0
SOLID
  5
9A8
330
9A2
100
AcDbEntity
  8
SUNPO
 62
   144
100
AcDbTrace
 10
4479.80120343525
 20
2006.0
 30
0.0
 11
4484.467870101917
 21
2006.0
 31
0.0
 12
4482.134536768583
 22
2020.0
 32
0.0
 13
4482.134536768583
 23
2020.0
 33
0.0
  0
SOLID
  5
9A9
330
9A2
100
AcDbEntity
  8
SUNPO
 62
   144
100
AcDbTrace
 10
4479.801203435251
 20
2064.0
 30
0.0
 11
4484.467870101918
 21
2064.0
 31
0.0
 12
4482.134536768584
 22
2050.0
 32
0.0
 13
4482.134536768584
 23
2050.0
 33
0.0
  0
MTEXT
  5
9AA
330
9A2
100
AcDbEntity
  8
SUNPO
 62
     7
100
AcDbMText
 10
4444.634536768583
 20
2035.000000000001
 30
0.0
 40
50.0
 41
0.0
 71
     5
 72
     1
  1
\A2;30
  7
ADD
 11
0.0000000000000001
 21
1.0
 31
0.0
1001
ACAD
1000
MTEXTBEGIN
1070
    73
1070
     1
1070
    44
1040
1.0
1070
    74
1070
     0
1000
MTEXTEND
  0
POINT
  5
9AB
330
9A2
100
AcDbEntity
  8
DEFPOINTS
 62
     0
100
AcDbPoint
 10
4404.573095777772
 20
2020.0
 30
0.0
  0
POINT
  5
9AC
330
9A2
100
AcDbEntity
  8
DEFPOINTS
 62
     0
100
AcDbPoint
 10
4404.573095777772
 20
2050.0
 30
0.0
  0
POINT
  5
9AD
330
9A2
100
AcDbEntity
  8
DEFPOINTS
 62
     0
100
AcDbPoint
 10
4482.134536768584
 20
2050.0
 30
0.0
  0
ENDBLK
  5
9AF
330
9A2
100
AcDbEntity
  8
0
100
AcDbBlockEnd
  0
BLOCK
  5
9BD
330
9B1
100
AcDbEntity
  8
0
100
AcDbBlockBegin
  2
*D11
 70
     1
 10
0.0
 20
0.0
 30
0.0
  3
*D11
  1

  0
LINE
  5
9B2
330
9B1
100
AcDbEntity
  8
SUNPO
 62
   144
100
AcDbLine
 10
4424.573095777772
 20
2050.0
 30
0.0
 11
4561.444770828458
 21
2050.0
 31
0.0
  0
LINE
  5
9B3
330
9B1
100
AcDbEntity
  8
SUNPO
 62
   144
100
AcDbLine
 10
4424.573095777772
 20
2150.0
 30
0.0
 11
4561.444770828458
 21
2150.0
 31
0.0
  0
LINE
  5
9B4
330
9B1
100
AcDbEntity
  8
SUNPO
 62
   144
100
AcDbLine
 10
4551.444770828457
 20
2036.0
 30
0.0
 11
4551.444770828457
 21
2022.0
 31
0.0
  0
LINE
  5
9B5
330
9B1
100
AcDbEntity
  8
SUNPO
 62
   144
100
AcDbLine
 10
4551.444770828458
 20
2164.0
 30
0.0
 11
4551.444770828458
 21
2178.0
 31
0.0
  0
LINE
  5
9B6
330
9B1
100
AcDbEntity
  8
SUNPO
 62
   144
100
AcDbLine
 10
4551.444770828458
 20
2050.0
 30
0.0
 11
4551.444770828458
 21
2150.0
 31
0.0
  0
SOLID
  5
9B7
330
9B1
100
AcDbEntity
  8
SUNPO
 62
   144
100
AcDbTrace
 10
4549.111437495125
 20
2036.0
 30
0.0
 11
4553.778104161791
 21
2036.0
 31
0.0
 12
4551.444770828458
 22
2050.0
 32
0.0
 13
4551.444770828458
 23
2050.0
 33
0.0
  0
SOLID
  5
9B8
330
9B1
100
AcDbEntity
  8
SUNPO
 62
   144
100
AcDbTrace
 10
4549.111437495126
 20
2164.0
 30
0.0
 11
4553.778104161792
 21
2164.0
 31
0.0
 12
4551.444770828458
 22
2150.0
 32
0.0
 13
4551.444770828458
 23
2150.0
 33
0.0
  0
MTEXT
  5
9B9
330
9B1
100
AcDbEntity
  8
SUNPO
 62
     7
100
AcDbMText
 10
4513.944770828458
 20
2100.0
 30
0.0
 40
50.0
 41
0.0
 71
     5
 72
     1
  1
\A2;100
  7
ADD
 11
0.0000000000000001
 21
1.0
 31
0.0
1001
ACAD
1000
MTEXTBEGIN
1070
    73
1070
     1
1070
    44
1040
1.0
1070
    74
1070
     0
1000
MTEXTEND
  0
POINT
  5
9BA
330
9B1
100
AcDbEntity
  8
DEFPOINTS
 62
     0
100
AcDbPoint
 10
4404.573095777772
 20
2050.0
 30
0.0
  0
POINT
  5
9BB
330
9B1
100
AcDbEntity
  8
DEFPOINTS
 62
     0
100
AcDbPoint
 10
4404.573095777772
 20
2150.0
 30
0.0
  0
POINT
  5
9BC
330
9B1
100
AcDbEntity
  8
DEFPOINTS
 62
     0
100
AcDbPoint
 10
4551.444770828458
 20
2150.0
 30
0.0
  0
ENDBLK
  5
9BE
330
9B1
100
AcDbEntity
  8
0
100
AcDbBlockEnd
  0
BLOCK
  5
9CC
330
9C0
100
AcDbEntity
  8
0
100
AcDbBlockBegin
  2
*D12
 70
     1
 10
0.0
 20
0.0
 30
0.0
  3
*D12
  1

  0
LINE
  5
9C1
330
9C0
100
AcDbEntity
  8
SUNPO
 62
   144
100
AcDbLine
 10
4407.245529775305
 20
2150.0
 30
0.0
 11
4491.309414577992
 21
2150.0
 31
0.0
  0
LINE
  5
9C2
330
9C0
100
AcDbEntity
  8
SUNPO
 62
   144
100
AcDbLine
 10
4407.245529775305
 20
2220.0
 30
0.0
 11
4491.309414577992
 21
2220.0
 31
0.0
  0
LINE
  5
9C3
330
9C0
100
AcDbEntity
  8
SUNPO
 62
   144
100
AcDbLine
 10
4481.309414577991
 20
2136.0
 30
0.0
 11
4481.309414577991
 21
2122.0
 31
0.0
  0
LINE
  5
9C4
330
9C0
100
AcDbEntity
  8
SUNPO
 62
   144
100
AcDbLine
 10
4481.309414577991
 20
2234.0
 30
0.0
 11
4481.309414577991
 21
2248.0
 31
0.0
  0
LINE
  5
9C5
330
9C0
100
AcDbEntity
  8
SUNPO
 62
   144
100
AcDbLine
 10
4481.309414577991
 20
2150.0
 30
0.0
 11
4481.309414577991
 21
2220.0
 31
0.0
  0
SOLID
  5
9C6
330
9C0
100
AcDbEntity
  8
SUNPO
 62
   144
100
AcDbTrace
 10
4478.976081244659
 20
2136.0
 30
0.0
 11
4483.642747911325
 21
2136.0
 31
0.0
 12
4481.309414577991
 22
2150.0
 32
0.0
 13
4481.309414577991
 23
2150.0
 33
0.0
  0
SOLID
  5
9C7
330
9C0
100
AcDbEntity
  8
SUNPO
 62
   144
100
AcDbTrace
 10
4478.976081244659
 20
2234.0
 30
0.0
 11
4483.642747911325
 21
2234.0
 31
0.0
 12
4481.309414577991
 22
2220.0
 32
0.0
 13
4481.309414577991
 23
2220.0
 33
0.0
  0
MTEXT
  5
9C8
330
9C0
100
AcDbEntity
  8
SUNPO
 62
     7
100
AcDbMText
 10
4443.809414577991
 20
2185.0
 30
0.0
 40
50.0
 41
0.0
 71
     5
 72
     1
  1
\A2;70
  7
ADD
 11
0.0000000000000001
 21
1.0
 31
0.0
1001
ACAD
1000
MTEXTBEGIN
1070
    73
1070
     1
1070
    44
1040
1.0
1070
    74
1070
     0
1000
MTEXTEND
  0
POINT
  5
9C9
330
9C0
100
AcDbEntity
  8
DEFPOINTS
 62
     0
100
AcDbPoint
 10
4387.245529775305
 20
2150.0
 30
0.0
  0
POINT
  5
9CA
330
9C0
100
AcDbEntity
  8
DEFPOINTS
 62
     0
100
AcDbPoint
 10
4387.245529775305
 20
2220.0
 30
0.0
  0
POINT
  5
9CB
330
9C0
100
AcDbEntity
  8
DEFPOINTS
 62
     0
100
AcDbPoint
 10
4481.309414577991
 20
2220.0
 30
0.0
  0
ENDBLK
  5
9CD
330
9C0
100
AcDbEntity
  8
0
100
AcDbBlockEnd
  0
BLOCK
  5
9D9
330
9CF
100
AcDbEntity
  8
0
100
AcDbBlockBegin
  2
*D13
 70
     1
 10
0.0
 20
0.0
 30
0.0
  3
*D13
  1

  0
LINE
  5
A83
330
9CF
100
AcDbEntity
  8
SUNPO
 62
   144
100
AcDbLine
 10
1340.0
 20
1880.0
 30
0.0
 11
1340.0
 21
1740.0
 31
0.0
  0
LINE
  5
A84
330
9CF
100
AcDbEntity
  8
SUNPO
 62
   144
100
AcDbLine
 10
2040.0
 20
1880.0
 30
0.0
 11
2040.0
 21
1740.0
 31
0.0
  0
LINE
  5
A85
330
9CF
100
AcDbEntity
  8
SUNPO
 62
   144
100
AcDbLine
 10
1354.0
 20
1750.0
 30
0.0
 11
2026.0
 21
1750.0
 31
0.0
  0
SOLID
  5
A86
330
9CF
100
AcDbEntity
  8
SUNPO
 62
   144
100
AcDbTrace
 10
1354.0
 20
1752.333333333333
 30
0.0
 11
1354.0
 21
1747.666666666666
 31
0.0
 12
1340.0
 22
1750.0
 32
0.0
 13
1340.0
 23
1750.0
 33
0.0
  0
SOLID
  5
A87
330
9CF
100
AcDbEntity
  8
SUNPO
 62
   144
100
AcDbTrace
 10
2026.0
 20
1752.333333333333
 30
0.0
 11
2026.0
 21
1747.666666666666
 31
0.0
 12
2040.0
 22
1750.0
 32
0.0
 13
2040.0
 23
1750.0
 33
0.0
  0
MTEXT
  5
A88
330
9CF
100
AcDbEntity
  8
SUNPO
 62
     7
100
AcDbMText
 10
1690.0
 20
1787.5
 30
0.0
 40
50.0
 41
0.0
 71
     5
 72
     1
  1
\A2;700
  7
ADD
1001
ACAD
1000
MTEXTBEGIN
1070
    73
1070
     1
1070
    44
1040
1.0
1070
    74
1070
     0
1000
MTEXTEND
  0
POINT
  5
A89
330
9CF
100
AcDbEntity
  8
DEFPOINTS
 62
     0
100
AcDbPoint
 10
1340.0
 20
1900.0
 30
0.0
  0
POINT
  5
A8A
330
9CF
100
AcDbEntity
  8
DEFPOINTS
 62
     0
100
AcDbPoint
 10
2040.0
 20
1900.0
 30
0.0
  0
POINT
  5
A8B
330
9CF
100
AcDbEntity
  8
DEFPOINTS
 62
     0
100
AcDbPoint
 10
2040.0
 20
1750.0
 30
0.0
  0
ENDBLK
  5
9DA
330
9CF
100
AcDbEntity
  8
0
100
AcDbBlockEnd
  0
BLOCK
  5
9F7
330
9ED
100
AcDbEntity
  8
0
100
AcDbBlockBegin
  2
*D14
 70
     1
 10
0.0
 20
0.0
 30
0.0
  3
*D14
  1

  0
LINE
  5
9EE
330
9ED
100
AcDbEntity
  8
SUNPO
 62
   144
100
AcDbLine
 10
1320.0
 20
1900.0
 30
0.0
 11
895.8999865191216
 21
1900.0
 31
0.0
  0
LINE
  5
9EF
330
9ED
100
AcDbEntity
  8
SUNPO
 62
   144
100
AcDbLine
 10
1320.0
 20
2220.0
 30
0.0
 11
895.8999865191216
 21
2220.0
 31
0.0
  0
LINE
  5
9F0
330
9ED
100
AcDbEntity
  8
SUNPO
 62
   144
100
AcDbLine
 10
905.8999865191218
 20
1914.0
 30
0.0
 11
905.8999865191218
 21
2206.0
 31
0.0
  0
SOLID
  5
9F1
330
9ED
100
AcDbEntity
  8
SUNPO
 62
   144
100
AcDbTrace
 10
903.5666531857883
 20
1914.0
 30
0.0
 11
908.2333198524551
 21
1914.0
 31
0.0
 12
905.8999865191218
 22
1900.0
 32
0.0
 13
905.8999865191218
 23
1900.0
 33
0.0
  0
SOLID
  5
9F2
330
9ED
100
AcDbEntity
  8
SUNPO
 62
   144
100
AcDbTrace
 10
903.5666531857883
 20
2206.0
 30
0.0
 11
908.2333198524551
 21
2206.0
 31
0.0
 12
905.8999865191218
 22
2220.0
 32
0.0
 13
905.8999865191218
 23
2220.0
 33
0.0
  0
MTEXT
  5
9F3
330
9ED
100
AcDbEntity
  8
SUNPO
 62
     7
100
AcDbMText
 10
868.3999865191214
 20
2060.0
 30
0.0
 40
50.0
 41
0.0
 71
     5
 72
     1
  1
\A2;320
  7
ADD
 11
0.0000000000000001
 21
1.0
 31
0.0
1001
ACAD
1000
MTEXTBEGIN
1070
    73
1070
     1
1070
    44
1040
1.0
1070
    74
1070
     0
1000
MTEXTEND
  0
POINT
  5
9F4
330
9ED
100
AcDbEntity
  8
DEFPOINTS
 62
     0
100
AcDbPoint
 10
1340.0
 20
1900.0
 30
0.0
  0
POINT
  5
9F5
330
9ED
100
AcDbEntity
  8
DEFPOINTS
 62
     0
100
AcDbPoint
 10
1340.0
 20
2220.0
 30
0.0
  0
POINT
  5
9F6
330
9ED
100
AcDbEntity
  8
DEFPOINTS
 62
     0
100
AcDbPoint
 10
905.8999865191218
 20
2220.0
 30
0.0
  0
ENDBLK
  5
9F8
330
9ED
100
AcDbEntity
  8
0
100
AcDbBlockEnd
  0
BLOCK
  5
A06
330
9FA
100
AcDbEntity
  8
0
100
AcDbBlockBegin
  2
*D15
 70
     1
 10
0.0
 20
0.0
 30
0.0
  3
*D15
  1

  0
LINE
  5
9FB
330
9FA
100
AcDbEntity
  8
SUNPO
 62
   144
100
AcDbLine
 10
1320.0
 20
1900.0
 30
0.0
 11
1007.414157403252
 21
1900.0
 31
0.0
  0
LINE
  5
9FC
330
9FA
100
AcDbEntity
  8
SUNPO
 62
   144
100
AcDbLine
 10
1320.0
 20
2020.0
 30
0.0
 11
1007.414157403252
 21
2020.0
 31
0.0
  0
LINE
  5
9FD
330
9FA
100
AcDbEntity
  8
SUNPO
 62
   144
100
AcDbLine
 10
1017.414157403252
 20
1886.0
 30
0.0
 11
1017.414157403252
 21
1872.0
 31
0.0
  0
LINE
  5
9FE
330
9FA
100
AcDbEntity
  8
SUNPO
 62
   144
100
AcDbLine
 10
1017.414157403252
 20
2034.0
 30
0.0
 11
1017.414157403252
 21
2047.999999999999
 31
0.0
  0
LINE
  5
9FF
330
9FA
100
AcDbEntity
  8
SUNPO
 62
   144
100
AcDbLine
 10
1017.414157403252
 20
1900.0
 30
0.0
 11
1017.414157403252
 21
2020.0
 31
0.0
  0
SOLID
  5
A00
330
9FA
100
AcDbEntity
  8
SUNPO
 62
   144
100
AcDbTrace
 10
1015.080824069919
 20
1886.0
 30
0.0
 11
1019.747490736586
 21
1886.0
 31
0.0
 12
1017.414157403252
 22
1900.0
 32
0.0
 13
1017.414157403252
 23
1900.0
 33
0.0
  0
SOLID
  5
A01
330
9FA
100
AcDbEntity
  8
SUNPO
 62
   144
100
AcDbTrace
 10
1015.080824069919
 20
2034.0
 30
0.0
 11
1019.747490736586
 21
2034.0
 31
0.0
 12
1017.414157403252
 22
2020.0
 32
0.0
 13
1017.414157403252
 23
2020.0
 33
0.0
  0
MTEXT
  5
A02
330
9FA
100
AcDbEntity
  8
SUNPO
 62
     7
100
AcDbMText
 10
979.9141574032525
 20
1960.0
 30
0.0
 40
50.0
 41
0.0
 71
     5
 72
     1
  1
\A2;120
  7
ADD
 11
0.0000000000000001
 21
1.0
 31
0.0
1001
ACAD
1000
MTEXTBEGIN
1070
    73
1070
     1
1070
    44
1040
1.0
1070
    74
1070
     0
1000
MTEXTEND
  0
POINT
  5
A03
330
9FA
100
AcDbEntity
  8
DEFPOINTS
 62
     0
100
AcDbPoint
 10
1340.0
 20
1900.0
 30
0.0
  0
POINT
  5
A04
330
9FA
100
AcDbEntity
  8
DEFPOINTS
 62
     0
100
AcDbPoint
 10
1340.0
 20
2020.0
 30
0.0
  0
POINT
  5
A05
330
9FA
100
AcDbEntity
  8
DEFPOINTS
 62
     0
100
AcDbPoint
 10
1017.414157403252
 20
2020.0
 30
0.0
  0
ENDBLK
  5
A07
330
9FA
100
AcDbEntity
  8
0
100
AcDbBlockEnd
  0
BLOCK
  5
A20
330
A16
100
AcDbEntity
  8
0
100
AcDbBlockBegin
  2
*D16
 70
     1
 10
0.0
 20
0.0
 30
0.0
  3
*D16
  1

  0
LINE
  5
A17
330
A16
100
AcDbEntity
  8
SUNPO
 62
   144
100
AcDbLine
 10
1320.0
 20
2020.0
 30
0.0
 11
1007.348536977859
 21
2020.0
 31
0.0
  0
LINE
  5
A18
330
A16
100
AcDbEntity
  8
SUNPO
 62
   144
100
AcDbLine
 10
1320.0
 20
2220.0
 30
0.0
 11
1007.348536977859
 21
2220.0
 31
0.0
  0
LINE
  5
A19
330
A16
100
AcDbEntity
  8
SUNPO
 62
   144
100
AcDbLine
 10
1017.348536977859
 20
2034.0
 30
0.0
 11
1017.348536977859
 21
2206.0
 31
0.0
  0
SOLID
  5
A1A
330
A16
100
AcDbEntity
  8
SUNPO
 62
   144
100
AcDbTrace
 10
1015.015203644525
 20
2034.0
 30
0.0
 11
1019.681870311192
 21
2034.0
 31
0.0
 12
1017.348536977859
 22
2020.0
 32
0.0
 13
1017.348536977859
 23
2020.0
 33
0.0
  0
SOLID
  5
A1B
330
A16
100
AcDbEntity
  8
SUNPO
 62
   144
100
AcDbTrace
 10
1015.015203644525
 20
2206.0
 30
0.0
 11
1019.681870311192
 21
2206.0
 31
0.0
 12
1017.348536977859
 22
2220.0
 32
0.0
 13
1017.348536977859
 23
2220.0
 33
0.0
  0
MTEXT
  5
A1C
330
A16
100
AcDbEntity
  8
SUNPO
 62
     7
100
AcDbMText
 10
979.8485369778587
 20
2120.0
 30
0.0
 40
50.0
 41
0.0
 71
     5
 72
     1
  1
\A2;200
  7
ADD
 11
0.0000000000000001
 21
1.0
 31
0.0
1001
ACAD
1000
MTEXTBEGIN
1070
    73
1070
     1
1070
    44
1040
1.0
1070
    74
1070
     0
1000
MTEXTEND
  0
POINT
  5
A1D
330
A16
100
AcDbEntity
  8
DEFPOINTS
 62
     0
100
AcDbPoint
 10
1340.0
 20
2020.0
 30
0.0
  0
POINT
  5
A1E
330
A16
100
AcDbEntity
  8
DEFPOINTS
 62
     0
100
AcDbPoint
 10
1340.0
 20
2220.0
 30
0.0
  0
POINT
  5
A1F
330
A16
100
AcDbEntity
  8
DEFPOINTS
 62
     0
100
AcDbPoint
 10
1017.348536977859
 20
2220.0
 30
0.0
  0
ENDBLK
  5
A21
330
A16
100
AcDbEntity
  8
0
100
AcDbBlockEnd
  0
BLOCK
  5
A2F
330
A23
100
AcDbEntity
  8
0
100
AcDbBlockBegin
  2
*D17
 70
     1
 10
0.0
 20
0.0
 30
0.0
  3
*D17
  1

  0
LINE
  5
A24
330
A23
100
AcDbEntity
  8
SUNPO
 62
   144
100
AcDbLine
 10
1320.0
 20
2020.0
 30
0.0
 11
1173.509127920538
 21
2020.0
 31
0.0
  0
LINE
  5
A25
330
A23
100
AcDbEntity
  8
SUNPO
 62
   144
100
AcDbLine
 10
1320.0
 20
2050.0
 30
0.0
 11
1173.509127920538
 21
2050.0
 31
0.0
  0
LINE
  5
A26
330
A23
100
AcDbEntity
  8
SUNPO
 62
   144
100
AcDbLine
 10
1183.509127920538
 20
2006.0
 30
0.0
 11
1183.509127920538
 21
1992.0
 31
0.0
  0
LINE
  5
A27
330
A23
100
AcDbEntity
  8
SUNPO
 62
   144
100
AcDbLine
 10
1183.509127920538
 20
2064.0
 30
0.0
 11
1183.509127920538
 21
2078.0
 31
0.0
  0
LINE
  5
A28
330
A23
100
AcDbEntity
  8
SUNPO
 62
   144
100
AcDbLine
 10
1183.509127920538
 20
2020.0
 30
0.0
 11
1183.509127920538
 21
2050.0
 31
0.0
  0
SOLID
  5
A29
330
A23
100
AcDbEntity
  8
SUNPO
 62
   144
100
AcDbTrace
 10
1181.175794587205
 20
2006.0
 30
0.0
 11
1185.842461253872
 21
2006.0
 31
0.0
 12
1183.509127920538
 22
2020.0
 32
0.0
 13
1183.509127920538
 23
2020.0
 33
0.0
  0
SOLID
  5
A2A
330
A23
100
AcDbEntity
  8
SUNPO
 62
   144
100
AcDbTrace
 10
1181.175794587205
 20
2064.0
 30
0.0
 11
1185.842461253872
 21
2064.0
 31
0.0
 12
1183.509127920538
 22
2050.0
 32
0.0
 13
1183.509127920538
 23
2050.0
 33
0.0
  0
MTEXT
  5
A2B
330
A23
100
AcDbEntity
  8
SUNPO
 62
     7
100
AcDbMText
 10
1146.009127920538
 20
2035.0
 30
0.0
 40
50.0
 41
0.0
 71
     5
 72
     1
  1
\A2;30
  7
ADD
 11
0.0000000000000001
 21
1.0
 31
0.0
1001
ACAD
1000
MTEXTBEGIN
1070
    73
1070
     1
1070
    44
1040
1.0
1070
    74
1070
     0
1000
MTEXTEND
  0
POINT
  5
A2C
330
A23
100
AcDbEntity
  8
DEFPOINTS
 62
     0
100
AcDbPoint
 10
1340.0
 20
2020.0
 30
0.0
  0
POINT
  5
A2D
330
A23
100
AcDbEntity
  8
DEFPOINTS
 62
     0
100
AcDbPoint
 10
1340.0
 20
2050.0
 30
0.0
  0
POINT
  5
A2E
330
A23
100
AcDbEntity
  8
DEFPOINTS
 62
     0
100
AcDbPoint
 10
1183.509127920538
 20
2050.0
 30
0.0
  0
ENDBLK
  5
A30
330
A23
100
AcDbEntity
  8
0
100
AcDbBlockEnd
  0
BLOCK
  5
A3E
330
A32
100
AcDbEntity
  8
0
100
AcDbBlockBegin
  2
*D18
 70
     1
 10
0.0
 20
0.0
 30
0.0
  3
*D18
  1

  0
LINE
  5
A33
330
A32
100
AcDbEntity
  8
SUNPO
 62
   144
100
AcDbLine
 10
1320.889830508474
 20
2050.0
 30
0.0
 11
1091.065149910591
 21
2050.0
 31
0.0
  0
LINE
  5
A34
330
A32
100
AcDbEntity
  8
SUNPO
 62
   144
100
AcDbLine
 10
1320.0
 20
2150.0
 30
0.0
 11
1091.065149910591
 21
2150.0
 31
0.0
  0
LINE
  5
A35
330
A32
100
AcDbEntity
  8
SUNPO
 62
   144
100
AcDbLine
 10
1101.065149910591
 20
2036.0
 30
0.0
 11
1101.065149910591
 21
2022.0
 31
0.0
  0
LINE
  5
A36
330
A32
100
AcDbEntity
  8
SUNPO
 62
   144
100
AcDbLine
 10
1101.065149910591
 20
2164.0
 30
0.0
 11
1101.065149910591
 21
2178.0
 31
0.0
  0
LINE
  5
A37
330
A32
100
AcDbEntity
  8
SUNPO
 62
   144
100
AcDbLine
 10
1101.065149910591
 20
2050.0
 30
0.0
 11
1101.065149910591
 21
2150.0
 31
0.0
  0
SOLID
  5
A38
330
A32
100
AcDbEntity
  8
SUNPO
 62
   144
100
AcDbTrace
 10
1098.731816577258
 20
2036.0
 30
0.0
 11
1103.398483243924
 21
2036.0
 31
0.0
 12
1101.065149910591
 22
2050.0
 32
0.0
 13
1101.065149910591
 23
2050.0
 33
0.0
  0
SOLID
  5
A39
330
A32
100
AcDbEntity
  8
SUNPO
 62
   144
100
AcDbTrace
 10
1098.731816577258
 20
2164.0
 30
0.0
 11
1103.398483243924
 21
2164.0
 31
0.0
 12
1101.065149910591
 22
2150.0
 32
0.0
 13
1101.065149910591
 23
2150.0
 33
0.0
  0
MTEXT
  5
A3A
330
A32
100
AcDbEntity
  8
SUNPO
 62
     7
100
AcDbMText
 10
1063.565149910591
 20
2100.0
 30
0.0
 40
50.0
 41
0.0
 71
     5
 72
     1
  1
\A2;100
  7
ADD
 11
0.0000000000000001
 21
1.0
 31
0.0
1001
ACAD
1000
MTEXTBEGIN
1070
    73
1070
     1
1070
    44
1040
1.0
1070
    74
1070
     0
1000
MTEXTEND
  0
POINT
  5
A3B
330
A32
100
AcDbEntity
  8
DEFPOINTS
 62
     0
100
AcDbPoint
 10
1340.889830508474
 20
2050.0
 30
0.0
  0
POINT
  5
A3C
330
A32
100
AcDbEntity
  8
DEFPOINTS
 62
     0
100
AcDbPoint
 10
1340.0
 20
2150.0
 30
0.0
  0
POINT
  5
A3D
330
A32
100
AcDbEntity
  8
DEFPOINTS
 62
     0
100
AcDbPoint
 10
1101.065149910591
 20
2150.0
 30
0.0
  0
ENDBLK
  5
A3F
330
A32
100
AcDbEntity
  8
0
100
AcDbBlockEnd
  0
BLOCK
  5
A4D
330
A41
100
AcDbEntity
  8
0
100
AcDbBlockBegin
  2
*D19
 70
     1
 10
0.0
 20
0.0
 30
0.0
  3
*D19
  1

  0
LINE
  5
A42
330
A41
100
AcDbEntity
  8
SUNPO
 62
   144
100
AcDbLine
 10
1333.601694915254
 20
2150.0
 30
0.0
 11
1172.179393344165
 21
2150.0
 31
0.0
  0
LINE
  5
A43
330
A41
100
AcDbEntity
  8
SUNPO
 62
   144
100
AcDbLine
 10
1333.601694915254
 20
2220.0
 30
0.0
 11
1172.179393344165
 21
2220.0
 31
0.0
  0
LINE
  5
A44
330
A41
100
AcDbEntity
  8
SUNPO
 62
   144
100
AcDbLine
 10
1182.179393344165
 20
2136.0
 30
0.0
 11
1182.179393344165
 21
2122.0
 31
0.0
  0
LINE
  5
A45
330
A41
100
AcDbEntity
  8
SUNPO
 62
   144
100
AcDbLine
 10
1182.179393344165
 20
2234.0
 30
0.0
 11
1182.179393344165
 21
2248.0
 31
0.0
  0
LINE
  5
A46
330
A41
100
AcDbEntity
  8
SUNPO
 62
   144
100
AcDbLine
 10
1182.179393344165
 20
2150.0
 30
0.0
 11
1182.179393344165
 21
2220.0
 31
0.0
  0
SOLID
  5
A47
330
A41
100
AcDbEntity
  8
SUNPO
 62
   144
100
AcDbTrace
 10
1179.846060010832
 20
2136.0
 30
0.0
 11
1184.512726677499
 21
2136.0
 31
0.0
 12
1182.179393344165
 22
2150.0
 32
0.0
 13
1182.179393344165
 23
2150.0
 33
0.0
  0
SOLID
  5
A48
330
A41
100
AcDbEntity
  8
SUNPO
 62
   144
100
AcDbTrace
 10
1179.846060010832
 20
2234.0
 30
0.0
 11
1184.512726677499
 21
2234.0
 31
0.0
 12
1182.179393344165
 22
2220.0
 32
0.0
 13
1182.179393344165
 23
2220.0
 33
0.0
  0
MTEXT
  5
A49
330
A41
100
AcDbEntity
  8
SUNPO
 62
     7
100
AcDbMText
 10
1144.679393344165
 20
2185.0
 30
0.0
 40
50.0
 41
0.0
 71
     5
 72
     1
  1
\A2;70
  7
ADD
 11
0.0000000000000001
 21
1.0
 31
0.0
1001
ACAD
1000
MTEXTBEGIN
1070
    73
1070
     1
1070
    44
1040
1.0
1070
    74
1070
     0
1000
MTEXTEND
  0
POINT
  5
A4A
330
A41
100
AcDbEntity
  8
DEFPOINTS
 62
     0
100
AcDbPoint
 10
1353.601694915254
 20
2150.0
 30
0.0
  0
POINT
  5
A4B
330
A41
100
AcDbEntity
  8
DEFPOINTS
 62
     0
100
AcDbPoint
 10
1353.601694915254
 20
2220.0
 30
0.0
  0
POINT
  5
A4C
330
A41
100
AcDbEntity
  8
DEFPOINTS
 62
     0
100
AcDbPoint
 10
1182.179393344165
 20
2220.0
 30
0.0
  0
ENDBLK
  5
A4E
330
A41
100
AcDbEntity
  8
0
100
AcDbBlockEnd
  0
BLOCK
  5
AAD
330
AA3
100
AcDbEntity
  8
0
100
AcDbBlockBegin
  2
*D20
 70
     1
 10
0.0
 20
0.0
 30
0.0
  3
*D20
  1

  0
LINE
  5
AA4
330
AA3
100
AcDbEntity
  8
SUNPO
 62
   144
100
AcDbLine
 10
2060.0
 20
1900.0
 30
0.0
 11
2238.522443883784
 21
1900.0
 31
0.0
  0
LINE
  5
AA5
330
AA3
100
AcDbEntity
  8
SUNPO
 62
   144
100
AcDbLine
 10
2060.0
 20
2050.0
 30
0.0
 11
2238.522443883784
 21
2050.0
 31
0.0
  0
LINE
  5
AA6
330
AA3
100
AcDbEntity
  8
SUNPO
 62
   144
100
AcDbLine
 10
2228.522443883785
 20
1914.0
 30
0.0
 11
2228.522443883785
 21
2036.0
 31
0.0
  0
SOLID
  5
AA7
330
AA3
100
AcDbEntity
  8
SUNPO
 62
   144
100
AcDbTrace
 10
2226.189110550451
 20
1914.0
 30
0.0
 11
2230.855777217118
 21
1914.0
 31
0.0
 12
2228.522443883785
 22
1900.0
 32
0.0
 13
2228.522443883785
 23
1900.0
 33
0.0
  0
SOLID
  5
AA8
330
AA3
100
AcDbEntity
  8
SUNPO
 62
   144
100
AcDbTrace
 10
2226.189110550451
 20
2036.0
 30
0.0
 11
2230.855777217118
 21
2036.0
 31
0.0
 12
2228.522443883785
 22
2050.0
 32
0.0
 13
2228.522443883785
 23
2050.0
 33
0.0
  0
MTEXT
  5
AA9
330
AA3
100
AcDbEntity
  8
SUNPO
 62
     7
100
AcDbMText
 10
2191.022443883784
 20
1975.0
 30
0.0
 40
50.0
 41
0.0
 71
     5
 72
     1
  1
\A2;150
  7
ADD
 11
0.0000000000000001
 21
1.0
 31
0.0
1001
ACAD
1000
MTEXTBEGIN
1070
    73
1070
     1
1070
    44
1040
1.0
1070
    74
1070
     0
1000
MTEXTEND
  0
POINT
  5
AAA
330
AA3
100
AcDbEntity
  8
DEFPOINTS
 62
     0
100
AcDbPoint
 10
2040.0
 20
1900.0
 30
0.0
  0
POINT
  5
AAB
330
AA3
100
AcDbEntity
  8
DEFPOINTS
 62
     0
100
AcDbPoint
 10
2040.0
 20
2050.0
 30
0.0
  0
POINT
  5
AAC
330
AA3
100
AcDbEntity
  8
DEFPOINTS
 62
     0
100
AcDbPoint
 10
2228.522443883785
 20
2050.0
 30
0.0
  0
ENDBLK
  5
AAE
330
AA3
100
AcDbEntity
  8
0
100
AcDbBlockEnd
  0
BLOCK
  5
ABC
330
AB2
100
AcDbEntity
  8
0
100
AcDbBlockBegin
  2
*D21
 70
     1
 10
0.0
 20
0.0
 30
0.0
  3
*D21
  1

  0
LINE
  5
AB3
330
AB2
100
AcDbEntity
  8
SUNPO
 62
   144
100
AcDbLine
 10
1340.0
 20
1991.5
 30
0.0
 11
1340.0
 21
2766.144289155476
 31
0.0
  0
LINE
  5
AB4
330
AB2
100
AcDbEntity
  8
SUNPO
 62
   144
100
AcDbLine
 10
2040.0
 20
1991.5
 30
0.0
 11
2040.0
 21
2766.144289155476
 31
0.0
  0
LINE
  5
AB5
330
AB2
100
AcDbEntity
  8
SUNPO
 62
   144
100
AcDbLine
 10
1354.0
 20
2756.144289155476
 30
0.0
 11
2026.0
 21
2756.144289155476
 31
0.0
  0
SOLID
  5
AB6
330
AB2
100
AcDbEntity
  8
SUNPO
 62
   144
100
AcDbTrace
 10
1354.0
 20
2758.477622488809
 30
0.0
 11
1354.0
 21
2753.810955822142
 31
0.0
 12
1340.0
 22
2756.144289155476
 32
0.0
 13
1340.0
 23
2756.144289155476
 33
0.0
  0
SOLID
  5
AB7
330
AB2
100
AcDbEntity
  8
SUNPO
 62
   144
100
AcDbTrace
 10
2026.0
 20
2758.477622488809
 30
0.0
 11
2026.0
 21
2753.810955822142
 31
0.0
 12
2040.0
 22
2756.144289155476
 32
0.0
 13
2040.0
 23
2756.144289155476
 33
0.0
  0
MTEXT
  5
AB8
330
AB2
100
AcDbEntity
  8
SUNPO
 62
     7
100
AcDbMText
 10
1690.0
 20
2793.644289155476
 30
0.0
 40
50.0
 41
0.0
 71
     5
 72
     1
  1
\A2;700
  7
ADD
1001
ACAD
1000
MTEXTBEGIN
1070
    73
1070
     1
1070
    44
1040
1.0
1070
    74
1070
     0
1000
MTEXTEND
  0
POINT
  5
AB9
330
AB2
100
AcDbEntity
  8
DEFPOINTS
 62
     0
100
AcDbPoint
 10
1340.0
 20
1971.499999999999
 30
0.0
  0
POINT
  5
ABA
330
AB2
100
AcDbEntity
  8
DEFPOINTS
 62
     0
100
AcDbPoint
 10
2040.0
 20
1971.499999999999
 30
0.0
  0
POINT
  5
ABB
330
AB2
100
AcDbEntity
  8
DEFPOINTS
 62
     0
100
AcDbPoint
 10
2040.0
 20
2756.144289155476
 30
0.0
  0
ENDBLK
  5
ABD
330
AB2
100
AcDbEntity
  8
0
100
AcDbBlockEnd
  0
BLOCK
  5
AD8
330
ACE
100
AcDbEntity
  8
0
100
AcDbBlockBegin
  2
*D22
 70
     1
 10
0.0
 20
0.0
 30
0.0
  3
*D22
  1

  0
LINE
  5
ACF
330
ACE
100
AcDbEntity
  8
SUNPO
 62
   144
100
AcDbLine
 10
1340.0
 20
2247.778697287887
 30
0.0
 11
1340.0
 21
2611.999962330529
 31
0.0
  0
LINE
  5
AD0
330
ACE
100
AcDbEntity
  8
SUNPO
 62
   144
100
AcDbLine
 10
1540.0
 20
2247.778697287887
 30
0.0
 11
1540.0
 21
2611.999962330529
 31
0.0
  0
LINE
  5
AD1
330
ACE
100
AcDbEntity
  8
SUNPO
 62
   144
100
AcDbLine
 10
1354.0
 20
2601.999962330528
 30
0.0
 11
1526.0
 21
2601.999962330528
 31
0.0
  0
SOLID
  5
AD2
330
ACE
100
AcDbEntity
  8
SUNPO
 62
   144
100
AcDbTrace
 10
1354.0
 20
2604.333295663861
 30
0.0
 11
1354.0
 21
2599.666628997195
 31
0.0
 12
1340.0
 22
2601.999962330528
 32
0.0
 13
1340.0
 23
2601.999962330528
 33
0.0
  0
SOLID
  5
AD3
330
ACE
100
AcDbEntity
  8
SUNPO
 62
   144
100
AcDbTrace
 10
1526.0
 20
2604.333295663861
 30
0.0
 11
1526.0
 21
2599.666628997195
 31
0.0
 12
1540.0
 22
2601.999962330528
 32
0.0
 13
1540.0
 23
2601.999962330528
 33
0.0
  0
MTEXT
  5
AD4
330
ACE
100
AcDbEntity
  8
SUNPO
 62
     7
100
AcDbMText
 10
1440.0
 20
2639.499962330528
 30
0.0
 40
50.0
 41
0.0
 71
     5
 72
     1
  1
\A2;200
  7
ADD
1001
ACAD
1000
MTEXTBEGIN
1070
    73
1070
     1
1070
    44
1040
1.0
1070
    74
1070
     0
1000
MTEXTEND
  0
POINT
  5
AD5
330
ACE
100
AcDbEntity
  8
DEFPOINTS
 62
     0
100
AcDbPoint
 10
1340.0
 20
2227.778697287887
 30
0.0
  0
POINT
  5
AD6
330
ACE
100
AcDbEntity
  8
DEFPOINTS
 62
     0
100
AcDbPoint
 10
1540.0
 20
2227.778697287887
 30
0.0
  0
POINT
  5
AD7
330
ACE
100
AcDbEntity
  8
DEFPOINTS
 62
     0
100
AcDbPoint
 10
1540.0
 20
2601.999962330528
 30
0.0
  0
ENDBLK
  5
AD9
330
ACE
100
AcDbEntity
  8
0
100
AcDbBlockEnd
  0
BLOCK
  5
AE5
330
ADB
100
AcDbEntity
  8
0
100
AcDbBlockBegin
  2
*D23
 70
     1
 10
0.0
 20
0.0
 30
0.0
  3
*D23
  1

  0
LINE
  5
ADC
330
ADB
100
AcDbEntity
  8
SUNPO
 62
   144
100
AcDbLine
 10
1540.0
 20
2247.778697287887
 30
0.0
 11
1540.0
 21
2611.998228035862
 31
0.0
  0
LINE
  5
ADD
330
ADB
100
AcDbEntity
  8
SUNPO
 62
   144
100
AcDbLine
 10
2040.0
 20
2247.778697287887
 30
0.0
 11
2040.0
 21
2611.998228035862
 31
0.0
  0
LINE
  5
ADE
330
ADB
100
AcDbEntity
  8
SUNPO
 62
   144
100
AcDbLine
 10
1554.0
 20
2601.998228035862
 30
0.0
 11
2026.0
 21
2601.998228035862
 31
0.0
  0
SOLID
  5
ADF
330
ADB
100
AcDbEntity
  8
SUNPO
 62
   144
100
AcDbTrace
 10
1554.0
 20
2604.331561369195
 30
0.0
 11
1554.0
 21
2599.664894702528
 31
0.0
 12
1540.0
 22
2601.998228035862
 32
0.0
 13
1540.0
 23
2601.998228035862
 33
0.0
  0
SOLID
  5
AE0
330
ADB
100
AcDbEntity
  8
SUNPO
 62
   144
100
AcDbTrace
 10
2026.0
 20
2604.331561369195
 30
0.0
 11
2026.0
 21
2599.664894702528
 31
0.0
 12
2040.0
 22
2601.998228035862
 32
0.0
 13
2040.0
 23
2601.998228035862
 33
0.0
  0
MTEXT
  5
AE1
330
ADB
100
AcDbEntity
  8
SUNPO
 62
     7
100
AcDbMText
 10
1790.0
 20
2639.498228035861
 30
0.0
 40
50.0
 41
0.0
 71
     5
 72
     1
  1
\A2;500
  7
ADD
1001
ACAD
1000
MTEXTBEGIN
1070
    73
1070
     1
1070
    44
1040
1.0
1070
    74
1070
     0
1000
MTEXTEND
  0
POINT
  5
AE2
330
ADB
100
AcDbEntity
  8
DEFPOINTS
 62
     0
100
AcDbPoint
 10
1540.0
 20
2227.778697287887
 30
0.0
  0
POINT
  5
AE3
330
ADB
100
AcDbEntity
  8
DEFPOINTS
 62
     0
100
AcDbPoint
 10
2040.0
 20
2227.778697287887
 30
0.0
  0
POINT
  5
AE4
330
ADB
100
AcDbEntity
  8
DEFPOINTS
 62
     0
100
AcDbPoint
 10
2040.0
 20
2601.998228035862
 30
0.0
  0
ENDBLK
  5
AE6
330
ADB
100
AcDbEntity
  8
0
100
AcDbBlockEnd
  0
BLOCK
  5
AF4
330
AE8
100
AcDbEntity
  8
0
100
AcDbBlockBegin
  2
*D24
 70
     1
 10
0.0
 20
0.0
 30
0.0
  3
*D24
  1

  0
LINE
  5
AE9
330
AE8
100
AcDbEntity
  8
SUNPO
 62
   144
100
AcDbLine
 10
1340.0
 20
2240.0
 30
0.0
 11
1340.0
 21
2358.345906732367
 31
0.0
  0
LINE
  5
AEA
330
AE8
100
AcDbEntity
  8
SUNPO
 62
   144
100
AcDbLine
 10
1362.499999999999
 20
2240.0
 30
0.0
 11
1362.499999999999
 21
2358.345906732367
 31
0.0
  0
LINE
  5
AEB
330
AE8
100
AcDbEntity
  8
SUNPO
 62
   144
100
AcDbLine
 10
1326.0
 20
2348.345906732367
 30
0.0
 11
1312.0
 21
2348.345906732367
 31
0.0
  0
LINE
  5
AEC
330
AE8
100
AcDbEntity
  8
SUNPO
 62
   144
100
AcDbLine
 10
1376.5
 20
2348.345906732367
 30
0.0
 11
1390.499999999999
 21
2348.345906732367
 31
0.0
  0
LINE
  5
AED
330
AE8
100
AcDbEntity
  8
SUNPO
 62
   144
100
AcDbLine
 10
1340.0
 20
2348.345906732367
 30
0.0
 11
1362.499999999999
 21
2348.345906732367
 31
0.0
  0
SOLID
  5
AEE
330
AE8
100
AcDbEntity
  8
SUNPO
 62
   144
100
AcDbTrace
 10
1326.0
 20
2350.679240065701
 30
0.0
 11
1326.0
 21
2346.012573399034
 31
0.0
 12
1340.0
 22
2348.345906732367
 32
0.0
 13
1340.0
 23
2348.345906732367
 33
0.0
  0
SOLID
  5
AEF
330
AE8
100
AcDbEntity
  8
SUNPO
 62
   144
100
AcDbTrace
 10
1376.5
 20
2350.679240065701
 30
0.0
 11
1376.5
 21
2346.012573399034
 31
0.0
 12
1362.499999999999
 22
2348.345906732367
 32
0.0
 13
1362.499999999999
 23
2348.345906732367
 33
0.0
  0
MTEXT
  5
AF0
330
AE8
100
AcDbEntity
  8
SUNPO
 62
     7
100
AcDbMText
 10
1351.25
 20
2385.845906732367
 30
0.0
 40
50.0
 41
0.0
 71
     5
 72
     1
  1
\A2;22.5
  7
ADD
1001
ACAD
1000
MTEXTBEGIN
1070
    73
1070
     1
1070
    44
1040
1.0
1070
    74
1070
     0
1000
MTEXTEND
  0
POINT
  5
AF1
330
AE8
100
AcDbEntity
  8
DEFPOINTS
 62
     0
100
AcDbPoint
 10
1340.0
 20
2220.0
 30
0.0
  0
POINT
  5
AF2
330
AE8
100
AcDbEntity
  8
DEFPOINTS
 62
     0
100
AcDbPoint
 10
1362.499999999999
 20
2220.0
 30
0.0
  0
POINT
  5
AF3
330
AE8
100
AcDbEntity
  8
DEFPOINTS
 62
     0
100
AcDbPoint
 10
1362.499999999999
 20
2348.345906732367
 30
0.0
  0
ENDBLK
  5
AF5
330
AE8
100
AcDbEntity
  8
0
100
AcDbBlockEnd
  0
BLOCK
  5
B12
330
B06
100
AcDbEntity
  8
0
100
AcDbBlockBegin
  2
*D25
 70
     1
 10
0.0
 20
0.0
 30
0.0
  3
*D25
  1

  0
LINE
  5
B07
330
B06
100
AcDbEntity
  8
SUNPO
 62
   144
100
AcDbLine
 10
1540.0
 20
2247.778697287887
 30
0.0
 11
1540.0
 21
2357.071269129461
 31
0.0
  0
LINE
  5
B08
330
B06
100
AcDbEntity
  8
SUNPO
 62
   144
100
AcDbLine
 10
1517.5
 20
2247.778697287887
 30
0.0
 11
1517.5
 21
2357.071269129461
 31
0.0
  0
LINE
  5
B09
330
B06
100
AcDbEntity
  8
SUNPO
 62
   144
100
AcDbLine
 10
1554.0
 20
2347.071269129461
 30
0.0
 11
1568.0
 21
2347.071269129461
 31
0.0
  0
LINE
  5
B0A
330
B06
100
AcDbEntity
  8
SUNPO
 62
   144
100
AcDbLine
 10
1503.5
 20
2347.071269129461
 30
0.0
 11
1489.5
 21
2347.071269129461
 31
0.0
  0
LINE
  5
B0B
330
B06
100
AcDbEntity
  8
SUNPO
 62
   144
100
AcDbLine
 10
1540.0
 20
2347.071269129461
 30
0.0
 11
1517.5
 21
2347.071269129461
 31
0.0
  0
SOLID
  5
B0C
330
B06
100
AcDbEntity
  8
SUNPO
 62
   144
100
AcDbTrace
 10
1554.0
 20
2349.404602462794
 30
0.0
 11
1554.0
 21
2344.737935796127
 31
0.0
 12
1540.0
 22
2347.071269129461
 32
0.0
 13
1540.0
 23
2347.071269129461
 33
0.0
  0
SOLID
  5
B0D
330
B06
100
AcDbEntity
  8
SUNPO
 62
   144
100
AcDbTrace
 10
1503.5
 20
2349.404602462794
 30
0.0
 11
1503.5
 21
2344.737935796127
 31
0.0
 12
1517.5
 22
2347.071269129461
 32
0.0
 13
1517.5
 23
2347.071269129461
 33
0.0
  0
MTEXT
  5
B0E
330
B06
100
AcDbEntity
  8
SUNPO
 62
     7
100
AcDbMText
 10
1528.75
 20
2384.571269129461
 30
0.0
 40
50.0
 41
0.0
 71
     5
 72
     1
  1
\A2;22.5
  7
ADD
1001
ACAD
1000
MTEXTBEGIN
1070
    73
1070
     1
1070
    44
1040
1.0
1070
    74
1070
     0
1000
MTEXTEND
  0
POINT
  5
B0F
330
B06
100
AcDbEntity
  8
DEFPOINTS
 62
     0
100
AcDbPoint
 10
1540.0
 20
2227.778697287887
 30
0.0
  0
POINT
  5
B10
330
B06
100
AcDbEntity
  8
DEFPOINTS
 62
     0
100
AcDbPoint
 10
1517.5
 20
2227.778697287887
 30
0.0
  0
POINT
  5
B11
330
B06
100
AcDbEntity
  8
DEFPOINTS
 62
     0
100
AcDbPoint
 10
1517.5
 20
2347.071269129461
 30
0.0
  0
ENDBLK
  5
B13
330
B06
100
AcDbEntity
  8
0
100
AcDbBlockEnd
  0
BLOCK
  5
B1F
330
B15
100
AcDbEntity
  8
0
100
AcDbBlockBegin
  2
*D26
 70
     1
 10
0.0
 20
0.0
 30
0.0
  3
*D26
  1

  0
LINE
  5
B16
330
B15
100
AcDbEntity
  8
SUNPO
 62
   144
100
AcDbLine
 10
1362.499999999999
 20
2240.0
 30
0.0
 11
1362.499999999999
 21
2504.92890588641
 31
0.0
  0
LINE
  5
B17
330
B15
100
AcDbEntity
  8
SUNPO
 62
   144
100
AcDbLine
 10
1517.5
 20
2240.0
 30
0.0
 11
1517.5
 21
2504.92890588641
 31
0.0
  0
LINE
  5
B18
330
B15
100
AcDbEntity
  8
SUNPO
 62
   144
100
AcDbLine
 10
1376.5
 20
2494.928905886411
 30
0.0
 11
1503.5
 21
2494.928905886411
 31
0.0
  0
SOLID
  5
B19
330
B15
100
AcDbEntity
  8
SUNPO
 62
   144
100
AcDbTrace
 10
1376.5
 20
2497.262239219744
 30
0.0
 11
1376.5
 21
2492.595572553077
 31
0.0
 12
1362.499999999999
 22
2494.928905886411
 32
0.0
 13
1362.499999999999
 23
2494.928905886411
 33
0.0
  0
SOLID
  5
B1A
330
B15
100
AcDbEntity
  8
SUNPO
 62
   144
100
AcDbTrace
 10
1503.5
 20
2497.262239219744
 30
0.0
 11
1503.5
 21
2492.595572553077
 31
0.0
 12
1517.5
 22
2494.928905886411
 32
0.0
 13
1517.5
 23
2494.928905886411
 33
0.0
  0
MTEXT
  5
B1B
330
B15
100
AcDbEntity
  8
SUNPO
 62
     7
100
AcDbMText
 10
1440.0
 20
2532.42890588641
 30
0.0
 40
50.0
 41
0.0
 71
     5
 72
     1
  1
\A2;155
  7
ADD
1001
ACAD
1000
MTEXTBEGIN
1070
    73
1070
     1
1070
    44
1040
1.0
1070
    74
1070
     0
1000
MTEXTEND
  0
POINT
  5
B1C
330
B15
100
AcDbEntity
  8
DEFPOINTS
 62
     0
100
AcDbPoint
 10
1362.499999999999
 20
2220.0
 30
0.0
  0
POINT
  5
B1D
330
B15
100
AcDbEntity
  8
DEFPOINTS
 62
     0
100
AcDbPoint
 10
1517.5
 20
2220.0
 30
0.0
  0
POINT
  5
B1E
330
B15
100
AcDbEntity
  8
DEFPOINTS
 62
     0
100
AcDbPoint
 10
1517.5
 20
2494.928905886411
 30
0.0
  0
ENDBLK
  5
B20
330
B15
100
AcDbEntity
  8
0
100
AcDbBlockEnd
  0
BLOCK
  5
B29
330
B22
100
AcDbEntity
  8
0
100
AcDbBlockBegin
  2
*D27
 70
     1
 10
0.0
 20
0.0
 30
0.0
  3
*D27
  1

  0
LINE
  5
B23
330
B22
100
AcDbEntity
  8
SUNPO
 62
   144
100
AcDbLine
 10
1728.689947907444
 20
2344.164711859816
 30
0.0
 11
1557.83051338824
 21
2233.492311658185
 31
0.0
  0
MTEXT
  5
B24
330
B22
100
AcDbEntity
  8
SUNPO
 62
     7
100
AcDbMText
 10
1643.855947130601
 20
2333.893965510984
 30
0.0
 40
50.0
 41
0.0
 71
     5
 72
     1
  1
\A2;R30
  7
ADD
 11
0.8393095029013537
 21
0.5436538957273115
 31
0.0
1001
ACAD
1000
MTEXTBEGIN
1070
    73
1070
     1
1070
    44
1040
1.0
1070
    74
1070
     0
1000
MTEXTEND
  0
LINE
  5
B25
330
B22
100
AcDbEntity
  8
SUNPO
 62
   144
100
AcDbLine
 10
1490.685753156131
 20
2190.0
 30
0.0
 11
1515.865038243172
 21
2206.309616871819
 31
0.0
  0
SOLID
  5
B26
330
B22
100
AcDbEntity
  8
SUNPO
 62
   144
100
AcDbTrace
 10
1553.300064257179
 20
2240.486557515696
 30
0.0
 11
1562.360962519301
 21
2226.498065800673
 31
0.0
 12
1515.865038243172
 22
2206.309616871819
 32
0.0
 13
1515.865038243172
 23
2206.309616871819
 33
0.0
  0
POINT
  5
B27
330
B22
100
AcDbEntity
  8
DEFPOINTS
 62
     0
100
AcDbPoint
 10
1515.865038243172
 20
2206.309616871819
 30
0.0
  0
POINT
  5
B28
330
B22
100
AcDbEntity
  8
DEFPOINTS
 62
     0
100
AcDbPoint
 10
1490.685753156131
 20
2190.0
 30
0.0
  0
ENDBLK
  5
B2A
330
B22
100
AcDbEntity
  8
0
100
AcDbBlockEnd
  0
BLOCK
  5
B33
330
B2C
100
AcDbEntity
  8
0
100
AcDbBlockBegin
  2
*D28
 70
     1
 10
0.0
 20
0.0
 30
0.0
  3
*D28
  1

  0
LINE
  5
B2D
330
B2C
100
AcDbEntity
  8
SUNPO
 62
   144
100
AcDbLine
 10
1396.111431903235
 20
1820.756902951536
 30
0.0
 11
1516.358981585013
 21
1985.018442351788
 31
0.0
  0
MTEXT
  5
B2E
330
B2C
100
AcDbEntity
  8
SUNPO
 62
     7
100
AcDbMText
 10
1411.209259174385
 20
1904.866067315818
 30
0.0
 40
50.0
 41
0.0
 71
     5
 72
     1
  1
\A2;R20
  7
ADD
 11
0.5906897177350516
 21
0.8068987900363248
 31
0.0
1001
ACAD
1000
MTEXTBEGIN
1070
    73
1070
     1
1070
    44
1040
1.0
1070
    74
1070
     0
1000
MTEXTEND
  0
LINE
  5
B2F
330
B2C
100
AcDbEntity
  8
SUNPO
 62
   144
100
AcDbLine
 10
1557.707261826466
 20
2041.50135765433
 30
0.0
 11
1545.893467471765
 21
2025.363381853604
 31
0.0
  0
SOLID
  5
B30
330
B2C
100
AcDbEntity
  8
SUNPO
 62
   144
100
AcDbTrace
 10
1509.634825001377
 20
1989.940856666247
 30
0.0
 11
1523.083138168649
 21
1980.096028037329
 31
0.0
 12
1545.893467471765
 22
2025.363381853604
 32
0.0
 13
1545.893467471765
 23
2025.363381853604
 33
0.0
  0
POINT
  5
B31
330
B2C
100
AcDbEntity
  8
DEFPOINTS
 62
     0
100
AcDbPoint
 10
1545.893467471765
 20
2025.363381853604
 30
0.0
  0
POINT
  5
B32
330
B2C
100
AcDbEntity
  8
DEFPOINTS
 62
     0
100
AcDbPoint
 10
1557.707261826466
 20
2041.50135765433
 30
0.0
  0
ENDBLK
  5
B34
330
B2C
100
AcDbEntity
  8
0
100
AcDbBlockEnd
  0
BLOCK
  5
B42
330
B36
100
AcDbEntity
  8
0
100
AcDbBlockBegin
  2
*D29
 70
     1
 10
0.0
 20
0.0
 30
0.0
  3
*D29
  1

  0
LINE
  5
B37
330
B36
100
AcDbEntity
  8
SUNPO
 62
   144
100
AcDbLine
 10
1721.158324511125
 20
2022.141084343164
 30
0.0
 11
1892.679276343937
 21
2022.141084343164
 31
0.0
  0
LINE
  5
B38
330
B36
100
AcDbEntity
  8
SUNPO
 62
   144
100
AcDbLine
 10
1721.158324511125
 20
2122.141084343164
 30
0.0
 11
1892.679276343937
 21
2122.141084343164
 31
0.0
  0
LINE
  5
B39
330
B36
100
AcDbEntity
  8
SUNPO
 62
   144
100
AcDbLine
 10
1882.679276343937
 20
2008.141084343165
 30
0.0
 11
1882.679276343937
 21
1994.141084343164
 31
0.0
  0
LINE
  5
B3A
330
B36
100
AcDbEntity
  8
SUNPO
 62
   144
100
AcDbLine
 10
1882.679276343937
 20
2136.141084343165
 30
0.0
 11
1882.679276343937
 21
2150.141084343164
 31
0.0
  0
LINE
  5
B3B
330
B36
100
AcDbEntity
  8
SUNPO
 62
   144
100
AcDbLine
 10
1882.679276343937
 20
2022.141084343164
 30
0.0
 11
1882.679276343937
 21
2122.141084343164
 31
0.0
  0
SOLID
  5
B3C
330
B36
100
AcDbEntity
  8
SUNPO
 62
   144
100
AcDbTrace
 10
1880.345943010603
 20
2008.141084343165
 30
0.0
 11
1885.01260967727
 21
2008.141084343165
 31
0.0
 12
1882.679276343937
 22
2022.141084343164
 32
0.0
 13
1882.679276343937
 23
2022.141084343164
 33
0.0
  0
SOLID
  5
B3D
330
B36
100
AcDbEntity
  8
SUNPO
 62
   144
100
AcDbTrace
 10
1880.345943010603
 20
2136.141084343165
 30
0.0
 11
1885.01260967727
 21
2136.141084343165
 31
0.0
 12
1882.679276343937
 22
2122.141084343164
 32
0.0
 13
1882.679276343937
 23
2122.141084343164
 33
0.0
  0
MTEXT
  5
B3E
330
B36
100
AcDbEntity
  8
SUNPO
 62
     7
100
AcDbMText
 10
1845.179276343936
 20
2072.141084343165
 30
0.0
 40
50.0
 41
0.0
 71
     5
 72
     1
  1
\A2;100
  7
ADD
 11
0.0000000000000001
 21
1.0
 31
0.0
1001
ACAD
1000
MTEXTBEGIN
1070
    73
1070
     1
1070
    44
1040
1.0
1070
    74
1070
     0
1000
MTEXTEND
  0
POINT
  5
B3F
330
B36
100
AcDbEntity
  8
DEFPOINTS
 62
     0
100
AcDbPoint
 10
1701.158324511125
 20
2022.141084343164
 30
0.0
  0
POINT
  5
B40
330
B36
100
AcDbEntity
  8
DEFPOINTS
 62
     0
100
AcDbPoint
 10
1701.158324511125
 20
2122.141084343164
 30
0.0
  0
POINT
  5
B41
330
B36
100
AcDbEntity
  8
DEFPOINTS
 62
     0
100
AcDbPoint
 10
1882.679276343937
 20
2122.141084343164
 30
0.0
  0
ENDBLK
  5
B43
330
B36
100
AcDbEntity
  8
0
100
AcDbBlockEnd
  0
BLOCK
  5
B61
330
B55
100
AcDbEntity
  8
0
100
AcDbBlockBegin
  2
*D30
 70
     1
 10
0.0
 20
0.0
 30
0.0
  3
*D30
  1

  0
LINE
  5
B56
330
B55
100
AcDbEntity
  8
SUNPO
 62
   144
100
AcDbLine
 10
1746.024212836849
 20
1900.0
 30
0.0
 11
1961.474894721779
 21
1900.0
 31
0.0
  0
LINE
  5
B57
330
B55
100
AcDbEntity
  8
SUNPO
 62
   144
100
AcDbLine
 10
1746.024212836849
 20
2020.0
 30
0.0
 11
1961.474894721779
 21
2020.0
 31
0.0
  0
LINE
  5
B58
330
B55
100
AcDbEntity
  8
SUNPO
 62
   144
100
AcDbLine
 10
1951.474894721779
 20
1886.0
 30
0.0
 11
1951.474894721779
 21
1872.0
 31
0.0
  0
LINE
  5
B59
330
B55
100
AcDbEntity
  8
SUNPO
 62
   144
100
AcDbLine
 10
1951.474894721779
 20
2034.0
 30
0.0
 11
1951.474894721779
 21
2048.0
 31
0.0
  0
LINE
  5
B5A
330
B55
100
AcDbEntity
  8
SUNPO
 62
   144
100
AcDbLine
 10
1951.474894721779
 20
1900.0
 30
0.0
 11
1951.474894721779
 21
2020.0
 31
0.0
  0
SOLID
  5
B5B
330
B55
100
AcDbEntity
  8
SUNPO
 62
   144
100
AcDbTrace
 10
1949.141561388446
 20
1886.0
 30
0.0
 11
1953.808228055112
 21
1886.0
 31
0.0
 12
1951.474894721779
 22
1900.0
 32
0.0
 13
1951.474894721779
 23
1900.0
 33
0.0
  0
SOLID
  5
B5C
330
B55
100
AcDbEntity
  8
SUNPO
 62
   144
100
AcDbTrace
 10
1949.141561388446
 20
2034.0
 30
0.0
 11
1953.808228055112
 21
2034.0
 31
0.0
 12
1951.474894721779
 22
2020.0
 32
0.0
 13
1951.474894721779
 23
2020.0
 33
0.0
  0
MTEXT
  5
B5D
330
B55
100
AcDbEntity
  8
SUNPO
 62
     7
100
AcDbMText
 10
1913.974894721779
 20
1960.0
 30
0.0
 40
50.0
 41
0.0
 71
     5
 72
     1
  1
\A2;120
  7
ADD
 11
0.0000000000000001
 21
1.0
 31
0.0
1001
ACAD
1000
MTEXTBEGIN
1070
    73
1070
     1
1070
    44
1040
1.0
1070
    74
1070
     0
1000
MTEXTEND
  0
POINT
  5
B5E
330
B55
100
AcDbEntity
  8
DEFPOINTS
 62
     0
100
AcDbPoint
 10
1726.02421283685
 20
1900.0
 30
0.0
  0
POINT
  5
B5F
330
B55
100
AcDbEntity
  8
DEFPOINTS
 62
     0
100
AcDbPoint
 10
1726.02421283685
 20
2020.0
 30
0.0
  0
POINT
  5
B60
330
B55
100
AcDbEntity
  8
DEFPOINTS
 62
     0
100
AcDbPoint
 10
1951.474894721779
 20
2020.0
 30
0.0
  0
ENDBLK
  5
B62
330
B55
100
AcDbEntity
  8
0
100
AcDbBlockEnd
  0
ENDSEC
  0
SECTION
  2
ENTITIES
  0
LINE
  5
60A
330
1F
100
AcDbEntity
  8
HOJO
100
AcDbLine
 10
360.0
 20
260.0
 30
0.0
 11
5580.0
 21
260.0
 31
0.0
  0
LINE
  5
60B
330
1F
100
AcDbEntity
  8
HOJO
100
AcDbLine
 10
360.0
 20
560.0
 30
0.0
 11
5580.0
 21
560.0
 31
0.0
  0
LINE
  5
60C
330
1F
100
AcDbEntity
  8
HOJO
100
AcDbLine
 10
360.0
 20
260.0
 30
0.0
 11
360.0
 21
560.0
 31
0.0
  0
LINE
  5
60D
330
1F
100
AcDbEntity
  8
HOJO
100
AcDbLine
 10
2360.0
 20
260.0
 30
0.0
 11
2360.0
 21
560.0
 31
0.0
  0
LINE
  5
60F
330
1F
100
AcDbEntity
  8
HOJO
100
AcDbLine
 10
3160.0
 20
260.0
 30
0.0
 11
3160.0
 21
560.0
 31
0.0
  0
LINE
  5
610
330
1F
100
AcDbEntity
  8
HOJO
100
AcDbLine
 10
3660.0
 20
260.0
 30
0.0
 11
3660.0
 21
560.0
 31
0.0
  0
LINE
  5
629
330
1F
100
AcDbEntity
  8
3C1
100
AcDbLine
 10
3240.0
 20
1900.0
 30
0.0
 11
5240.0
 21
1900.0
 31
0.0
  0
LINE
  5
62A
330
1F
100
AcDbEntity
  8
3C1
100
AcDbLine
 10
5240.0
 20
1900.0
 30
0.0
 11
5240.0
 21
2220.0
 31
0.0
  0
LINE
  5
62B
330
1F
100
AcDbEntity
  8
3C1
100
AcDbLine
 10
5240.0
 20
2220.0
 30
0.0
 11
3240.0
 21
2220.0
 31
0.0
  0
LINE
  5
62C
330
1F
100
AcDbEntity
  8
3C1
100
AcDbLine
 10
3840.0
 20
2220.0
 30
0.0
 11
3840.0
 21
2220.0
 31
0.0
  0
LINE
  5
62E
330
1F
100
AcDbEntity
  8
3C1
100
AcDbLine
 10
3240.0
 20
2220.0
 30
0.0
 11
3240.0
 21
1900.0
 31
0.0
  0
LINE
  5
631
330
1F
100
AcDbEntity
  8
3C1
100
AcDbLine
 10
3240.0
 20
2020.0
 30
0.0
 11
5240.0
 21
2020.0
 31
0.0
  0
LINE
  5
8EC
330
1F
100
AcDbEntity
  8
3C1
100
AcDbLine
 10
1340.0
 20
1900.0
 30
0.0
 11
2040.0
 21
1900.0
 31
0.0
  0
LINE
  5
8EF
330
1F
100
AcDbEntity
  8
3C1
100
AcDbLine
 10
1540.0
 20
2040.0
 30
0.0
 11
1540.0
 21
2040.0
 31
0.0
  0
LINE
  5
8F2
330
1F
100
AcDbEntity
  8
3C1
100
AcDbLine
 10
1340.0
 20
1900.0
 30
0.0
 11
1340.0
 21
2043.0
 31
0.0
  0
LINE
  5
8F3
330
1F
100
AcDbEntity
  8
3C1
100
AcDbLine
 10
1388.927856562522
 20
2220.0
 30
0.0
 11
1490.685753156131
 21
2220.0
 31
0.0
  0
LINE
  5
8F7
330
1F
100
AcDbEntity
  8
3C1
100
AcDbLine
 10
1340.0
 20
2043.0
 30
0.0
 11
1359.167345234756
 21
2193.78311584675
 31
0.0
  0
LINE
  5
8FD
330
1F
100
AcDbEntity
  8
3C1
100
AcDbLine
 10
1520.497692640895
 20
2193.353843192036
 30
0.0
 11
1537.83263550329
 21
2039.265462192973
 31
0.0
  0
ARC
  5
8FE
330
1F
100
AcDbEntity
  8
3C1
100
AcDbCircle
 10
1388.927856562522
 20
2190.0
 30
0.0
 40
30.0
100
AcDbArc
 50
90.0
 51
172.7554931475587
  0
ARC
  5
8FF
330
1F
100
AcDbEntity
  8
3C1
100
AcDbCircle
 10
1490.685753156131
 20
2190.0
 30
0.0
 40
30.0
100
AcDbArc
 50
6.418786730238807
 51
90.0
  0
LINE
  5
919
330
1F
100
AcDbEntity
  8
3C1
100
AcDbLine
 10
3240.0
 20
2050.0
 30
0.0
 11
5240.0
 21
2050.0
 31
0.0
  0
LINE
  5
92A
330
1F
100
AcDbEntity
  8
3C1
100
AcDbLine
 10
4124.224873010506
 20
2150.0
 30
0.0
 11
4355.775126989494
 21
2150.0
 31
0.0
  0
LINE
  5
92D
330
1F
100
AcDbEntity
  8
3C1
100
AcDbLine
 10
4124.00497389355
 20
2120.0
 30
0.0
 11
4355.995026106448
 21
2120.0
 31
0.0
  0
LINE
  5
92E
330
1F
100
AcDbEntity
  8
3C1
100
AcDbLine
 10
4114.257332622943
 20
2140.805070569764
 30
0.0
 11
4104.5
 21
2020.0
 31
0.0
  0
LINE
  5
92F
330
1F
100
AcDbEntity
  8
3C1
100
AcDbLine
 10
4365.742667377058
 20
2140.805070569764
 30
0.0
 11
4375.5
 21
2020.0
 31
0.0
  0
LINE
  5
930
330
1F
100
AcDbEntity
  8
3C1
100
AcDbLine
 10
4114.059647226504
 20
2111.04425930004
 30
0.0
 11
4104.5
 21
2020.0
 31
0.0
  0
LINE
  5
931
330
1F
100
AcDbEntity
  8
3C1
100
AcDbLine
 10
4365.940352773495
 20
2111.04425930004
 30
0.0
 11
4375.5
 21
2020.0
 31
0.0
  0
ARC
  5
932
330
1F
100
AcDbEntity
  8
3C1
100
AcDbCircle
 10
4124.224873010506
 20
2140.0
 30
0.0
 40
10.0
100
AcDbArc
 50
90.0
 51
175.382288027506
  0
ARC
  5
933
330
1F
100
AcDbEntity
  8
3C1
100
AcDbCircle
 10
4355.775126989494
 20
2140.0
 30
0.0
 40
10.0
100
AcDbArc
 50
4.61771197249393
 51
90.0
  0
ARC
  5
934
330
1F
100
AcDbEntity
  8
3C1
100
AcDbCircle
 10
4355.995026106448
 20
2110.0
 30
0.0
 40
10.0
100
AcDbArc
 50
5.994092949108438
 51
90.0
  0
ARC
  5
935
330
1F
100
AcDbEntity
  8
3C1
100
AcDbCircle
 10
4124.00497389355
 20
2110.0
 30
0.0
 40
10.0
100
AcDbArc
 50
90.0
 51
174.0059070508915
  0
ARC
  5
943
330
1F
100
AcDbEntity
  8
3C1
100
AcDbCircle
 10
1557.707261826466
 20
2041.50135765433
 30
0.0
 40
20.0
100
AcDbArc
 50
186.4187867302387
 51
274.6354634269026
  0
LINE
  5
94C
330
1F
100
AcDbEntity
  8
3C1
100
AcDbLine
 10
1552.689312313272
 20
2022.141084343164
 30
0.0
 11
1340.889830508474
 21
2050.0
 31
0.0
  0
LINE
  5
94F
330
1F
100
AcDbEntity
  8
3C1
100
AcDbLine
 10
1552.689312313272
 20
2022.141084343164
 30
0.0
 11
1714.725145298804
 21
2022.141084343164
 31
0.0
  0
LINE
  5
951
330
1F
100
AcDbEntity
  8
3C1
100
AcDbLine
 10
1528.509128011394
 20
2122.141084343164
 30
0.0
 11
1353.601694915254
 21
2150.0
 31
0.0
  0
LINE
  5
953
330
1F
100
AcDbEntity
  8
SUNPO
100
AcDbLine
 10
4077.313432044435
 20
1900.0
 30
0.0
 11
4440.776163002253
 21
1900.0
 31
0.0
  0
LINE
  5
A8E
330
1F
100
AcDbEntity
  8
3C1
100
AcDbLine
 10
2040.0
 20
1900.0
 30
0.0
 11
2040.0
 21
2050.0
 31
0.0
  0
LINE
  5
AA1
330
1F
100
AcDbEntity
  8
3C1
100
AcDbLine
 10
1559.323579201787
 20
2021.566776692036
 30
0.0
 11
2040.0
 21
2050.0
 31
0.0
  0
TEXT
  5
D8B
330
1F
100
AcDbEntity
  8
MOJI
100
AcDbText
 10
2633.515795146283
 20
374.0547198136137
 30
0.0
 40
50.0
  1
CBL2
  7
ADD
100
AcDbText
  0
TEXT
  5
D8C
330
1F
100
AcDbEntity
  8
MOJI
100
AcDbText
 10
1008.665169702011
 20
373.1630016051294
 30
0.0
 40
50.0
  1
千葉市型L２型　
  7
ADD
100
AcDbText
  0
LINE
  5
D8D
330
1F
100
AcDbEntity
  8
SUNPO
 62
   144
100
AcDbLine
 10
1746.024212836849
 20
1900.0
 30
0.0
 11
1961.474894721779
 21
1900.0
 31
0.0
  0
LINE
  5
D8E
330
1F
100
AcDbEntity
  8
SUNPO
 62
   144
100
AcDbLine
 10
1746.024212836849
 20
2020.0
 30
0.0
 11
1961.474894721779
 21
2020.0
 31
0.0
  0
LINE
  5
D8F
330
1F
100
AcDbEntity
  8
SUNPO
 62
   144
100
AcDbLine
 10
1951.474894721779
 20
1886.0
 30
0.0
 11
1951.474894721779
 21
1872.0
 31
0.0
  0
LINE
  5
D90
330
1F
100
AcDbEntity
  8
SUNPO
 62
   144
100
AcDbLine
 10
1951.474894721779
 20
2034.0
 30
0.0
 11
1951.474894721779
 21
2048.0
 31
0.0
  0
LINE
  5
D91
330
1F
100
AcDbEntity
  8
SUNPO
 62
   144
100
AcDbLine
 10
1951.474894721779
 20
1900.0
 30
0.0
 11
1951.474894721779
 21
2020.0
 31
0.0
  0
SOLID
  5
D92
330
1F
100
AcDbEntity
  8
SUNPO
 62
   144
100
AcDbTrace
 10
1949.141561388446
 20
1886.0
 30
0.0
 11
1953.808228055112
 21
1886.0
 31
0.0
 12
1951.474894721779
 22
1900.0
 32
0.0
 13
1951.474894721779
 23
1900.0
 33
0.0
  0
SOLID
  5
D93
330
1F
100
AcDbEntity
  8
SUNPO
 62
   144
100
AcDbTrace
 10
1949.141561388446
 20
2034.0
 30
0.0
 11
1953.808228055112
 21
2034.0
 31
0.0
 12
1951.474894721779
 22
2020.0
 32
0.0
 13
1951.474894721779
 23
2020.0
 33
0.0
  0
LINE
  5
D95
330
1F
100
AcDbEntity
  8
SUNPO
 62
   144
100
AcDbLine
 10
1721.158324511125
 20
2022.141084343164
 30
0.0
 11
1892.679276343937
 21
2022.141084343164
 31
0.0
  0
LINE
  5
D96
330
1F
100
AcDbEntity
  8
SUNPO
 62
   144
100
AcDbLine
 10
1721.158324511125
 20
2122.141084343164
 30
0.0
 11
1892.679276343937
 21
2122.141084343164
 31
0.0
  0
LINE
  5
D97
330
1F
100
AcDbEntity
  8
SUNPO
 62
   144
100
AcDbLine
 10
1882.679276343937
 20
2008.141084343165
 30
0.0
 11
1882.679276343937
 21
1994.141084343164
 31
0.0
  0
LINE
  5
D98
330
1F
100
AcDbEntity
  8
SUNPO
 62
   144
100
AcDbLine
 10
1882.679276343937
 20
2136.141084343165
 30
0.0
 11
1882.679276343937
 21
2150.141084343164
 31
0.0
  0
LINE
  5
D99
330
1F
100
AcDbEntity
  8
SUNPO
 62
   144
100
AcDbLine
 10
1882.679276343937
 20
2022.141084343164
 30
0.0
 11
1882.679276343937
 21
2122.141084343164
 31
0.0
  0
SOLID
  5
D9A
330
1F
100
AcDbEntity
  8
SUNPO
 62
   144
100
AcDbTrace
 10
1880.345943010603
 20
2008.141084343165
 30
0.0
 11
1885.01260967727
 21
2008.141084343165
 31
0.0
 12
1882.679276343937
 22
2022.141084343164
 32
0.0
 13
1882.679276343937
 23
2022.141084343164
 33
0.0
  0
SOLID
  5
D9B
330
1F
100
AcDbEntity
  8
SUNPO
 62
   144
100
AcDbTrace
 10
1880.345943010603
 20
2136.141084343165
 30
0.0
 11
1885.01260967727
 21
2136.141084343165
 31
0.0
 12
1882.679276343937
 22
2122.141084343164
 32
0.0
 13
1882.679276343937
 23
2122.141084343164
 33
0.0
  0
LINE
  5
D9D
330
1F
100
AcDbEntity
  8
SUNPO
 62
   144
100
AcDbLine
 10
1396.111431903235
 20
1820.756902951536
 30
0.0
 11
1516.358981585013
 21
1985.018442351788
 31
0.0
  0
LINE
  5
D9F
330
1F
100
AcDbEntity
  8
SUNPO
 62
   144
100
AcDbLine
 10
1557.707261826466
 20
2041.50135765433
 30
0.0
 11
1545.893467471765
 21
2025.363381853604
 31
0.0
  0
SOLID
  5
DA0
330
1F
100
AcDbEntity
  8
SUNPO
 62
   144
100
AcDbTrace
 10
1509.634825001377
 20
1989.940856666247
 30
0.0
 11
1523.083138168649
 21
1980.096028037329
 31
0.0
 12
1545.893467471765
 22
2025.363381853604
 32
0.0
 13
1545.893467471765
 23
2025.363381853604
 33
0.0
  0
LINE
  5
DA1
330
1F
100
AcDbEntity
  8
SUNPO
 62
   144
100
AcDbLine
 10
1728.689947907444
 20
2344.164711859816
 30
0.0
 11
1557.83051338824
 21
2233.492311658185
 31
0.0
  0
LINE
  5
DA3
330
1F
100
AcDbEntity
  8
SUNPO
 62
   144
100
AcDbLine
 10
1490.685753156131
 20
2190.0
 30
0.0
 11
1515.865038243172
 21
2206.309616871819
 31
0.0
  0
SOLID
  5
DA4
330
1F
100
AcDbEntity
  8
SUNPO
 62
   144
100
AcDbTrace
 10
1553.300064257179
 20
2240.486557515696
 30
0.0
 11
1562.360962519301
 21
2226.498065800673
 31
0.0
 12
1515.865038243172
 22
2206.309616871819
 32
0.0
 13
1515.865038243172
 23
2206.309616871819
 33
0.0
  0
LINE
  5
DA5
330
1F
100
AcDbEntity
  8
SUNPO
 62
   144
100
AcDbLine
 10
1362.499999999999
 20
2240.0
 30
0.0
 11
1362.499999999999
 21
2504.92890588641
 31
0.0
  0
LINE
  5
DA6
330
1F
100
AcDbEntity
  8
SUNPO
 62
   144
100
AcDbLine
 10
1517.5
 20
2240.0
 30
0.0
 11
1517.5
 21
2504.92890588641
 31
0.0
  0
LINE
  5
DA7
330
1F
100
AcDbEntity
  8
SUNPO
 62
   144
100
AcDbLine
 10
1376.5
 20
2494.928905886411
 30
0.0
 11
1503.5
 21
2494.928905886411
 31
0.0
  0
SOLID
  5
DA8
330
1F
100
AcDbEntity
  8
SUNPO
 62
   144
100
AcDbTrace
 10
1376.5
 20
2497.262239219744
 30
0.0
 11
1376.5
 21
2492.595572553077
 31
0.0
 12
1362.499999999999
 22
2494.928905886411
 32
0.0
 13
1362.499999999999
 23
2494.928905886411
 33
0.0
  0
SOLID
  5
DA9
330
1F
100
AcDbEntity
  8
SUNPO
 62
   144
100
AcDbTrace
 10
1503.5
 20
2497.262239219744
 30
0.0
 11
1503.5
 21
2492.595572553077
 31
0.0
 12
1517.5
 22
2494.928905886411
 32
0.0
 13
1517.5
 23
2494.928905886411
 33
0.0
  0
LINE
  5
DAB
330
1F
100
AcDbEntity
  8
SUNPO
 62
   144
100
AcDbLine
 10
1540.0
 20
2247.778697287887
 30
0.0
 11
1540.0
 21
2357.071269129461
 31
0.0
  0
LINE
  5
DAC
330
1F
100
AcDbEntity
  8
SUNPO
 62
   144
100
AcDbLine
 10
1517.5
 20
2247.778697287887
 30
0.0
 11
1517.5
 21
2357.071269129461
 31
0.0
  0
LINE
  5
DAD
330
1F
100
AcDbEntity
  8
SUNPO
 62
   144
100
AcDbLine
 10
1554.0
 20
2347.071269129461
 30
0.0
 11
1568.0
 21
2347.071269129461
 31
0.0
  0
LINE
  5
DAE
330
1F
100
AcDbEntity
  8
SUNPO
 62
   144
100
AcDbLine
 10
1503.5
 20
2347.071269129461
 30
0.0
 11
1489.5
 21
2347.071269129461
 31
0.0
  0
LINE
  5
DAF
330
1F
100
AcDbEntity
  8
SUNPO
 62
   144
100
AcDbLine
 10
1540.0
 20
2347.071269129461
 30
0.0
 11
1517.5
 21
2347.071269129461
 31
0.0
  0
SOLID
  5
DB0
330
1F
100
AcDbEntity
  8
SUNPO
 62
   144
100
AcDbTrace
 10
1554.0
 20
2349.404602462794
 30
0.0
 11
1554.0
 21
2344.737935796127
 31
0.0
 12
1540.0
 22
2347.071269129461
 32
0.0
 13
1540.0
 23
2347.071269129461
 33
0.0
  0
SOLID
  5
DB1
330
1F
100
AcDbEntity
  8
SUNPO
 62
   144
100
AcDbTrace
 10
1503.5
 20
2349.404602462794
 30
0.0
 11
1503.5
 21
2344.737935796127
 31
0.0
 12
1517.5
 22
2347.071269129461
 32
0.0
 13
1517.5
 23
2347.071269129461
 33
0.0
  0
LINE
  5
DB3
330
1F
100
AcDbEntity
  8
SUNPO
 62
   144
100
AcDbLine
 10
1340.0
 20
2240.0
 30
0.0
 11
1340.0
 21
2358.345906732367
 31
0.0
  0
LINE
  5
DB4
330
1F
100
AcDbEntity
  8
SUNPO
 62
   144
100
AcDbLine
 10
1362.499999999999
 20
2240.0
 30
0.0
 11
1362.499999999999
 21
2358.345906732367
 31
0.0
  0
LINE
  5
DB5
330
1F
100
AcDbEntity
  8
SUNPO
 62
   144
100
AcDbLine
 10
1326.0
 20
2348.345906732367
 30
0.0
 11
1312.0
 21
2348.345906732367
 31
0.0
  0
LINE
  5
DB6
330
1F
100
AcDbEntity
  8
SUNPO
 62
   144
100
AcDbLine
 10
1376.5
 20
2348.345906732367
 30
0.0
 11
1390.499999999999
 21
2348.345906732367
 31
0.0
  0
LINE
  5
DB7
330
1F
100
AcDbEntity
  8
SUNPO
 62
   144
100
AcDbLine
 10
1340.0
 20
2348.345906732367
 30
0.0
 11
1362.499999999999
 21
2348.345906732367
 31
0.0
  0
SOLID
  5
DB8
330
1F
100
AcDbEntity
  8
SUNPO
 62
   144
100
AcDbTrace
 10
1326.0
 20
2350.679240065701
 30
0.0
 11
1326.0
 21
2346.012573399034
 31
0.0
 12
1340.0
 22
2348.345906732367
 32
0.0
 13
1340.0
 23
2348.345906732367
 33
0.0
  0
SOLID
  5
DB9
330
1F
100
AcDbEntity
  8
SUNPO
 62
   144
100
AcDbTrace
 10
1376.5
 20
2350.679240065701
 30
0.0
 11
1376.5
 21
2346.012573399034
 31
0.0
 12
1362.499999999999
 22
2348.345906732367
 32
0.0
 13
1362.499999999999
 23
2348.345906732367
 33
0.0
  0
LINE
  5
DBB
330
1F
100
AcDbEntity
  8
SUNPO
 62
   144
100
AcDbLine
 10
1540.0
 20
2247.778697287887
 30
0.0
 11
1540.0
 21
2611.998228035862
 31
0.0
  0
LINE
  5
DBC
330
1F
100
AcDbEntity
  8
SUNPO
 62
   144
100
AcDbLine
 10
2040.0
 20
2247.778697287887
 30
0.0
 11
2040.0
 21
2611.998228035862
 31
0.0
  0
LINE
  5
DBD
330
1F
100
AcDbEntity
  8
SUNPO
 62
   144
100
AcDbLine
 10
1554.0
 20
2601.998228035862
 30
0.0
 11
2026.0
 21
2601.998228035862
 31
0.0
  0
SOLID
  5
DBE
330
1F
100
AcDbEntity
  8
SUNPO
 62
   144
100
AcDbTrace
 10
1554.0
 20
2604.331561369195
 30
0.0
 11
1554.0
 21
2599.664894702528
 31
0.0
 12
1540.0
 22
2601.998228035862
 32
0.0
 13
1540.0
 23
2601.998228035862
 33
0.0
  0
SOLID
  5
DBF
330
1F
100
AcDbEntity
  8
SUNPO
 62
   144
100
AcDbTrace
 10
2026.0
 20
2604.331561369195
 30
0.0
 11
2026.0
 21
2599.664894702528
 31
0.0
 12
2040.0
 22
2601.998228035862
 32
0.0
 13
2040.0
 23
2601.998228035862
 33
0.0
  0
LINE
  5
DC1
330
1F
100
AcDbEntity
  8
SUNPO
 62
   144
100
AcDbLine
 10
1340.0
 20
2247.778697287887
 30
0.0
 11
1340.0
 21
2611.999962330529
 31
0.0
  0
LINE
  5
DC2
330
1F
100
AcDbEntity
  8
SUNPO
 62
   144
100
AcDbLine
 10
1540.0
 20
2247.778697287887
 30
0.0
 11
1540.0
 21
2611.999962330529
 31
0.0
  0
LINE
  5
DC3
330
1F
100
AcDbEntity
  8
SUNPO
 62
   144
100
AcDbLine
 10
1354.0
 20
2601.999962330528
 30
0.0
 11
1526.0
 21
2601.999962330528
 31
0.0
  0
SOLID
  5
DC4
330
1F
100
AcDbEntity
  8
SUNPO
 62
   144
100
AcDbTrace
 10
1354.0
 20
2604.333295663861
 30
0.0
 11
1354.0
 21
2599.666628997195
 31
0.0
 12
1340.0
 22
2601.999962330528
 32
0.0
 13
1340.0
 23
2601.999962330528
 33
0.0
  0
SOLID
  5
DC5
330
1F
100
AcDbEntity
  8
SUNPO
 62
   144
100
AcDbTrace
 10
1526.0
 20
2604.333295663861
 30
0.0
 11
1526.0
 21
2599.666628997195
 31
0.0
 12
1540.0
 22
2601.999962330528
 32
0.0
 13
1540.0
 23
2601.999962330528
 33
0.0
  0
LINE
  5
DC7
330
1F
100
AcDbEntity
  8
SUNPO
 62
   144
100
AcDbLine
 10
1340.0
 20
1991.5
 30
0.0
 11
1340.0
 21
2766.144289155476
 31
0.0
  0
LINE
  5
DC8
330
1F
100
AcDbEntity
  8
SUNPO
 62
   144
100
AcDbLine
 10
2040.0
 20
1991.5
 30
0.0
 11
2040.0
 21
2766.144289155476
 31
0.0
  0
LINE
  5
DC9
330
1F
100
AcDbEntity
  8
SUNPO
 62
   144
100
AcDbLine
 10
1354.0
 20
2756.144289155476
 30
0.0
 11
2026.0
 21
2756.144289155476
 31
0.0
  0
SOLID
  5
DCA
330
1F
100
AcDbEntity
  8
SUNPO
 62
   144
100
AcDbTrace
 10
1354.0
 20
2758.477622488809
 30
0.0
 11
1354.0
 21
2753.810955822142
 31
0.0
 12
1340.0
 22
2756.144289155476
 32
0.0
 13
1340.0
 23
2756.144289155476
 33
0.0
  0
SOLID
  5
DCB
330
1F
100
AcDbEntity
  8
SUNPO
 62
   144
100
AcDbTrace
 10
2026.0
 20
2758.477622488809
 30
0.0
 11
2026.0
 21
2753.810955822142
 31
0.0
 12
2040.0
 22
2756.144289155476
 32
0.0
 13
2040.0
 23
2756.144289155476
 33
0.0
  0
LINE
  5
DCD
330
1F
100
AcDbEntity
  8
SUNPO
 62
   144
100
AcDbLine
 10
2060.0
 20
1900.0
 30
0.0
 11
2238.522443883784
 21
1900.0
 31
0.0
  0
LINE
  5
DCE
330
1F
100
AcDbEntity
  8
SUNPO
 62
   144
100
AcDbLine
 10
2060.0
 20
2050.0
 30
0.0
 11
2238.522443883784
 21
2050.0
 31
0.0
  0
LINE
  5
DCF
330
1F
100
AcDbEntity
  8
SUNPO
 62
   144
100
AcDbLine
 10
2228.522443883785
 20
1914.0
 30
0.0
 11
2228.522443883785
 21
2036.0
 31
0.0
  0
SOLID
  5
DD0
330
1F
100
AcDbEntity
  8
SUNPO
 62
   144
100
AcDbTrace
 10
2226.189110550451
 20
1914.0
 30
0.0
 11
2230.855777217118
 21
1914.0
 31
0.0
 12
2228.522443883785
 22
1900.0
 32
0.0
 13
2228.522443883785
 23
1900.0
 33
0.0
  0
SOLID
  5
DD1
330
1F
100
AcDbEntity
  8
SUNPO
 62
   144
100
AcDbTrace
 10
2226.189110550451
 20
2036.0
 30
0.0
 11
2230.855777217118
 21
2036.0
 31
0.0
 12
2228.522443883785
 22
2050.0
 32
0.0
 13
2228.522443883785
 23
2050.0
 33
0.0
  0
LINE
  5
DD3
330
1F
100
AcDbEntity
  8
SUNPO
 62
   144
100
AcDbLine
 10
1333.601694915254
 20
2150.0
 30
0.0
 11
1172.179393344165
 21
2150.0
 31
0.0
  0
LINE
  5
DD4
330
1F
100
AcDbEntity
  8
SUNPO
 62
   144
100
AcDbLine
 10
1333.601694915254
 20
2220.0
 30
0.0
 11
1172.179393344165
 21
2220.0
 31
0.0
  0
LINE
  5
DD5
330
1F
100
AcDbEntity
  8
SUNPO
 62
   144
100
AcDbLine
 10
1182.179393344165
 20
2136.0
 30
0.0
 11
1182.179393344165
 21
2122.0
 31
0.0
  0
LINE
  5
DD6
330
1F
100
AcDbEntity
  8
SUNPO
 62
   144
100
AcDbLine
 10
1182.179393344165
 20
2234.0
 30
0.0
 11
1182.179393344165
 21
2248.0
 31
0.0
  0
LINE
  5
DD7
330
1F
100
AcDbEntity
  8
SUNPO
 62
   144
100
AcDbLine
 10
1182.179393344165
 20
2150.0
 30
0.0
 11
1182.179393344165
 21
2220.0
 31
0.0
  0
SOLID
  5
DD8
330
1F
100
AcDbEntity
  8
SUNPO
 62
   144
100
AcDbTrace
 10
1179.846060010832
 20
2136.0
 30
0.0
 11
1184.512726677499
 21
2136.0
 31
0.0
 12
1182.179393344165
 22
2150.0
 32
0.0
 13
1182.179393344165
 23
2150.0
 33
0.0
  0
SOLID
  5
DD9
330
1F
100
AcDbEntity
  8
SUNPO
 62
   144
100
AcDbTrace
 10
1179.846060010832
 20
2234.0
 30
0.0
 11
1184.512726677499
 21
2234.0
 31
0.0
 12
1182.179393344165
 22
2220.0
 32
0.0
 13
1182.179393344165
 23
2220.0
 33
0.0
  0
LINE
  5
DDB
330
1F
100
AcDbEntity
  8
SUNPO
 62
   144
100
AcDbLine
 10
1320.889830508474
 20
2050.0
 30
0.0
 11
1091.065149910591
 21
2050.0
 31
0.0
  0
LINE
  5
DDC
330
1F
100
AcDbEntity
  8
SUNPO
 62
   144
100
AcDbLine
 10
1320.0
 20
2150.0
 30
0.0
 11
1091.065149910591
 21
2150.0
 31
0.0
  0
LINE
  5
DDD
330
1F
100
AcDbEntity
  8
SUNPO
 62
   144
100
AcDbLine
 10
1101.065149910591
 20
2036.0
 30
0.0
 11
1101.065149910591
 21
2022.0
 31
0.0
  0
LINE
  5
DDE
330
1F
100
AcDbEntity
  8
SUNPO
 62
   144
100
AcDbLine
 10
1101.065149910591
 20
2164.0
 30
0.0
 11
1101.065149910591
 21
2178.0
 31
0.0
  0
LINE
  5
DDF
330
1F
100
AcDbEntity
  8
SUNPO
 62
   144
100
AcDbLine
 10
1101.065149910591
 20
2050.0
 30
0.0
 11
1101.065149910591
 21
2150.0
 31
0.0
  0
SOLID
  5
DE0
330
1F
100
AcDbEntity
  8
SUNPO
 62
   144
100
AcDbTrace
 10
1098.731816577258
 20
2036.0
 30
0.0
 11
1103.398483243924
 21
2036.0
 31
0.0
 12
1101.065149910591
 22
2050.0
 32
0.0
 13
1101.065149910591
 23
2050.0
 33
0.0
  0
SOLID
  5
DE1
330
1F
100
AcDbEntity
  8
SUNPO
 62
   144
100
AcDbTrace
 10
1098.731816577258
 20
2164.0
 30
0.0
 11
1103.398483243924
 21
2164.0
 31
0.0
 12
1101.065149910591
 22
2150.0
 32
0.0
 13
1101.065149910591
 23
2150.0
 33
0.0
  0
LINE
  5
DE3
330
1F
100
AcDbEntity
  8
SUNPO
 62
   144
100
AcDbLine
 10
1320.0
 20
2020.0
 30
0.0
 11
1173.509127920538
 21
2020.0
 31
0.0
  0
LINE
  5
DE4
330
1F
100
AcDbEntity
  8
SUNPO
 62
   144
100
AcDbLine
 10
1320.0
 20
2050.0
 30
0.0
 11
1173.509127920538
 21
2050.0
 31
0.0
  0
LINE
  5
DE5
330
1F
100
AcDbEntity
  8
SUNPO
 62
   144
100
AcDbLine
 10
1183.509127920538
 20
2006.0
 30
0.0
 11
1183.509127920538
 21
1992.0
 31
0.0
  0
LINE
  5
DE6
330
1F
100
AcDbEntity
  8
SUNPO
 62
   144
100
AcDbLine
 10
1183.509127920538
 20
2064.0
 30
0.0
 11
1183.509127920538
 21
2078.0
 31
0.0
  0
LINE
  5
DE7
330
1F
100
AcDbEntity
  8
SUNPO
 62
   144
100
AcDbLine
 10
1183.509127920538
 20
2020.0
 30
0.0
 11
1183.509127920538
 21
2050.0
 31
0.0
  0
SOLID
  5
DE8
330
1F
100
AcDbEntity
  8
SUNPO
 62
   144
100
AcDbTrace
 10
1181.175794587205
 20
2006.0
 30
0.0
 11
1185.842461253872
 21
2006.0
 31
0.0
 12
1183.509127920538
 22
2020.0
 32
0.0
 13
1183.509127920538
 23
2020.0
 33
0.0
  0
SOLID
  5
DE9
330
1F
100
AcDbEntity
  8
SUNPO
 62
   144
100
AcDbTrace
 10
1181.175794587205
 20
2064.0
 30
0.0
 11
1185.842461253872
 21
2064.0
 31
0.0
 12
1183.509127920538
 22
2050.0
 32
0.0
 13
1183.509127920538
 23
2050.0
 33
0.0
  0
LINE
  5
DEB
330
1F
100
AcDbEntity
  8
SUNPO
 62
   144
100
AcDbLine
 10
1320.0
 20
2020.0
 30
0.0
 11
1007.348536977859
 21
2020.0
 31
0.0
  0
LINE
  5
DEC
330
1F
100
AcDbEntity
  8
SUNPO
 62
   144
100
AcDbLine
 10
1320.0
 20
2220.0
 30
0.0
 11
1007.348536977859
 21
2220.0
 31
0.0
  0
LINE
  5
DED
330
1F
100
AcDbEntity
  8
SUNPO
 62
   144
100
AcDbLine
 10
1017.348536977859
 20
2034.0
 30
0.0
 11
1017.348536977859
 21
2206.0
 31
0.0
  0
SOLID
  5
DEE
330
1F
100
AcDbEntity
  8
SUNPO
 62
   144
100
AcDbTrace
 10
1015.015203644525
 20
2034.0
 30
0.0
 11
1019.681870311192
 21
2034.0
 31
0.0
 12
1017.348536977859
 22
2020.0
 32
0.0
 13
1017.348536977859
 23
2020.0
 33
0.0
  0
SOLID
  5
DEF
330
1F
100
AcDbEntity
  8
SUNPO
 62
   144
100
AcDbTrace
 10
1015.015203644525
 20
2206.0
 30
0.0
 11
1019.681870311192
 21
2206.0
 31
0.0
 12
1017.348536977859
 22
2220.0
 32
0.0
 13
1017.348536977859
 23
2220.0
 33
0.0
  0
LINE
  5
DF1
330
1F
100
AcDbEntity
  8
SUNPO
 62
   144
100
AcDbLine
 10
1320.0
 20
1900.0
 30
0.0
 11
1007.414157403252
 21
1900.0
 31
0.0
  0
LINE
  5
DF2
330
1F
100
AcDbEntity
  8
SUNPO
 62
   144
100
AcDbLine
 10
1320.0
 20
2020.0
 30
0.0
 11
1007.414157403252
 21
2020.0
 31
0.0
  0
LINE
  5
DF3
330
1F
100
AcDbEntity
  8
SUNPO
 62
   144
100
AcDbLine
 10
1017.414157403252
 20
1886.0
 30
0.0
 11
1017.414157403252
 21
1872.0
 31
0.0
  0
LINE
  5
DF4
330
1F
100
AcDbEntity
  8
SUNPO
 62
   144
100
AcDbLine
 10
1017.414157403252
 20
2034.0
 30
0.0
 11
1017.414157403252
 21
2047.999999999999
 31
0.0
  0
LINE
  5
DF5
330
1F
100
AcDbEntity
  8
SUNPO
 62
   144
100
AcDbLine
 10
1017.414157403252
 20
1900.0
 30
0.0
 11
1017.414157403252
 21
2020.0
 31
0.0
  0
SOLID
  5
DF6
330
1F
100
AcDbEntity
  8
SUNPO
 62
   144
100
AcDbTrace
 10
1015.080824069919
 20
1886.0
 30
0.0
 11
1019.747490736586
 21
1886.0
 31
0.0
 12
1017.414157403252
 22
1900.0
 32
0.0
 13
1017.414157403252
 23
1900.0
 33
0.0
  0
SOLID
  5
DF7
330
1F
100
AcDbEntity
  8
SUNPO
 62
   144
100
AcDbTrace
 10
1015.080824069919
 20
2034.0
 30
0.0
 11
1019.747490736586
 21
2034.0
 31
0.0
 12
1017.414157403252
 22
2020.0
 32
0.0
 13
1017.414157403252
 23
2020.0
 33
0.0
  0
LINE
  5
DF9
330
1F
100
AcDbEntity
  8
SUNPO
 62
   144
100
AcDbLine
 10
1320.0
 20
1900.0
 30
0.0
 11
895.8999865191216
 21
1900.0
 31
0.0
  0
LINE
  5
DFA
330
1F
100
AcDbEntity
  8
SUNPO
 62
   144
100
AcDbLine
 10
1320.0
 20
2220.0
 30
0.0
 11
895.8999865191216
 21
2220.0
 31
0.0
  0
LINE
  5
DFB
330
1F
100
AcDbEntity
  8
SUNPO
 62
   144
100
AcDbLine
 10
905.8999865191218
 20
1914.0
 30
0.0
 11
905.8999865191218
 21
2206.0
 31
0.0
  0
SOLID
  5
DFC
330
1F
100
AcDbEntity
  8
SUNPO
 62
   144
100
AcDbTrace
 10
903.5666531857883
 20
1914.0
 30
0.0
 11
908.2333198524551
 21
1914.0
 31
0.0
 12
905.8999865191218
 22
1900.0
 32
0.0
 13
905.8999865191218
 23
1900.0
 33
0.0
  0
SOLID
  5
DFD
330
1F
100
AcDbEntity
  8
SUNPO
 62
   144
100
AcDbTrace
 10
903.5666531857883
 20
2206.0
 30
0.0
 11
908.2333198524551
 21
2206.0
 31
0.0
 12
905.8999865191218
 22
2220.0
 32
0.0
 13
905.8999865191218
 23
2220.0
 33
0.0
  0
LINE
  5
DFF
330
1F
100
AcDbEntity
  8
SUNPO
 62
   144
100
AcDbLine
 10
1340.0
 20
1880.0
 30
0.0
 11
1340.0
 21
1740.0
 31
0.0
  0
LINE
  5
E00
330
1F
100
AcDbEntity
  8
SUNPO
 62
   144
100
AcDbLine
 10
2040.0
 20
1880.0
 30
0.0
 11
2040.0
 21
1740.0
 31
0.0
  0
LINE
  5
E01
330
1F
100
AcDbEntity
  8
SUNPO
 62
   144
100
AcDbLine
 10
1354.0
 20
1750.0
 30
0.0
 11
2026.0
 21
1750.0
 31
0.0
  0
SOLID
  5
E02
330
1F
100
AcDbEntity
  8
SUNPO
 62
   144
100
AcDbTrace
 10
1354.0
 20
1752.333333333333
 30
0.0
 11
1354.0
 21
1747.666666666666
 31
0.0
 12
1340.0
 22
1750.0
 32
0.0
 13
1340.0
 23
1750.0
 33
0.0
  0
SOLID
  5
E03
330
1F
100
AcDbEntity
  8
SUNPO
 62
   144
100
AcDbTrace
 10
2026.0
 20
1752.333333333333
 30
0.0
 11
2026.0
 21
1747.666666666666
 31
0.0
 12
2040.0
 22
1750.0
 32
0.0
 13
2040.0
 23
1750.0
 33
0.0
  0
LINE
  5
E05
330
1F
100
AcDbEntity
  8
SUNPO
 62
   144
100
AcDbLine
 10
4407.245529775305
 20
2150.0
 30
0.0
 11
4491.309414577992
 21
2150.0
 31
0.0
  0
LINE
  5
E06
330
1F
100
AcDbEntity
  8
SUNPO
 62
   144
100
AcDbLine
 10
4407.245529775305
 20
2220.0
 30
0.0
 11
4491.309414577992
 21
2220.0
 31
0.0
  0
LINE
  5
E07
330
1F
100
AcDbEntity
  8
SUNPO
 62
   144
100
AcDbLine
 10
4481.309414577991
 20
2136.0
 30
0.0
 11
4481.309414577991
 21
2122.0
 31
0.0
  0
LINE
  5
E08
330
1F
100
AcDbEntity
  8
SUNPO
 62
   144
100
AcDbLine
 10
4481.309414577991
 20
2234.0
 30
0.0
 11
4481.309414577991
 21
2248.0
 31
0.0
  0
LINE
  5
E09
330
1F
100
AcDbEntity
  8
SUNPO
 62
   144
100
AcDbLine
 10
4481.309414577991
 20
2150.0
 30
0.0
 11
4481.309414577991
 21
2220.0
 31
0.0
  0
SOLID
  5
E0A
330
1F
100
AcDbEntity
  8
SUNPO
 62
   144
100
AcDbTrace
 10
4478.976081244659
 20
2136.0
 30
0.0
 11
4483.642747911325
 21
2136.0
 31
0.0
 12
4481.309414577991
 22
2150.0
 32
0.0
 13
4481.309414577991
 23
2150.0
 33
0.0
  0
SOLID
  5
E0B
330
1F
100
AcDbEntity
  8
SUNPO
 62
   144
100
AcDbTrace
 10
4478.976081244659
 20
2234.0
 30
0.0
 11
4483.642747911325
 21
2234.0
 31
0.0
 12
4481.309414577991
 22
2220.0
 32
0.0
 13
4481.309414577991
 23
2220.0
 33
0.0
  0
LINE
  5
E0D
330
1F
100
AcDbEntity
  8
SUNPO
 62
   144
100
AcDbLine
 10
4424.573095777772
 20
2050.0
 30
0.0
 11
4561.444770828458
 21
2050.0
 31
0.0
  0
LINE
  5
E0E
330
1F
100
AcDbEntity
  8
SUNPO
 62
   144
100
AcDbLine
 10
4424.573095777772
 20
2150.0
 30
0.0
 11
4561.444770828458
 21
2150.0
 31
0.0
  0
LINE
  5
E0F
330
1F
100
AcDbEntity
  8
SUNPO
 62
   144
100
AcDbLine
 10
4551.444770828457
 20
2036.0
 30
0.0
 11
4551.444770828457
 21
2022.0
 31
0.0
  0
LINE
  5
E10
330
1F
100
AcDbEntity
  8
SUNPO
 62
   144
100
AcDbLine
 10
4551.444770828458
 20
2164.0
 30
0.0
 11
4551.444770828458
 21
2178.0
 31
0.0
  0
LINE
  5
E11
330
1F
100
AcDbEntity
  8
SUNPO
 62
   144
100
AcDbLine
 10
4551.444770828458
 20
2050.0
 30
0.0
 11
4551.444770828458
 21
2150.0
 31
0.0
  0
SOLID
  5
E12
330
1F
100
AcDbEntity
  8
SUNPO
 62
   144
100
AcDbTrace
 10
4549.111437495125
 20
2036.0
 30
0.0
 11
4553.778104161791
 21
2036.0
 31
0.0
 12
4551.444770828458
 22
2050.0
 32
0.0
 13
4551.444770828458
 23
2050.0
 33
0.0
  0
SOLID
  5
E13
330
1F
100
AcDbEntity
  8
SUNPO
 62
   144
100
AcDbTrace
 10
4549.111437495126
 20
2164.0
 30
0.0
 11
4553.778104161792
 21
2164.0
 31
0.0
 12
4551.444770828458
 22
2150.0
 32
0.0
 13
4551.444770828458
 23
2150.0
 33
0.0
  0
LINE
  5
E15
330
1F
100
AcDbEntity
  8
SUNPO
 62
   144
100
AcDbLine
 10
4424.573095777772
 20
2020.0
 30
0.0
 11
4492.134536768584
 21
2020.0
 31
0.0
  0
LINE
  5
E16
330
1F
100
AcDbEntity
  8
SUNPO
 62
   144
100
AcDbLine
 10
4424.573095777772
 20
2050.0
 30
0.0
 11
4492.134536768584
 21
2050.0
 31
0.0
  0
LINE
  5
E17
330
1F
100
AcDbEntity
  8
SUNPO
 62
   144
100
AcDbLine
 10
4482.134536768583
 20
2006.0
 30
0.0
 11
4482.134536768583
 21
1992.0
 31
0.0
  0
LINE
  5
E18
330
1F
100
AcDbEntity
  8
SUNPO
 62
   144
100
AcDbLine
 10
4482.134536768584
 20
2064.0
 30
0.0
 11
4482.134536768584
 21
2078.0
 31
0.0
  0
LINE
  5
E19
330
1F
100
AcDbEntity
  8
SUNPO
 62
   144
100
AcDbLine
 10
4482.134536768583
 20
2020.0
 30
0.0
 11
4482.134536768584
 21
2050.0
 31
0.0
  0
SOLID
  5
E1A
330
1F
100
AcDbEntity
  8
SUNPO
 62
   144
100
AcDbTrace
 10
4479.80120343525
 20
2006.0
 30
0.0
 11
4484.467870101917
 21
2006.0
 31
0.0
 12
4482.134536768583
 22
2020.0
 32
0.0
 13
4482.134536768583
 23
2020.0
 33
0.0
  0
SOLID
  5
E1B
330
1F
100
AcDbEntity
  8
SUNPO
 62
   144
100
AcDbTrace
 10
4479.801203435251
 20
2064.0
 30
0.0
 11
4484.467870101918
 21
2064.0
 31
0.0
 12
4482.134536768584
 22
2050.0
 32
0.0
 13
4482.134536768584
 23
2050.0
 33
0.0
  0
LINE
  5
E1D
330
1F
100
AcDbEntity
  8
SUNPO
 62
   144
100
AcDbLine
 10
4092.576923076923
 20
2120.0
 30
0.0
 11
4005.940738683121
 21
2120.0
 31
0.0
  0
LINE
  5
E1E
330
1F
100
AcDbEntity
  8
SUNPO
 62
   144
100
AcDbLine
 10
4092.576923076923
 20
2220.0
 30
0.0
 11
4005.940738683121
 21
2220.0
 31
0.0
  0
LINE
  5
E1F
330
1F
100
AcDbEntity
  8
SUNPO
 62
   144
100
AcDbLine
 10
4015.940738683121
 20
2106.0
 30
0.0
 11
4015.940738683121
 21
2092.0
 31
0.0
  0
LINE
  5
E20
330
1F
100
AcDbEntity
  8
SUNPO
 62
   144
100
AcDbLine
 10
4015.940738683121
 20
2234.0
 30
0.0
 11
4015.940738683121
 21
2248.0
 31
0.0
  0
LINE
  5
E21
330
1F
100
AcDbEntity
  8
SUNPO
 62
   144
100
AcDbLine
 10
4015.940738683121
 20
2120.0
 30
0.0
 11
4015.940738683121
 21
2220.0
 31
0.0
  0
SOLID
  5
E22
330
1F
100
AcDbEntity
  8
SUNPO
 62
   144
100
AcDbTrace
 10
4013.607405349786
 20
2106.0
 30
0.0
 11
4018.274072016454
 21
2106.0
 31
0.0
 12
4015.940738683121
 22
2120.0
 32
0.0
 13
4015.940738683121
 23
2120.0
 33
0.0
  0
SOLID
  5
E23
330
1F
100
AcDbEntity
  8
SUNPO
 62
   144
100
AcDbTrace
 10
4013.607405349786
 20
2234.0
 30
0.0
 11
4018.274072016454
 21
2234.0
 31
0.0
 12
4015.940738683121
 22
2220.0
 32
0.0
 13
4015.940738683121
 23
2220.0
 33
0.0
  0
LINE
  5
E25
330
1F
100
AcDbEntity
  8
SUNPO
 62
   144
100
AcDbLine
 10
4084.500000000001
 20
2020.0
 30
0.0
 11
3942.406359957405
 21
2020.0
 31
0.0
  0
LINE
  5
E26
330
1F
100
AcDbEntity
  8
SUNPO
 62
   144
100
AcDbLine
 10
4084.5
 20
2120.0
 30
0.0
 11
3942.406359957405
 21
2120.0
 31
0.0
  0
LINE
  5
E27
330
1F
100
AcDbEntity
  8
SUNPO
 62
   144
100
AcDbLine
 10
3952.406359957405
 20
2006.0
 30
0.0
 11
3952.406359957405
 21
1992.0
 31
0.0
  0
LINE
  5
E28
330
1F
100
AcDbEntity
  8
SUNPO
 62
   144
100
AcDbLine
 10
3952.406359957405
 20
2134.0
 30
0.0
 11
3952.406359957405
 21
2148.0
 31
0.0
  0
LINE
  5
E29
330
1F
100
AcDbEntity
  8
SUNPO
 62
   144
100
AcDbLine
 10
3952.406359957405
 20
2020.0
 30
0.0
 11
3952.406359957405
 21
2120.0
 31
0.0
  0
SOLID
  5
E2A
330
1F
100
AcDbEntity
  8
SUNPO
 62
   144
100
AcDbTrace
 10
3950.073026624072
 20
2006.0
 30
0.0
 11
3954.739693290738
 21
2006.0
 31
0.0
 12
3952.406359957405
 22
2020.0
 32
0.0
 13
3952.406359957405
 23
2020.0
 33
0.0
  0
SOLID
  5
E2B
330
1F
100
AcDbEntity
  8
SUNPO
 62
   144
100
AcDbTrace
 10
3950.073026624072
 20
2134.0
 30
0.0
 11
3954.739693290738
 21
2134.0
 31
0.0
 12
3952.406359957405
 22
2120.0
 32
0.0
 13
3952.406359957405
 23
2120.0
 33
0.0
  0
LINE
  5
E2D
330
1F
100
AcDbEntity
  8
SUNPO
 62
   144
100
AcDbLine
 10
4115.0
 20
2240.0
 30
0.0
 11
4115.0
 21
2364.078361552822
 31
0.0
  0
LINE
  5
E2E
330
1F
100
AcDbEntity
  8
SUNPO
 62
   144
100
AcDbLine
 10
4365.0
 20
2240.0
 30
0.0
 11
4365.0
 21
2364.078361552822
 31
0.0
  0
LINE
  5
E2F
330
1F
100
AcDbEntity
  8
SUNPO
 62
   144
100
AcDbLine
 10
4129.0
 20
2354.078361552821
 30
0.0
 11
4351.0
 21
2354.078361552821
 31
0.0
  0
SOLID
  5
E30
330
1F
100
AcDbEntity
  8
SUNPO
 62
   144
100
AcDbTrace
 10
4129.0
 20
2356.411694886155
 30
0.0
 11
4129.0
 21
2351.745028219488
 31
0.0
 12
4115.0
 22
2354.078361552821
 32
0.0
 13
4115.0
 23
2354.078361552821
 33
0.0
  0
SOLID
  5
E31
330
1F
100
AcDbEntity
  8
SUNPO
 62
   144
100
AcDbTrace
 10
4351.0
 20
2356.411694886155
 30
0.0
 11
4351.0
 21
2351.745028219488
 31
0.0
 12
4365.0
 22
2354.078361552821
 32
0.0
 13
4365.0
 23
2354.078361552821
 33
0.0
  0
LINE
  5
E33
330
1F
100
AcDbEntity
  8
SUNPO
 62
   144
100
AcDbLine
 10
4104.5
 20
2000.0
 30
0.0
 11
4104.5
 21
1935.82033191917
 31
0.0
  0
LINE
  5
E34
330
1F
100
AcDbEntity
  8
SUNPO
 62
   144
100
AcDbLine
 10
4379.5
 20
2000.0
 30
0.0
 11
4379.5
 21
1935.82033191917
 31
0.0
  0
LINE
  5
E35
330
1F
100
AcDbEntity
  8
SUNPO
 62
   144
100
AcDbLine
 10
4118.5
 20
1945.82033191917
 30
0.0
 11
4365.499999999999
 21
1945.82033191917
 31
0.0
  0
SOLID
  5
E36
330
1F
100
AcDbEntity
  8
SUNPO
 62
   144
100
AcDbTrace
 10
4118.5
 20
1948.153665252503
 30
0.0
 11
4118.5
 21
1943.486998585837
 31
0.0
 12
4104.5
 22
1945.82033191917
 32
0.0
 13
4104.5
 23
1945.82033191917
 33
0.0
  0
SOLID
  5
E37
330
1F
100
AcDbEntity
  8
SUNPO
 62
   144
100
AcDbTrace
 10
4365.499999999999
 20
1948.153665252503
 30
0.0
 11
4365.499999999999
 21
1943.486998585837
 31
0.0
 12
4379.5
 22
1945.82033191917
 32
0.0
 13
4379.5
 23
1945.82033191917
 33
0.0
  0
LINE
  5
E39
330
1F
100
AcDbEntity
  8
SUNPO
 62
   144
100
AcDbLine
 10
5260.0
 20
1900.0
 30
0.0
 11
5380.537624357931
 21
1900.0
 31
0.0
  0
LINE
  5
E3A
330
1F
100
AcDbEntity
  8
SUNPO
 62
   144
100
AcDbLine
 10
5260.0
 20
2050.0
 30
0.0
 11
5380.537624357932
 21
2050.0
 31
0.0
  0
LINE
  5
E3B
330
1F
100
AcDbEntity
  8
SUNPO
 62
   144
100
AcDbLine
 10
5370.537624357932
 20
1914.0
 30
0.0
 11
5370.537624357932
 21
2036.0
 31
0.0
  0
SOLID
  5
E3C
330
1F
100
AcDbEntity
  8
SUNPO
 62
   144
100
AcDbTrace
 10
5368.204291024598
 20
1914.0
 30
0.0
 11
5372.870957691264
 21
1914.0
 31
0.0
 12
5370.537624357932
 22
1900.0
 32
0.0
 13
5370.537624357932
 23
1900.0
 33
0.0
  0
SOLID
  5
E3D
330
1F
100
AcDbEntity
  8
SUNPO
 62
   144
100
AcDbTrace
 10
5368.204291024598
 20
2036.0
 30
0.0
 11
5372.870957691264
 21
2036.0
 31
0.0
 12
5370.537624357933
 22
2050.0
 32
0.0
 13
5370.537624357933
 23
2050.0
 33
0.0
  0
LINE
  5
E3F
330
1F
100
AcDbEntity
  8
SUNPO
 62
   144
100
AcDbLine
 10
3220.0
 20
2020.0
 30
0.0
 11
2810.0
 21
2020.0
 31
0.0
  0
LINE
  5
E40
330
1F
100
AcDbEntity
  8
SUNPO
 62
   144
100
AcDbLine
 10
3220.0
 20
2220.0
 30
0.0
 11
2810.0
 21
2220.0
 31
0.0
  0
LINE
  5
E41
330
1F
100
AcDbEntity
  8
SUNPO
 62
   144
100
AcDbLine
 10
2820.0
 20
2034.0
 30
0.0
 11
2820.0
 21
2206.0
 31
0.0
  0
SOLID
  5
E42
330
1F
100
AcDbEntity
  8
SUNPO
 62
   144
100
AcDbTrace
 10
2817.666666666666
 20
2034.0
 30
0.0
 11
2822.333333333333
 21
2034.0
 31
0.0
 12
2820.0
 22
2020.0
 32
0.0
 13
2820.0
 23
2020.0
 33
0.0
  0
SOLID
  5
E43
330
1F
100
AcDbEntity
  8
SUNPO
 62
   144
100
AcDbTrace
 10
2817.666666666666
 20
2206.0
 30
0.0
 11
2822.333333333333
 21
2206.0
 31
0.0
 12
2820.0
 22
2220.0
 32
0.0
 13
2820.0
 23
2220.0
 33
0.0
  0
LINE
  5
E45
330
1F
100
AcDbEntity
  8
SUNPO
 62
   144
100
AcDbLine
 10
3220.0
 20
1900.0
 30
0.0
 11
2810.0
 21
1900.0
 31
0.0
  0
LINE
  5
E46
330
1F
100
AcDbEntity
  8
SUNPO
 62
   144
100
AcDbLine
 10
3220.0
 20
2020.0
 30
0.0
 11
2810.0
 21
2020.0
 31
0.0
  0
LINE
  5
E47
330
1F
100
AcDbEntity
  8
SUNPO
 62
   144
100
AcDbLine
 10
2820.0
 20
1886.0
 30
0.0
 11
2820.0
 21
1872.0
 31
0.0
  0
LINE
  5
E48
330
1F
100
AcDbEntity
  8
SUNPO
 62
   144
100
AcDbLine
 10
2820.0
 20
2034.0
 30
0.0
 11
2820.0
 21
2048.0
 31
0.0
  0
LINE
  5
E49
330
1F
100
AcDbEntity
  8
SUNPO
 62
   144
100
AcDbLine
 10
2820.0
 20
1900.0
 30
0.0
 11
2820.0
 21
2020.0
 31
0.0
  0
SOLID
  5
E4A
330
1F
100
AcDbEntity
  8
SUNPO
 62
   144
100
AcDbTrace
 10
2817.666666666666
 20
1886.0
 30
0.0
 11
2822.333333333333
 21
1886.0
 31
0.0
 12
2820.0
 22
1900.0
 32
0.0
 13
2820.0
 23
1900.0
 33
0.0
  0
SOLID
  5
E4B
330
1F
100
AcDbEntity
  8
SUNPO
 62
   144
100
AcDbTrace
 10
2817.666666666666
 20
2034.0
 30
0.0
 11
2822.333333333333
 21
2034.0
 31
0.0
 12
2820.0
 22
2020.0
 32
0.0
 13
2820.0
 23
2020.0
 33
0.0
  0
LINE
  5
E4D
330
1F
100
AcDbEntity
  8
SUNPO
 62
   144
100
AcDbLine
 10
3240.0
 20
1880.0
 30
0.0
 11
3240.0
 21
1740.0
 31
0.0
  0
LINE
  5
E4E
330
1F
100
AcDbEntity
  8
SUNPO
 62
   144
100
AcDbLine
 10
5240.0
 20
1880.0
 30
0.0
 11
5240.0
 21
1740.0
 31
0.0
  0
LINE
  5
E4F
330
1F
100
AcDbEntity
  8
SUNPO
 62
   144
100
AcDbLine
 10
3254.0
 20
1750.0
 30
0.0
 11
5226.0
 21
1750.0
 31
0.0
  0
SOLID
  5
E50
330
1F
100
AcDbEntity
  8
SUNPO
 62
   144
100
AcDbTrace
 10
3254.0
 20
1752.333333333333
 30
0.0
 11
3254.0
 21
1747.666666666666
 31
0.0
 12
3240.0
 22
1750.0
 32
0.0
 13
3240.0
 23
1750.0
 33
0.0
  0
SOLID
  5
E51
330
1F
100
AcDbEntity
  8
SUNPO
 62
   144
100
AcDbTrace
 10
5226.0
 20
1752.333333333333
 30
0.0
 11
5226.0
 21
1747.666666666666
 31
0.0
 12
5240.0
 22
1750.0
 32
0.0
 13
5240.0
 23
1750.0
 33
0.0
  0
TEXT
  5
E53
330
1F
100
AcDbEntity
  8
MOJI
100
AcDbText
 10
3246.680311730542
 20
359.2274732162223
 30
0.0
 40
70.0
  1
１／２０
  7
ADD
100
AcDbText
  0
TEXT
  5
E54
330
1F
100
AcDbEntity
  8
MOJI
100
AcDbText
 10
381.8862574011546
 20
488.6918916770627
 30
0.0
 40
50.0
  1
製品名
  7
ADD
100
AcDbText
  0
TEXT
  5
E55
330
1F
100
AcDbEntity
  8
MOJI
100
AcDbText
 10
2376.290169028722
 20
494.4531736811823
 30
0.0
 40
50.0
  1
型式
  7
ADD
100
AcDbText
  0
TEXT
  5
E56
330
1F
100
AcDbEntity
  8
MOJI
100
AcDbText
 10
3177.510249231658
 20
488.6918916770627
 30
0.0
 40
50.0
  1
縮尺
  7
ADD
100
AcDbText
  0
TEXT
  5
E57
330
1F
100
AcDbEntity
  8
MOJI
100
AcDbText
 10
3730.870883051572
 20
352.2726133092145
 30
0.0
 40
100.0
  1
千葉県コンクリート製品協同組合
  7
ADD
100
AcDbText
  0
LINE
  5
E58
330
1F
100
AcDbEntity
  8
HOJO
100
AcDbLine
 10
360.0
 20
260.0
 30
0.0
 11
5580.0
 21
260.0
 31
0.0
  0
LINE
  5
E59
330
1F
100
AcDbEntity
  8
HOJO
100
AcDbLine
 10
5580.0
 20
260.0
 30
0.0
 11
5580.0
 21
3940.0
 31
0.0
  0
LINE
  5
E5A
330
1F
100
AcDbEntity
  8
HOJO
100
AcDbLine
 10
5580.0
 20
3940.0
 30
0.0
 11
360.0
 21
3940.0
 31
0.0
  0
LINE
  5
E5B
330
1F
100
AcDbEntity
  8
HOJO
100
AcDbLine
 10
360.0
 20
3940.0
 30
0.0
 11
360.0
 21
260.0
 31
0.0
  0
LINE
  5
E5C
330
1F
100
AcDbEntity
  8
HOJO
100
AcDbLine
 10
0.0
 20
0.0
 30
0.0
 11
5940.0
 21
0.0
 31
0.0
  0
LINE
  5
E5D
330
1F
100
AcDbEntity
  8
HOJO
100
AcDbLine
 10
5940.0
 20
0.0
 30
0.0
 11
5940.0
 21
4200.0
 31
0.0
  0
LINE
  5
E5E
330
1F
100
AcDbEntity
  8
HOJO
100
AcDbLine
 10
5940.0
 20
4200.0
 30
0.0
 11
0.0
 21
4200.0
 31
0.0
  0
LINE
  5
E5F
330
1F
100
AcDbEntity
  8
HOJO
100
AcDbLine
 10
0.0
 20
4200.0
 30
0.0
 11
0.0
 21
0.0
 31
0.0
  0
TEXT
  5
E60
330
1F
100
AcDbEntity
  8
MOJI
 62
     7
100
AcDbText
 10
4144.761904761905
 20
1762.5
 30
0.0
 40
50.0
  1
2000
  7
ADD
100
AcDbText
  0
TEXT
  5
E61
330
1F
100
AcDbEntity
  8
MOJI
 62
     7
100
AcDbText
 10
2807.499999999999
 20
1885.0
 30
0.0
 40
50.0
  1
120
 50
90.0
  7
ADD
100
AcDbText
  0
TEXT
  5
E62
330
1F
100
AcDbEntity
  8
MOJI
 62
     7
100
AcDbText
 10
2807.499999999999
 20
2048.571428571429
 30
0.0
 40
50.0
  1
200
 50
90.0
  7
ADD
100
AcDbText
  0
TEXT
  5
E63
330
1F
100
AcDbEntity
  8
MOJI
 62
     7
100
AcDbText
 10
5358.037624357931
 20
1900.000000000001
 30
0.0
 40
50.0
  1
150
 50
90.0
  7
ADD
100
AcDbText
  0
TEXT
  5
E64
330
1F
100
AcDbEntity
  8
MOJI
 62
     7
100
AcDbText
 10
4170.571428571428
 20
1958.32033191917
 30
0.0
 40
50.0
  1
275
  7
ADD
100
AcDbText
  0
TEXT
  5
E65
330
1F
100
AcDbEntity
  8
MOJI
 62
     7
100
AcDbText
 10
4168.571428571428
 20
2366.578361552821
 30
0.0
 40
50.0
  1
250
  7
ADD
100
AcDbText
  0
TEXT
  5
E66
330
1F
100
AcDbEntity
  8
MOJI
 62
     7
100
AcDbText
 10
3939.906359957404
 20
1995.0
 30
0.0
 40
50.0
  1
100
 50
90.0
  7
ADD
100
AcDbText
  0
TEXT
  5
E67
330
1F
100
AcDbEntity
  8
MOJI
 62
     7
100
AcDbText
 10
4003.44073868312
 20
2095.0
 30
0.0
 40
50.0
  1
100
 50
90.0
  7
ADD
100
AcDbText
  0
TEXT
  5
E68
330
1F
100
AcDbEntity
  8
MOJI
 62
     7
100
AcDbText
 10
4469.634536768583
 20
1987.380952380953
 30
0.0
 40
50.0
  1
30
 50
90.0
  7
ADD
100
AcDbText
  0
TEXT
  5
E69
330
1F
100
AcDbEntity
  8
MOJI
 62
     7
100
AcDbText
 10
4538.944770828457
 20
2025.0
 30
0.0
 40
50.0
  1
100
 50
90.0
  7
ADD
100
AcDbText
  0
TEXT
  5
E6A
330
1F
100
AcDbEntity
  8
MOJI
 62
     7
100
AcDbText
 10
4468.809414577991
 20
2137.380952380952
 30
0.0
 40
50.0
  1
70
 50
90.0
  7
ADD
100
AcDbText
  0
TEXT
  5
E6B
330
1F
100
AcDbEntity
  8
MOJI
 62
     7
100
AcDbText
 10
1618.571428571428
 20
1762.5
 30
0.0
 40
50.0
  1
700
  7
ADD
100
AcDbText
  0
TEXT
  5
E6C
330
1F
100
AcDbEntity
  8
MOJI
 62
     7
100
AcDbText
 10
893.3999865191214
 20
1988.571428571429
 30
0.0
 40
50.0
  1
320
 50
90.0
  7
ADD
100
AcDbText
  0
TEXT
  5
E6D
330
1F
100
AcDbEntity
  8
MOJI
 62
     7
100
AcDbText
 10
1004.914157403252
 20
1885.0
 30
0.0
 40
50.0
  1
120
 50
90.0
  7
ADD
100
AcDbText
  0
TEXT
  5
E6E
330
1F
100
AcDbEntity
  8
MOJI
 62
     7
100
AcDbText
 10
1004.848536977858
 20
2048.571428571429
 30
0.0
 40
50.0
  1
200
 50
90.0
  7
ADD
100
AcDbText
  0
TEXT
  5
E6F
330
1F
100
AcDbEntity
  8
MOJI
 62
     7
100
AcDbText
 10
1171.009127920538
 20
1987.380952380953
 30
0.0
 40
50.0
  1
30
 50
90.0
  7
ADD
100
AcDbText
  0
TEXT
  5
E70
330
1F
100
AcDbEntity
  8
MOJI
 62
     7
100
AcDbText
 10
1088.565149910591
 20
2025.0
 30
0.0
 40
50.0
  1
100
 50
90.0
  7
ADD
100
AcDbText
  0
TEXT
  5
E71
330
1F
100
AcDbEntity
  8
MOJI
 62
     7
100
AcDbText
 10
1169.679393344165
 20
2137.380952380952
 30
0.0
 40
50.0
  1
70
 50
90.0
  7
ADD
100
AcDbText
  0
TEXT
  5
E72
330
1F
100
AcDbEntity
  8
MOJI
 62
     7
100
AcDbText
 10
2216.022443883784
 20
1900.0
 30
0.0
 40
50.0
  1
150
 50
90.0
  7
ADD
100
AcDbText
  0
TEXT
  5
E73
330
1F
100
AcDbEntity
  8
MOJI
 62
     7
100
AcDbText
 10
1618.571428571428
 20
2768.644289155476
 30
0.0
 40
50.0
  1
700
  7
ADD
100
AcDbText
  0
TEXT
  5
E74
330
1F
100
AcDbEntity
  8
MOJI
 62
     7
100
AcDbText
 10
1368.571428571428
 20
2614.499962330528
 30
0.0
 40
50.0
  1
200
  7
ADD
100
AcDbText
  0
TEXT
  5
E75
330
1F
100
AcDbEntity
  8
MOJI
 62
     7
100
AcDbText
 10
1718.571428571428
 20
2614.498228035861
 30
0.0
 40
50.0
  1
500
  7
ADD
100
AcDbText
  0
TEXT
  5
E76
330
1F
100
AcDbEntity
  8
MOJI
 62
     7
100
AcDbText
 10
1267.916666666666
 20
2360.845906732367
 30
0.0
 40
50.0
  1
22.5
  7
ADD
100
AcDbText
  0
TEXT
  5
E77
330
1F
100
AcDbEntity
  8
MOJI
 62
     7
100
AcDbText
 10
1445.416666666666
 20
2359.571269129461
 30
0.0
 40
50.0
  1
22.5
  7
ADD
100
AcDbText
  0
TEXT
  5
E78
330
1F
100
AcDbEntity
  8
MOJI
 62
     7
100
AcDbText
 10
1365.0
 20
2507.42890588641
 30
0.0
 40
50.0
  1
155
  7
ADD
100
AcDbText
  0
TEXT
  5
E79
330
1F
100
AcDbEntity
  8
MOJI
 62
     7
100
AcDbText
 10
1595.498259785827
 20
2272.784392777624
 30
0.0
 40
50.0
  1
R30
 50
32.9327234954525
  7
ADD
100
AcDbText
  0
TEXT
  5
E7A
330
1F
100
AcDbEntity
  8
MOJI
 62
     7
100
AcDbText
 10
1387.783202140087
 20
1830.54200891738
 30
0.0
 40
50.0
  1
R20
 50
53.79403204796075
  7
ADD
100
AcDbText
  0
TEXT
  5
E7B
330
1F
100
AcDbEntity
  8
MOJI
 62
     7
100
AcDbText
 10
1870.179276343936
 20
1997.141084343165
 30
0.0
 40
50.0
  1
100
 50
90.0
  7
ADD
100
AcDbText
  0
TEXT
  5
E7C
330
1F
100
AcDbEntity
  8
MOJI
 62
     7
100
AcDbText
 10
1938.974894721779
 20
1885.0
 30
0.0
 40
50.0
  1
120
 50
90.0
  7
ADD
100
AcDbText
  0
VIEWPORT
  5
72
330
1B
100
AcDbEntity
 67
     1
  8
0
100
AcDbViewport
 10
432.8765700444728
 20
277.0
 30
0.0
 40
955.0553900889456
 41
628.4520000000001
 68
     2
 69
     1
1001
ACAD
1000
MVIEW
1002
{
1070
    16
1010
0.0
1020
0.0
1030
0.0
1010
0.0
1020
0.0
1030
1.0
1040
0.0
1040
628.4520000000001
1040
432.8765700444728
1040
277.0
1040
50.0
1040
0.0
1040
0.0
1070
     0
1070
   100
1070
     1
1070
     1
1070
     0
1070
     0
1070
     0
1070
     0
1040
0.0
1040
0.0
1040
0.0
1040
10.0
1040
10.0
1040
10.0
1040
10.0
1070
     0
1002
{
1002
}
1002
}
  0
VIEWPORT
  5
74
330
1B
100
AcDbEntity
 67
     1
  8
VIEWPORT
100
AcDbViewport
 10
414.3779638919211
 20
277.3177265058034
 30
0.0
 40
840.0353682728887
 41
567.2285469943826
 68
     1
 69
     2
1001
ACAD
1000
MVIEW
1002
{
1070
    16
1010
0.0
1020
0.0
1030
0.0
1010
0.0
1020
0.0
1030
1.0
1040
0.0
1040
579.5583065615566
1040
751.6581915450242
1040
527.8171785337653
1040
50.0
1040
0.0
1040
0.0
1070
     0
1070
   100
1070
     1
1070
     1
1070
     0
1070
     0
1070
     0
1070
     0
1040
0.0
1040
0.0
1040
0.0
1040
10.0
1040
10.0
1040
10.0
1040
10.0
1070
     0
1002
{
1002
}
1002
}
  0
ENDSEC
  0
SECTION
  2
OBJECTS
  0
DICTIONARY
  5
C
330
0
100
AcDbDictionary
  3
ACAD_GROUP
350
D
  3
ACAD_LAYOUT
350
1A
  3
ACAD_MLINESTYLE
350
17
  3
ACAD_PLOTSETTINGS
350
19
  3
DWGPROPS
350
4C7
1001
ACAD
1000
TREAT_AS_HARD
1070
     0
  0
DICTIONARY
  5
B8D
330
1F
100
AcDbDictionary
  3
ACAD_LAYOUTSELFREF
350
E7F
1001
ACAD
1000
TREAT_AS_HARD
1070
     1
  0
DICTIONARY
  5
B8F
330
1B
100
AcDbDictionary
  3
ACAD_LAYOUTSELFREF
350
E7E
1001
ACAD
1000
TREAT_AS_HARD
1070
     1
  0
DICTIONARY
  5
D
102
{ACAD_REACTORS
330
C
102
}
330
C
100
AcDbDictionary
1001
ACAD
1000
TREAT_AS_HARD
1070
     0
  0
DICTIONARY
  5
1A
102
{ACAD_REACTORS
330
C
102
}
330
C
100
AcDbDictionary
1001
ACAD
1000
TREAT_AS_HARD
1070
     0
  0
DICTIONARY
  5
17
102
{ACAD_REACTORS
330
C
102
}
330
C
100
AcDbDictionary
  3
STANDARD
350
18
1001
ACAD
1000
TREAT_AS_HARD
1070
     0
  0
DICTIONARY
  5
19
102
{ACAD_REACTORS
330
C
102
}
330
C
100
AcDbDictionary
1001
ACAD
1000
TREAT_AS_HARD
1070
     0
  0
XRECORD
  5
4C7
102
{ACAD_REACTORS
330
C
102
}
330
C
100
AcDbXrecord
  1
DWGPROPS COOKIE
  2
印刷用テスト
  3
AutoCAD2000による建築設計
  4
鈴木 裕二
  6

  7

  8
U2
  9

300
=
301
=
302
=
303
=
304
=
305
=
306
=
307
=
308
=
309
=
 40
0.7653446875
 41
2451285.4846114
 42
2451333.689743032
  1

 90
        0
  0
XRECORD
  5
E7F
102
{ACAD_REACTORS
330
B8D
102
}
330
B8D
100
AcDbXrecord
340
1F
  0
XRECORD
  5
E7E
102
{ACAD_REACTORS
330
B8F
102
}
330
B8F
100
AcDbXrecord
340
1B
  0
MLINESTYLE
  5
18
102
{ACAD_REACTORS
330
17
102
}
330
17
100
AcDbMlineStyle
  2
STANDARD
 70
     0
  3

 62
   256
 51
90.0
 52
90.0
 71
     2
 49
0.5
 62
   256
  6
BYLAYER
 49
-0.5
 62
   256
  6
BYLAYER
  0
ENDSEC
  0
EOF
