  0
SECTION
  2
HEADER
  9
$ACADVER
  1
AC1012
  9
$DWGCODEPAGE
  3
dos932
  9
$INSBASE
 10
0.0
 20
0.0
 30
0.0
  9
$EXTMIN
 10
0.0
 20
0.0
 30
0.0
  9
$EXTMAX
 10
5940.0
 20
4200.0
 30
0.0
  9
$LIMMIN
 10
0.0
 20
0.0
  9
$LIMMAX
 10
5940.0
 20
4200.0
  9
$ORTHOMODE
 70
     0
  9
$REGENMODE
 70
     1
  9
$FILLMODE
 70
     1
  9
$QTEXTMODE
 70
     0
  9
$MIRRTEXT
 70
     0
  9
$DRAGMODE
 70
     2
  9
$LTSCALE
 40
10.0
  9
$OSMODE
 70
    53
  9
$ATTMODE
 70
     1
  9
$TEXTSIZE
 40
50.0
  9
$TRACEWID
 40
1.0
  9
$TEXTSTYLE
  7
ADD
  9
$CLAYER
  8
SUNPO
  9
$CELTYPE
  6
BYBLOCK
  9
$CECOLOR
 62
     0
  9
$CELTSCALE
 40
1.0
  9
$DELOBJ
 70
     1
  9
$DISPSILH
 70
     0
  9
$DIMSCALE
 40
20.0
  9
$DIMASZ
 40
2.5
  9
$DIMEXO
 40
1.0
  9
$DIMDLI
 40
7.0
  9
$DIMRND
 40
0.0
  9
$DIMDLE
 40
0.0
  9
$DIMEXE
 40
0.5
  9
$DIMTP
 40
0.0
  9
$DIMTM
 40
0.0
  9
$DIMTXT
 40
2.5
  9
$DIMCEN
 40
2.5
  9
$DIMTSZ
 40
0.0
  9
$DIMTOL
 70
     0
  9
$DIMLIM
 70
     0
  9
$DIMTIH
 70
     0
  9
$DIMTOH
 70
     0
  9
$DIMSE1
 70
     0
  9
$DIMSE2
 70
     0
  9
$DIMTAD
 70
     1
  9
$DIMZIN
 70
     8
  9
$DIMBLK
  1

  9
$DIMASO
 70
     1
  9
$DIMSHO
 70
     1
  9
$DIMPOST
  1

  9
$DIMAPOST
  1

  9
$DIMALT
 70
     0
  9
$DIMALTD
 70
     3
  9
$DIMALTF
 40
0.03937007874016
  9
$DIMLFAC
 40
1.0
  9
$DIMTOFL
 70
     1
  9
$DIMTVP
 40
0.7
  9
$DIMTIX
 70
     1
  9
$DIMSOXD
 70
     0
  9
$DIMSAH
 70
     0
  9
$DIMBLK1
  1

  9
$DIMBLK2
  1

  9
$DIMSTYLE
  2
ADD
  9
$DIMCLRD
 70
   144
  9
$DIMCLRE
 70
   144
  9
$DIMCLRT
 70
     7
  9
$DIMTFAC
 40
1.0
  9
$DIMGAP
 40
0.625
  9
$DIMJUST
 70
     0
  9
$DIMSD1
 70
     0
  9
$DIMSD2
 70
     0
  9
$DIMTOLJ
 70
     2
  9
$DIMTZIN
 70
     8
  9
$DIMALTZ
 70
     0
  9
$DIMALTTZ
 70
     0
  9
$DIMFIT
 70
     3
  9
$DIMUPT
 70
     0
  9
$DIMUNIT
 70
     2
  9
$DIMDEC
 70
     1
  9
$DIMTDEC
 70
     1
  9
$DIMALTU
 70
     2
  9
$DIMALTTD
 70
     3
  9
$DIMTXSTY
  7
ADD
  9
$DIMAUNIT
 70
     0
  9
$LUNITS
 70
     2
  9
$LUPREC
 70
     4
  9
$SKETCHINC
 40
1.0
  9
$FILLETRAD
 40
0.0
  9
$AUNITS
 70
     0
  9
$AUPREC
 70
     1
  9
$MENU
  1
.
  9
$ELEVATION
 40
0.0
  9
$PELEVATION
 40
0.0
  9
$THICKNESS
 40
0.0
  9
$LIMCHECK
 70
     0
  9
$BLIPMODE
 70
     0
  9
$CHAMFERA
 40
10.0
  9
$CHAMFERB
 40
10.0
  9
$CHAMFERC
 40
20.0
  9
$CHAMFERD
 40
0.0
  9
$SKPOLY
 70
     0
  9
$TDCREATE
 40
2451801.142532870
  9
$TDUPDATE
 40
2452523.643428391
  9
$TDINDWG
 40
0.3340484838
  9
$TDUSRTIMER
 40
0.3340484838
  9
$USRTIMER
 70
     1
  9
$ANGBASE
 50
0.0
  9
$ANGDIR
 70
     0
  9
$PDMODE
 70
     0
  9
$PDSIZE
 40
0.0
  9
$PLINEWID
 40
0.0
  9
$COORDS
 70
     1
  9
$SPLFRAME
 70
     0
  9
$SPLINETYPE
 70
     6
  9
$SPLINESEGS
 70
     8
  9
$ATTDIA
 70
     0
  9
$ATTREQ
 70
     1
  9
$HANDLING
 70
 22529
  9
$HANDSEED
  5
D19
  9
$SURFTAB1
 70
     6
  9
$SURFTAB2
 70
     6
  9
$SURFTYPE
 70
     6
  9
$SURFU
 70
     6
  9
$SURFV
 70
     6
  9
$UCSNAME
  2

  9
$UCSORG
 10
0.0
 20
0.0
 30
0.0
  9
$UCSXDIR
 10
1.0
 20
0.0
 30
0.0
  9
$UCSYDIR
 10
0.0
 20
1.0
 30
0.0
  9
$PUCSNAME
  2

  9
$PUCSORG
 10
0.0
 20
0.0
 30
0.0
  9
$PUCSXDIR
 10
1.0
 20
0.0
 30
0.0
  9
$PUCSYDIR
 10
0.0
 20
1.0
 30
0.0
  9
$USERI1
 70
     0
  9
$USERI2
 70
     0
  9
$USERI3
 70
     0
  9
$USERI4
 70
     0
  9
$USERI5
 70
     0
  9
$USERR1
 40
841.0
  9
$USERR2
 40
594.0
  9
$USERR3
 40
1.0
  9
$USERR4
 40
0.0
  9
$USERR5
 40
0.0
  9
$WORLDVIEW
 70
     1
  9
$SHADEDGE
 70
     3
  9
$SHADEDIF
 70
    70
  9
$TILEMODE
 70
     1
  9
$MAXACTVP
 70
    48
  9
$PINSBASE
 10
0.0
 20
0.0
 30
0.0
  9
$PLIMCHECK
 70
     0
  9
$PEXTMIN
 10
-5.662975978526673
 20
-6.331907780761866
 30
-0.0015258207003583
  9
$PEXTMAX
 10
834.4213426047982
 20
560.9663709967471
 30
0.0000000349246037
  9
$PLIMMIN
 10
-7.5
 20
-20.0
  9
$PLIMMAX
 10
833.5000000000004
 20
574.0000000000001
  9
$UNITMODE
 70
     0
  9
$VISRETAIN
 70
     1
  9
$PLINEGEN
 70
     0
  9
$PSLTSCALE
 70
     1
  9
$TREEDEPTH
 70
  3020
  9
$PICKSTYLE
 70
     1
  9
$CMLSTYLE
  2
STANDARD
  9
$CMLJUST
 70
     0
  9
$CMLSCALE
 40
20.0
  9
$SAVEIMAGES
 70
     1
  0
ENDSEC
  0
SECTION
  2
CLASSES
  0
CLASS
  1
ACDBDICTIONARYWDFLT
  2
AcDbDictionaryWithDefault
  3
AutoCAD 2000
 90
    32768
280
     0
281
     0
  0
CLASS
  1
ACDBPLACEHOLDER
  2
AcDbPlaceHolder
  3
AutoCAD 2000
 90
    32768
280
     0
281
     0
  0
CLASS
  1
LAYOUT
  2
AcDbLayout
  3
AutoCAD 2000
 90
    32768
280
     0
281
     0
  0
CLASS
  1
RTEXT
  2
RText
  3
RText|AutoCAD Express Tool|expresstools@autodesk.com
 90
    32768
280
     0
281
     1
  0
CLASS
  1
DICTIONARYVAR
  2
AcDbDictionaryVar
  3
AutoCAD 2000
 90
    32768
280
     0
281
     0
  0
CLASS
  1
LONG_TRANSACTION
  2
AcDbLongTransaction
  3
AutoCAD 2000
 90
    32768
280
     0
281
     0
  0
CLASS
  1
LWPOLYLINE
  2
AcDbPolyline
  3
AutoCAD 2000
 90
    32768
280
     0
281
     1
  0
CLASS
  1
HATCH
  2
AcDbHatch
  3
AutoCAD 2000
 90
    32768
280
     0
281
     1
  0
CLASS
  1
XRECORD
  2
AcDbXrecord
  3
AutoCAD 2000
 90
    32768
280
     0
281
     0
  0
CLASS
  1
LONG_TRANSACTION
  2
AcDbLongTransaction
  3
AutoCAD 2000
 90
    32768
280
     0
281
     0
  0
CLASS
  1
LWPOLYLINE
  2
AcDbPolyline
  3
AutoCAD 2000
 90
    32768
280
     0
281
     1
  0
CLASS
  1
HATCH
  2
AcDbHatch
  3
AutoCAD 2000
 90
    32768
280
     0
281
     1
  0
CLASS
  1
XRECORD
  2
AcDbXrecord
  3
AutoCAD 2000
 90
    32768
280
     0
281
     0
  0
CLASS
  1
LONG_TRANSACTION
  2
AcDbLongTransaction
  3
AutoCAD 2000
 90
    32768
280
     0
281
     0
  0
CLASS
  1
LWPOLYLINE
  2
AcDbPolyline
  3
AutoCAD 2000
 90
    32768
280
     0
281
     1
  0
CLASS
  1
HATCH
  2
AcDbHatch
  3
AutoCAD 2000
 90
    32768
280
     0
281
     1
  0
CLASS
  1
XRECORD
  2
AcDbXrecord
  3
AutoCAD 2000
 90
    32768
280
     0
281
     0
  0
CLASS
  1
LONG_TRANSACTION
  2
AcDbLongTransaction
  3
AutoCAD 2000
 90
    32768
280
     0
281
     0
  0
CLASS
  1
LWPOLYLINE
  2
AcDbPolyline
  3
AutoCAD 2000
 90
    32768
280
     0
281
     1
  0
CLASS
  1
HATCH
  2
AcDbHatch
  3
AutoCAD 2000
 90
    32768
280
     0
281
     1
  0
CLASS
  1
XRECORD
  2
AcDbXrecord
  3
AutoCAD 2000
 90
    32768
280
     0
281
     0
  0
ENDSEC
  0
SECTION
  2
TABLES
  0
TABLE
  2
VPORT
  5
8
330
0
100
AcDbSymbolTable
 70
     2
  0
VPORT
  5
D09
330
8
100
AcDbSymbolTableRecord
100
AcDbViewportTableRecord
  2
*ACTIVE
 70
     0
 10
0.0
 20
0.0
 11
1.0
 21
1.0
 12
3091.886124638205
 22
2107.069038915749
 13
0.0
 23
0.0
 14
10.0
 24
10.0
 15
10.0
 25
10.0
 16
0.0
 26
0.0
 36
1.0
 17
0.0
 27
0.0
 37
0.0
 40
4248.086251077749
 41
1.673805601317957
 42
50.0
 43
0.0
 44
0.0
 50
0.0
 51
0.0
 71
     0
 72
   100
 73
     1
 74
     1
 75
     0
 76
     0
 77
     0
 78
     0
  0
ENDTAB
  0
TABLE
  2
LTYPE
  5
5
330
0
100
AcDbSymbolTable
 70
     5
  0
LTYPE
  5
14
330
5
100
AcDbSymbolTableRecord
100
AcDbLinetypeTableRecord
  2
BYBLOCK
 70
     0
  3

 72
    65
 73
     0
 40
0.0
  0
LTYPE
  5
15
330
5
100
AcDbSymbolTableRecord
100
AcDbLinetypeTableRecord
  2
BYLAYER
 70
     0
  3

 72
    65
 73
     0
 40
0.0
  0
LTYPE
  5
16
330
5
100
AcDbSymbolTableRecord
100
AcDbLinetypeTableRecord
  2
CONTINUOUS
 70
     0
  3
Solid line
 72
    65
 73
     0
 40
0.0
  0
LTYPE
  5
555
330
5
100
AcDbSymbolTableRecord
100
AcDbLinetypeTableRecord
  2
CENTER
 70
     0
  3
Center ____ _ ____ _ ____ _ ____ _ ____ _ ____
 72
    65
 73
     4
 40
50.8
 49
31.75
 74
     0
 49
-6.349999999999998
 74
     0
 49
6.349999999999998
 74
     0
 49
-6.349999999999998
 74
     0
  0
LTYPE
  5
556
330
5
100
AcDbSymbolTableRecord
100
AcDbLinetypeTableRecord
  2
HIDDEN
 70
     0
  3
Hidden __ __ __ __ __ __ __ __ __ __ __ __ __ _
 72
    65
 73
     2
 40
9.524999999999996
 49
6.349999999999998
 74
     0
 49
-3.174999999999998
 74
     0
  0
LTYPE
  5
557
330
5
100
AcDbSymbolTableRecord
100
AcDbLinetypeTableRecord
  2
HIDDEN2
 70
     0
  3
Hidden (.5x) _ _ _ _ _ _ _ _ _ _ _ _ _ _ _ _ _
 72
    65
 73
     2
 40
4.762499999999998
 49
3.174999999999998
 74
     0
 49
-1.587499999999999
 74
     0
  0
LTYPE
  5
558
330
5
100
AcDbSymbolTableRecord
100
AcDbLinetypeTableRecord
  2
PHANTOM
 70
     0
  3
Phantom ______  __  __  ______  __  __  ______
 72
    65
 73
     6
 40
63.5
 49
31.75
 74
     0
 49
-6.349999999999998
 74
     0
 49
6.349999999999998
 74
     0
 49
-6.349999999999998
 74
     0
 49
6.349999999999998
 74
     0
 49
-6.349999999999998
 74
     0
  0
ENDTAB
  0
TABLE
  2
LAYER
  5
2
330
0
100
AcDbSymbolTable
 70
    22
  0
LAYER
  5
10
330
2
100
AcDbSymbolTableRecord
100
AcDbLayerTableRecord
  2
0
 70
     0
 62
     7
  6
CONTINUOUS
  0
LAYER
  5
75
330
2
100
AcDbSymbolTableRecord
100
AcDbLayerTableRecord
  2
VIEWPORT
 70
     0
 62
     1
  6
CONTINUOUS
  0
LAYER
  5
504
330
2
100
AcDbSymbolTableRecord
100
AcDbLayerTableRecord
  2
DEFPOINTS
 70
     0
 62
     7
  6
CONTINUOUS
  0
LAYER
  5
505
330
2
100
AcDbSymbolTableRecord
100
AcDbLayerTableRecord
  2
1C1
 70
     0
 62
   254
  6
CONTINUOUS
  0
LAYER
  5
506
330
2
100
AcDbSymbolTableRecord
100
AcDbLayerTableRecord
  2
1C2
 70
     0
 62
   254
  6
CONTINUOUS
  0
LAYER
  5
507
330
2
100
AcDbSymbolTableRecord
100
AcDbLayerTableRecord
  2
2C1
 70
     0
 62
   144
  6
CONTINUOUS
  0
LAYER
  5
508
330
2
100
AcDbSymbolTableRecord
100
AcDbLayerTableRecord
  2
2C2
 70
     0
 62
   144
  6
CONTINUOUS
  0
LAYER
  5
509
330
2
100
AcDbSymbolTableRecord
100
AcDbLayerTableRecord
  2
2H1
 70
     0
 62
   144
  6
HIDDEN
  0
LAYER
  5
50A
330
2
100
AcDbSymbolTableRecord
100
AcDbLayerTableRecord
  2
2H2
 70
     0
 62
   144
  6
HIDDEN2
  0
LAYER
  5
50B
330
2
100
AcDbSymbolTableRecord
100
AcDbLayerTableRecord
  2
2P1
 70
     0
 62
   144
  6
PHANTOM
  0
LAYER
  5
50C
330
2
100
AcDbSymbolTableRecord
100
AcDbLayerTableRecord
  2
3C1
 70
     0
 62
     7
  6
CONTINUOUS
  0
LAYER
  5
50D
330
2
100
AcDbSymbolTableRecord
100
AcDbLayerTableRecord
  2
3C2
 70
     0
 62
     7
  6
CONTINUOUS
  0
LAYER
  5
50E
330
2
100
AcDbSymbolTableRecord
100
AcDbLayerTableRecord
  2
3C3
 70
     0
 62
     7
  6
CONTINUOUS
  0
LAYER
  5
50F
330
2
100
AcDbSymbolTableRecord
100
AcDbLayerTableRecord
  2
4H1
 70
     0
 62
     6
  6
HIDDEN
  0
LAYER
  5
510
330
2
100
AcDbSymbolTableRecord
100
AcDbLayerTableRecord
  2
4H2
 70
     0
 62
     6
  6
HIDDEN2
  0
LAYER
  5
511
330
2
100
AcDbSymbolTableRecord
100
AcDbLayerTableRecord
  2
5C1
 70
     0
 62
    55
  6
CONTINUOUS
  0
LAYER
  5
512
330
2
100
AcDbSymbolTableRecord
100
AcDbLayerTableRecord
  2
5C2
 70
     0
 62
    55
  6
CONTINUOUS
  0
LAYER
  5
513
330
2
100
AcDbSymbolTableRecord
100
AcDbLayerTableRecord
  2
8C1
 70
     0
 62
    92
  6
CONTINUOUS
  0
LAYER
  5
514
330
2
100
AcDbSymbolTableRecord
100
AcDbLayerTableRecord
  2
HOJO
 70
     0
 62
     5
  6
CONTINUOUS
  0
LAYER
  5
515
330
2
100
AcDbSymbolTableRecord
100
AcDbLayerTableRecord
  2
KIJUN
 70
     0
 62
     1
  6
CENTER
  0
LAYER
  5
516
330
2
100
AcDbSymbolTableRecord
100
AcDbLayerTableRecord
  2
MOJI
 70
     0
 62
     7
  6
CONTINUOUS
  0
LAYER
  5
517
330
2
100
AcDbSymbolTableRecord
100
AcDbLayerTableRecord
  2
SUNPO
 70
     0
 62
   144
  6
CONTINUOUS
  0
ENDTAB
  0
TABLE
  2
STYLE
  5
3
330
0
100
AcDbSymbolTable
 70
     6
  0
STYLE
  5
11
330
3
100
AcDbSymbolTableRecord
100
AcDbTextStyleTableRecord
  2
STANDARD
 70
     0
 40
0.0
 41
1.0
 50
0.0
 71
     0
 42
2.5
  3
txt
  4

  0
STYLE
  5
2C
330
3
100
AcDbSymbolTableRecord
100
AcDbTextStyleTableRecord
  2

 70
     1
 40
0.0
 41
1.0
 50
0.0
 71
     0
 42
2.5
  3
ltypeshp.shx
  4

  0
STYLE
  5
18E
330
3
100
AcDbSymbolTableRecord
100
AcDbTextStyleTableRecord
  2
ADD
 70
     0
 40
0.0
 41
1.0
 50
0.0
 71
     0
 42
50.0
  3
romans.shx
  4
bigfont.shx
  0
STYLE
  5
191
330
3
100
AcDbSymbolTableRecord
100
AcDbTextStyleTableRecord
  2
MSG
 70
     0
 40
0.0
 41
1.0
 50
0.0
 71
     0
 42
2.5
  3
MS Gothic.ttf
  4

1001
ACAD
1000
MS Gothic
1071
    32817
  0
STYLE
  5
5C8
330
3
100
AcDbSymbolTableRecord
100
AcDbTextStyleTableRecord
  2
STANDARD15
 70
     0
 40
0.0
 41
1.0
 50
15.0
 71
     0
 42
2.5
  3
ROMANS
  4
bigfont
  0
STYLE
  5
5C9
330
3
100
AcDbSymbolTableRecord
100
AcDbTextStyleTableRecord
  2
ROMANS15
 70
     0
 40
0.0
 41
1.0
 50
15.0
 71
     0
 42
2.5
  3
romans
  4

  0
ENDTAB
  0
TABLE
  2
VIEW
  5
6
330
0
100
AcDbSymbolTable
 70
     1
  0
VIEW
  5
54D
330
6
100
AcDbSymbolTableRecord
100
AcDbViewTableRecord
  2
ALL
 70
     0
 40
594.0
 10
420.5
 20
297.0
 41
865.125
 11
0.0
 21
0.0
 31
1.0
 12
0.0
 22
0.0
 32
0.0
 42
50.0
 43
0.0
 44
0.0
 50
0.0
 71
     0
  0
ENDTAB
  0
TABLE
  2
UCS
  5
7
330
0
100
AcDbSymbolTable
 70
     0
  0
ENDTAB
  0
TABLE
  2
APPID
  5
9
330
0
100
AcDbSymbolTable
 70
     4
  0
APPID
  5
12
330
9
100
AcDbSymbolTableRecord
100
AcDbRegAppTableRecord
  2
ACAD
 70
     0
  0
APPID
  5
5CB
330
9
100
AcDbSymbolTableRecord
100
AcDbRegAppTableRecord
  2
ARAIGUMI_YOHEKI
 70
     0
  0
APPID
  5
5CC
330
9
100
AcDbSymbolTableRecord
100
AcDbRegAppTableRecord
  2
CONTENTTABDATA
 70
     0
  0
APPID
  5
5CD
330
9
100
AcDbSymbolTableRecord
100
AcDbRegAppTableRecord
  2
CONTENTCURRENTTAB
 70
     0
  0
ENDTAB
  0
TABLE
  2
DIMSTYLE
  5
A
330
0
100
AcDbSymbolTable
 70
    10
  0
DIMSTYLE
105
27
330
A
100
AcDbSymbolTableRecord
100
AcDbDimStyleTableRecord
  2
ISO-25
 70
     0
  3

  4

  5

  6

  7

 40
1.0
 41
2.5
 42
0.625
 43
3.75
 44
1.25
 45
0.0
 46
0.0
 47
0.0
 48
0.0
140
2.5
141
2.5
142
0.0
143
0.03937007874016
144
1.0
145
0.0
146
1.0
147
0.625
 71
     0
 72
     0
 73
     0
 74
     0
 75
     0
 76
     0
 77
     1
 78
     8
170
     0
171
     3
172
     1
173
     0
174
     0
175
     0
176
     0
177
     0
178
     0
270
     2
271
     2
272
     2
273
     2
274
     3
340
11
275
     0
280
     0
281
     0
282
     0
283
     0
284
     8
285
     0
286
     0
287
     3
288
     0
  0
DIMSTYLE
105
197
330
A
100
AcDbSymbolTableRecord
100
AcDbDimStyleTableRecord
  2
ADD
 70
     0
  3

  4

  5

  6

  7

 40
1.0
 41
2.5
 42
1.0
 43
7.0
 44
0.5
 45
0.0
 46
0.0
 47
0.0
 48
0.0
140
2.5
141
2.5
142
0.0
143
0.03937007874016
144
1.0
145
0.7
146
1.0
147
0.625
 71
     0
 72
     0
 73
     0
 74
     0
 75
     0
 76
     0
 77
     1
 78
     8
170
     0
171
     3
172
     1
173
     0
174
     1
175
     0
176
   144
177
   144
178
     7
270
     2
271
     1
272
     1
273
     2
274
     3
340
18E
275
     0
280
     0
281
     0
282
     0
283
     2
284
     8
285
     0
286
     0
287
     3
288
     0
  0
DIMSTYLE
105
3E6
330
A
100
AcDbSymbolTableRecord
100
AcDbDimStyleTableRecord
  2
ADD$2
 70
     0
  3

  4

  5

  6

  7

 40
1.0
 41
2.5
 42
1.0
 43
7.0
 44
0.5
 45
0.0
 46
0.0
 47
0.0
 48
0.0
140
2.5
141
2.5
142
0.0
143
0.03937007874016
144
1.0
145
0.7
146
1.0
147
0.625
 71
     0
 72
     0
 73
     0
 74
     0
 75
     0
 76
     0
 77
     1
 78
     8
170
     0
171
     3
172
     1
173
     0
174
     1
175
     0
176
   144
177
   144
178
     7
270
     2
271
     1
272
     1
273
     2
274
     3
340
18E
275
     0
280
     0
281
     0
282
     0
283
     2
284
     8
285
     0
286
     0
287
     3
288
     0
  0
DIMSTYLE
105
3E7
330
A
100
AcDbSymbolTableRecord
100
AcDbDimStyleTableRecord
  2
ADD$4
 70
     0
  3

  4

  5

  6

  7

 40
1.0
 41
2.5
 42
1.0
 43
7.0
 44
0.5
 45
0.0
 46
0.0
 47
0.0
 48
0.0
140
2.5
141
2.5
142
0.0
143
0.03937007874016
144
1.0
145
0.0
146
1.0
147
0.625
 71
     0
 72
     0
 73
     0
 74
     0
 75
     0
 76
     0
 77
     1
 78
     8
170
     0
171
     3
172
     1
173
     0
174
     1
175
     0
176
   144
177
   144
178
     7
270
     2
271
     1
272
     1
273
     2
274
     3
340
18E
275
     0
280
     0
281
     0
282
     0
283
     2
284
     8
285
     0
286
     0
287
     3
288
     0
  0
DIMSTYLE
105
3E8
330
A
100
AcDbSymbolTableRecord
100
AcDbDimStyleTableRecord
  2
ADD$3
 70
     0
  3

  4

  5

  6

  7

 40
1.0
 41
2.5
 42
1.0
 43
7.0
 44
0.5
 45
0.0
 46
0.0
 47
0.0
 48
0.0
140
2.5
141
2.5
142
0.0
143
0.03937007874016
144
1.0
145
0.0
146
1.0
147
0.625
 71
     0
 72
     0
 73
     0
 74
     0
 75
     0
 76
     0
 77
     1
 78
     8
170
     0
171
     3
172
     1
173
     0
174
     1
175
     0
176
   144
177
   144
178
     7
270
     2
271
     1
272
     1
273
     2
274
     3
340
18E
275
     0
280
     0
281
     0
282
     0
283
     2
284
     8
285
     0
286
     0
287
     3
288
     0
  0
DIMSTYLE
105
3E9
330
A
100
AcDbSymbolTableRecord
100
AcDbDimStyleTableRecord
  2
ADD$6
 70
     0
  3

  4

  5

  6

  7

 40
1.0
 41
2.5
 42
1.0
 43
7.0
 44
0.5
 45
0.0
 46
0.0
 47
0.0
 48
0.0
140
2.5
141
2.5
142
0.0
143
0.03937007874016
144
1.0
145
0.0
146
1.0
147
0.625
 71
     0
 72
     0
 73
     0
 74
     0
 75
     0
 76
     0
 77
     1
 78
     8
170
     0
171
     3
172
     1
173
     0
174
     1
175
     0
176
   144
177
   144
178
     7
270
     2
271
     1
272
     1
273
     2
274
     3
340
18E
275
     0
280
     0
281
     0
282
     0
283
     2
284
     8
285
     0
286
     0
287
     3
288
     0
  0
DIMSTYLE
105
3EA
330
A
100
AcDbSymbolTableRecord
100
AcDbDimStyleTableRecord
  2
ADD$7
 70
     0
  3

  4

  5

  6

  7

 40
1.0
 41
2.5
 42
1.0
 43
7.0
 44
0.5
 45
0.0
 46
0.0
 47
0.0
 48
0.0
140
2.5
141
2.5
142
0.0
143
0.03937007874016
144
1.0
145
0.0
146
1.0
147
0.625
 71
     0
 72
     0
 73
     0
 74
     0
 75
     0
 76
     0
 77
     0
 78
     8
170
     0
171
     3
172
     1
173
     0
174
     1
175
     0
176
   144
177
   144
178
     7
270
     2
271
     1
272
     1
273
     2
274
     3
340
18E
275
     0
280
     0
281
     0
282
     0
283
     2
284
     8
285
     0
286
     0
287
     3
288
     0
  0
DIMSTYLE
105
518
330
A
100
AcDbSymbolTableRecord
100
AcDbDimStyleTableRecord
  2
STANDARD
 70
     0
  3

  4

  5

  6

  7

 40
1.0
 41
0.18
 42
0.0625
 43
0.38
 44
0.18
 45
0.0
 46
0.0
 47
0.0
 48
0.0
140
0.18
141
0.09
142
0.0
143
25.4
144
1.0
145
0.0
146
1.0
147
0.09
 71
     0
 72
     0
 73
     1
 74
     1
 75
     0
 76
     0
 77
     0
 78
     0
170
     0
171
     2
172
     0
173
     0
174
     0
175
     0
176
     0
177
     0
178
     0
270
     2
271
     4
272
     4
273
     2
274
     2
340
11
275
     0
280
     0
281
     0
282
     0
283
     1
284
     0
285
     0
286
     0
287
     3
288
     0
  0
DIMSTYLE
105
550
330
A
100
AcDbSymbolTableRecord
100
AcDbDimStyleTableRecord
  2
ADD$0
 70
     0
  3

  4

  5

  6

  7

 40
1.0
 41
0.7
 42
1.0
 43
7.0
 44
0.5
 45
0.0
 46
0.0
 47
0.0
 48
0.0
140
2.5
141
2.5
142
0.0
143
0.03937007874016
144
1.0
145
0.7
146
1.0
147
0.625
 71
     0
 72
     0
 73
     0
 74
     0
 75
     0
 76
     0
 77
     1
 78
     8
170
     0
171
     3
172
     1
173
     0
174
     1
175
     0
176
   144
177
   144
178
     7
270
     2
271
     1
272
     1
273
     2
274
     3
340
18E
275
     0
280
     0
281
     0
282
     0
283
     2
284
     8
285
     0
286
     0
287
     3
288
     0
  0
DIMSTYLE
105
59B
330
A
100
AcDbSymbolTableRecord
100
AcDbDimStyleTableRecord
  2
ADD_M
 70
     0
  3

  4

  5

  6

  7

 40
1.0
 41
2.5
 42
1.0
 43
7.0
 44
0.5
 45
0.0
 46
0.0
 47
0.0
 48
0.0
140
2.5
141
2.5
142
0.0
143
0.03937007874016
144
1.0
145
0.7
146
1.0
147
0.625
 71
     0
 72
     0
 73
     0
 74
     0
 75
     0
 76
     0
 77
     1
 78
     8
170
     0
171
     3
172
     1
173
     0
174
     1
175
     0
176
   144
177
   144
178
     7
270
     2
271
     1
272
     1
273
     2
274
     3
340
18E
275
     0
280
     0
281
     0
282
     0
283
     2
284
     8
285
     0
286
     0
287
     3
288
     0
  0
ENDTAB
  0
TABLE
  2
BLOCK_RECORD
  5
1
330
0
100
AcDbSymbolTable
 70
    16
  0
BLOCK_RECORD
  5
1F
102
{ACAD_XDICTIONARY
360
ACF
102
}
330
1
100
AcDbSymbolTableRecord
100
AcDbBlockTableRecord
  2
*MODEL_SPACE
  0
BLOCK_RECORD
  5
1B
102
{ACAD_XDICTIONARY
360
AD1
102
}
330
1
100
AcDbSymbolTableRecord
100
AcDbBlockTableRecord
  2
*PAPER_SPACE
  0
BLOCK_RECORD
  5
192
330
1
100
AcDbSymbolTableRecord
100
AcDbBlockTableRecord
  2
_DOT
  0
BLOCK_RECORD
  5
5CE
330
1
100
AcDbSymbolTableRecord
100
AcDbBlockTableRecord
  2
A4
  0
BLOCK_RECORD
  5
760
330
1
100
AcDbSymbolTableRecord
100
AcDbBlockTableRecord
  2
*D2
  0
BLOCK_RECORD
  5
76D
330
1
100
AcDbSymbolTableRecord
100
AcDbBlockTableRecord
  2
*D3
  0
BLOCK_RECORD
  5
77B
330
1
100
AcDbSymbolTableRecord
100
AcDbBlockTableRecord
  2
*D4
  0
BLOCK_RECORD
  5
788
330
1
100
AcDbSymbolTableRecord
100
AcDbBlockTableRecord
  2
*D5
  0
BLOCK_RECORD
  5
797
330
1
100
AcDbSymbolTableRecord
100
AcDbBlockTableRecord
  2
*D6
  0
BLOCK_RECORD
  5
7A4
330
1
100
AcDbSymbolTableRecord
100
AcDbBlockTableRecord
  2
*D7
  0
BLOCK_RECORD
  5
7B1
330
1
100
AcDbSymbolTableRecord
100
AcDbBlockTableRecord
  2
*D8
  0
BLOCK_RECORD
  5
7BE
330
1
100
AcDbSymbolTableRecord
100
AcDbBlockTableRecord
  2
*D9
  0
BLOCK_RECORD
  5
7CB
330
1
100
AcDbSymbolTableRecord
100
AcDbBlockTableRecord
  2
*D10
  0
BLOCK_RECORD
  5
7DA
330
1
100
AcDbSymbolTableRecord
100
AcDbBlockTableRecord
  2
*D11
  0
BLOCK_RECORD
  5
90B
330
1
100
AcDbSymbolTableRecord
100
AcDbBlockTableRecord
  2
*D12
  0
BLOCK_RECORD
  5
9AA
330
1
100
AcDbSymbolTableRecord
100
AcDbBlockTableRecord
  2
*D13
  0
BLOCK_RECORD
  5
A00
330
1
100
AcDbSymbolTableRecord
100
AcDbBlockTableRecord
  2
*D14
  0
BLOCK_RECORD
  5
B58
330
1
100
AcDbSymbolTableRecord
100
AcDbBlockTableRecord
  2
*D15
  0
ENDTAB
  0
ENDSEC
  0
SECTION
  2
BLOCKS
  0
BLOCK
  5
20
330
1F
100
AcDbEntity
  8
0
100
AcDbBlockBegin
  2
*MODEL_SPACE
 70
     0
 10
0.0
 20
0.0
 30
0.0
  3
*MODEL_SPACE
  1

  0
ENDBLK
  5
21
330
1F
100
AcDbEntity
  8
0
100
AcDbBlockEnd
  0
BLOCK
  5
1C
330
1B
100
AcDbEntity
 67
     1
  8
0
100
AcDbBlockBegin
  2
*PAPER_SPACE
 70
     0
 10
0.0
 20
0.0
 30
0.0
  3
*PAPER_SPACE
  1

  0
ENDBLK
  5
1D
330
1B
100
AcDbEntity
 67
     1
  8
0
100
AcDbBlockEnd
  0
BLOCK
  5
195
330
192
100
AcDbEntity
  8
0
100
AcDbBlockBegin
  2
_DOT
 70
     0
 10
0.0
 20
0.0
 30
0.0
  3
_DOT
  1

  0
POLYLINE
  5
193
330
192
100
AcDbEntity
  8
0
 62
     0
100
AcDb2dPolyline
 66
     1
 10
0.0
 20
0.0
 30
0.0
 70
     1
 40
0.5
 41
0.5
  0
VERTEX
  5
D0C
330
193
100
AcDbEntity
  8
0
 62
     0
100
AcDbVertex
100
AcDb2dVertex
 10
-0.25
 20
0.0
 30
0.0
 42
1.0
  0
VERTEX
  5
D0D
330
193
100
AcDbEntity
  8
0
 62
     0
100
AcDbVertex
100
AcDb2dVertex
 10
0.25
 20
0.0
 30
0.0
 42
1.0
  0
SEQEND
  5
D0E
330
193
100
AcDbEntity
  8
0
 62
     0
  0
LINE
  5
194
330
192
100
AcDbEntity
  8
0
 62
     0
100
AcDbLine
 10
-0.5
 20
0.0
 30
0.0
 11
-1.0
 21
0.0
 31
0.0
  0
ENDBLK
  5
196
330
192
100
AcDbEntity
  8
0
100
AcDbBlockEnd
  0
BLOCK
  5
5D1
330
5CE
100
AcDbEntity
  8
0
100
AcDbBlockBegin
  2
A4
 70
     0
 10
0.0
 20
0.0
 30
0.0
  3
A4
  1

  0
POLYLINE
  5
5CF
330
5CE
100
AcDbEntity
  8
HOJO
100
AcDb2dPolyline
 66
     1
 10
0.0
 20
0.0
 30
0.0
 70
     1
  0
VERTEX
  5
D0F
330
5CF
100
AcDbEntity
  8
HOJO
100
AcDbVertex
100
AcDb2dVertex
 10
0.0
 20
0.0
 30
0.0
  0
VERTEX
  5
D10
330
5CF
100
AcDbEntity
  8
HOJO
100
AcDbVertex
100
AcDb2dVertex
 10
297.0
 20
0.0
 30
0.0
  0
VERTEX
  5
D11
330
5CF
100
AcDbEntity
  8
HOJO
100
AcDbVertex
100
AcDb2dVertex
 10
297.0
 20
210.0
 30
0.0
  0
VERTEX
  5
D12
330
5CF
100
AcDbEntity
  8
HOJO
100
AcDbVertex
100
AcDb2dVertex
 10
0.0
 20
210.0
 30
0.0
  0
SEQEND
  5
D13
330
5CF
100
AcDbEntity
  8
HOJO
  0
POLYLINE
  5
5D0
330
5CE
100
AcDbEntity
  8
HOJO
100
AcDb2dPolyline
 66
     1
 10
0.0
 20
0.0
 30
0.0
 70
     1
  0
VERTEX
  5
D14
330
5D0
100
AcDbEntity
  8
HOJO
100
AcDbVertex
100
AcDb2dVertex
 10
18.0
 20
13.0
 30
0.0
  0
VERTEX
  5
D15
330
5D0
100
AcDbEntity
  8
HOJO
100
AcDbVertex
100
AcDb2dVertex
 10
279.0
 20
13.0
 30
0.0
  0
VERTEX
  5
D16
330
5D0
100
AcDbEntity
  8
HOJO
100
AcDbVertex
100
AcDb2dVertex
 10
279.0
 20
197.0
 30
0.0
  0
VERTEX
  5
D17
330
5D0
100
AcDbEntity
  8
HOJO
100
AcDbVertex
100
AcDb2dVertex
 10
18.0
 20
197.0
 30
0.0
  0
SEQEND
  5
D18
330
5D0
100
AcDbEntity
  8
HOJO
  0
ENDBLK
  5
5D2
330
5CE
100
AcDbEntity
  8
0
100
AcDbBlockEnd
  0
BLOCK
  5
76A
330
760
100
AcDbEntity
  8
0
 62
     0
100
AcDbBlockBegin
  2
*D2
 70
     1
 10
0.0
 20
0.0
 30
0.0
  3
*D2
  1

  0
LINE
  5
8F7
330
760
100
AcDbEntity
  8
SUNPO
  6
BYBLOCK
 62
   144
100
AcDbLine
 10
1000.0
 20
1880.0
 30
0.0
 11
1000.0
 21
1760.0
 31
0.0
  0
LINE
  5
8F8
330
760
100
AcDbEntity
  8
SUNPO
  6
BYBLOCK
 62
   144
100
AcDbLine
 10
1700.0
 20
1880.0
 30
0.0
 11
1700.0
 21
1760.0
 31
0.0
  0
LINE
  5
8F9
330
760
100
AcDbEntity
  8
SUNPO
  6
BYBLOCK
 62
   144
100
AcDbLine
 10
1014.0
 20
1770.0
 30
0.0
 11
1686.0
 21
1770.0
 31
0.0
  0
SOLID
  5
8FA
330
760
100
AcDbEntity
  8
SUNPO
  6
BYBLOCK
 62
   144
100
AcDbTrace
 10
1014.0
 20
1772.333333333333
 30
0.0
 11
1014.0
 21
1767.666666666666
 31
0.0
 12
1000.0
 22
1770.0
 32
0.0
 13
1000.0
 23
1770.0
 33
0.0
  0
SOLID
  5
8FB
330
760
100
AcDbEntity
  8
SUNPO
  6
BYBLOCK
 62
   144
100
AcDbTrace
 10
1686.0
 20
1772.333333333333
 30
0.0
 11
1686.0
 21
1767.666666666666
 31
0.0
 12
1700.0
 22
1770.0
 32
0.0
 13
1700.0
 23
1770.0
 33
0.0
  0
MTEXT
  5
8FC
330
760
100
AcDbEntity
  8
SUNPO
  6
BYBLOCK
 62
     7
100
AcDbMText
 10
1350.0
 20
1807.5
 30
0.0
 40
50.0
 41
0.0
 71
     5
 72
     1
  1
\A2;700
  7
ADD
1001
ACAD
1000
MTEXTBEGIN
1070
    73
1070
     1
1070
    44
1040
1.0
1070
    74
1070
     0
1000
MTEXTEND
1000
MTEXTBEGIN
1070
    73
1070
     1
1070
    44
1040
1.0
1070
    74
1070
     0
1000
MTEXTEND
  0
POINT
  5
8FD
330
760
100
AcDbEntity
  8
DEFPOINTS
  6
BYBLOCK
 62
     0
100
AcDbPoint
 10
1000.0
 20
1900.0
 30
0.0
  0
POINT
  5
8FE
330
760
100
AcDbEntity
  8
DEFPOINTS
  6
BYBLOCK
 62
     0
100
AcDbPoint
 10
1700.0
 20
1900.0
 30
0.0
  0
POINT
  5
8FF
330
760
100
AcDbEntity
  8
DEFPOINTS
  6
BYBLOCK
 62
     0
100
AcDbPoint
 10
1700.0
 20
1770.0
 30
0.0
  0
ENDBLK
  5
76B
330
760
100
AcDbEntity
  8
0
 62
     0
100
AcDbBlockEnd
  0
BLOCK
  5
777
330
76D
100
AcDbEntity
  8
0
 62
     0
100
AcDbBlockBegin
  2
*D3
 70
     1
 10
0.0
 20
0.0
 30
0.0
  3
*D3
  1

  0
LINE
  5
8EE
330
76D
100
AcDbEntity
  8
SUNPO
  6
BYBLOCK
 62
   144
100
AcDbLine
 10
2700.0
 20
1880.0
 30
0.0
 11
2700.0
 21
1760.0
 31
0.0
  0
LINE
  5
8EF
330
76D
100
AcDbEntity
  8
SUNPO
  6
BYBLOCK
 62
   144
100
AcDbLine
 10
4700.0
 20
1880.0
 30
0.0
 11
4700.0
 21
1760.0
 31
0.0
  0
LINE
  5
8F0
330
76D
100
AcDbEntity
  8
SUNPO
  6
BYBLOCK
 62
   144
100
AcDbLine
 10
2714.0
 20
1770.0
 30
0.0
 11
4686.0
 21
1770.0
 31
0.0
  0
SOLID
  5
8F1
330
76D
100
AcDbEntity
  8
SUNPO
  6
BYBLOCK
 62
   144
100
AcDbTrace
 10
2714.0
 20
1772.333333333333
 30
0.0
 11
2714.0
 21
1767.666666666666
 31
0.0
 12
2700.0
 22
1770.0
 32
0.0
 13
2700.0
 23
1770.0
 33
0.0
  0
SOLID
  5
8F2
330
76D
100
AcDbEntity
  8
SUNPO
  6
BYBLOCK
 62
   144
100
AcDbTrace
 10
4686.0
 20
1772.333333333333
 30
0.0
 11
4686.0
 21
1767.666666666666
 31
0.0
 12
4700.0
 22
1770.0
 32
0.0
 13
4700.0
 23
1770.0
 33
0.0
  0
MTEXT
  5
8F3
330
76D
100
AcDbEntity
  8
SUNPO
  6
BYBLOCK
 62
     7
100
AcDbMText
 10
3700.0
 20
1807.5
 30
0.0
 40
50.0
 41
0.0
 71
     5
 72
     1
  1
\A2;2000
  7
ADD
1001
ACAD
1000
MTEXTBEGIN
1070
    73
1070
     1
1070
    44
1040
1.0
1070
    74
1070
     0
1000
MTEXTEND
1000
MTEXTBEGIN
1070
    73
1070
     1
1070
    44
1040
1.0
1070
    74
1070
     0
1000
MTEXTEND
  0
POINT
  5
8F4
330
76D
100
AcDbEntity
  8
DEFPOINTS
  6
BYBLOCK
 62
     0
100
AcDbPoint
 10
2700.0
 20
1900.0
 30
0.0
  0
POINT
  5
8F5
330
76D
100
AcDbEntity
  8
DEFPOINTS
  6
BYBLOCK
 62
     0
100
AcDbPoint
 10
4700.0
 20
1900.0
 30
0.0
  0
POINT
  5
8F6
330
76D
100
AcDbEntity
  8
DEFPOINTS
  6
BYBLOCK
 62
     0
100
AcDbPoint
 10
4700.0
 20
1770.0
 30
0.0
  0
ENDBLK
  5
778
330
76D
100
AcDbEntity
  8
0
 62
     0
100
AcDbBlockEnd
  0
BLOCK
  5
785
330
77B
100
AcDbEntity
  8
0
 62
     0
100
AcDbBlockBegin
  2
*D4
 70
     1
 10
0.0
 20
0.0
 30
0.0
  3
*D4
  1

  0
LINE
  5
8E5
330
77B
100
AcDbEntity
  8
SUNPO
  6
BYBLOCK
 62
   144
100
AcDbLine
 10
4720.0
 20
1900.0
 30
0.0
 11
4859.999999999999
 21
1900.0
 31
0.0
  0
LINE
  5
8E6
330
77B
100
AcDbEntity
  8
SUNPO
  6
BYBLOCK
 62
   144
100
AcDbLine
 10
4720.0
 20
2050.0
 30
0.0
 11
4860.0
 21
2050.0
 31
0.0
  0
LINE
  5
8E7
330
77B
100
AcDbEntity
  8
SUNPO
  6
BYBLOCK
 62
   144
100
AcDbLine
 10
4849.999999999999
 20
1914.0
 30
0.0
 11
4849.999999999999
 21
2036.0
 31
0.0
  0
SOLID
  5
8E8
330
77B
100
AcDbEntity
  8
SUNPO
  6
BYBLOCK
 62
   144
100
AcDbTrace
 10
4847.666666666666
 20
1914.0
 30
0.0
 11
4852.333333333332
 21
1914.0
 31
0.0
 12
4849.999999999999
 22
1900.0
 32
0.0
 13
4849.999999999999
 23
1900.0
 33
0.0
  0
SOLID
  5
8E9
330
77B
100
AcDbEntity
  8
SUNPO
  6
BYBLOCK
 62
   144
100
AcDbTrace
 10
4847.666666666666
 20
2036.0
 30
0.0
 11
4852.333333333332
 21
2036.0
 31
0.0
 12
4850.0
 22
2050.0
 32
0.0
 13
4850.0
 23
2050.0
 33
0.0
  0
MTEXT
  5
8EA
330
77B
100
AcDbEntity
  8
SUNPO
  6
BYBLOCK
 62
     7
100
AcDbMText
 10
4812.5
 20
1975.0
 30
0.0
 40
50.0
 41
0.0
 71
     5
 72
     1
  1
\A2;150
  7
ADD
 11
0.0000000000000001
 21
1.0
 31
0.0
1001
ACAD
1000
MTEXTBEGIN
1070
    73
1070
     1
1070
    44
1040
1.0
1070
    74
1070
     0
1000
MTEXTEND
1000
MTEXTBEGIN
1070
    73
1070
     1
1070
    44
1040
1.0
1070
    74
1070
     0
1000
MTEXTEND
  0
POINT
  5
8EB
330
77B
100
AcDbEntity
  8
DEFPOINTS
  6
BYBLOCK
 62
     0
100
AcDbPoint
 10
4700.0
 20
1900.0
 30
0.0
  0
POINT
  5
8EC
330
77B
100
AcDbEntity
  8
DEFPOINTS
  6
BYBLOCK
 62
     0
100
AcDbPoint
 10
4700.0
 20
2050.0
 30
0.0
  0
POINT
  5
8ED
330
77B
100
AcDbEntity
  8
DEFPOINTS
  6
BYBLOCK
 62
     0
100
AcDbPoint
 10
4850.0
 20
2050.0
 30
0.0
  0
ENDBLK
  5
786
330
77B
100
AcDbEntity
  8
0
 62
     0
100
AcDbBlockEnd
  0
BLOCK
  5
794
330
788
100
AcDbEntity
  8
0
 62
     0
100
AcDbBlockBegin
  2
*D5
 70
     1
 10
0.0
 20
0.0
 30
0.0
  3
*D5
  1

  0
LINE
  5
8DA
330
788
100
AcDbEntity
  8
SUNPO
  6
BYBLOCK
 62
   144
100
AcDbLine
 10
2680.0
 20
1900.0
 30
0.0
 11
2440.0
 21
1900.0
 31
0.0
  0
LINE
  5
8DB
330
788
100
AcDbEntity
  8
SUNPO
  6
BYBLOCK
 62
   144
100
AcDbLine
 10
2680.0
 20
2020.0
 30
0.0
 11
2440.0
 21
2020.0
 31
0.0
  0
LINE
  5
8DC
330
788
100
AcDbEntity
  8
SUNPO
  6
BYBLOCK
 62
   144
100
AcDbLine
 10
2450.0
 20
1886.0
 30
0.0
 11
2450.0
 21
1872.0
 31
0.0
  0
LINE
  5
8DD
330
788
100
AcDbEntity
  8
SUNPO
  6
BYBLOCK
 62
   144
100
AcDbLine
 10
2450.0
 20
2034.0
 30
0.0
 11
2450.0
 21
2048.0
 31
0.0
  0
LINE
  5
8DE
330
788
100
AcDbEntity
  8
SUNPO
  6
BYBLOCK
 62
   144
100
AcDbLine
 10
2450.0
 20
1900.0
 30
0.0
 11
2450.0
 21
2020.0
 31
0.0
  0
SOLID
  5
8DF
330
788
100
AcDbEntity
  8
SUNPO
  6
BYBLOCK
 62
   144
100
AcDbTrace
 10
2447.666666666666
 20
1886.0
 30
0.0
 11
2452.333333333333
 21
1886.0
 31
0.0
 12
2450.0
 22
1900.0
 32
0.0
 13
2450.0
 23
1900.0
 33
0.0
  0
SOLID
  5
8E0
330
788
100
AcDbEntity
  8
SUNPO
  6
BYBLOCK
 62
   144
100
AcDbTrace
 10
2447.666666666666
 20
2034.0
 30
0.0
 11
2452.333333333333
 21
2034.0
 31
0.0
 12
2450.0
 22
2020.0
 32
0.0
 13
2450.0
 23
2020.0
 33
0.0
  0
MTEXT
  5
8E1
330
788
100
AcDbEntity
  8
SUNPO
  6
BYBLOCK
 62
     7
100
AcDbMText
 10
2412.499999999999
 20
1960.0
 30
0.0
 40
50.0
 41
0.0
 71
     5
 72
     1
  1
\A2;120
  7
ADD
 11
0.0000000000000001
 21
1.0
 31
0.0
1001
ACAD
1000
MTEXTBEGIN
1070
    73
1070
     1
1070
    44
1040
1.0
1070
    74
1070
     0
1000
MTEXTEND
1000
MTEXTBEGIN
1070
    73
1070
     1
1070
    44
1040
1.0
1070
    74
1070
     0
1000
MTEXTEND
  0
POINT
  5
8E2
330
788
100
AcDbEntity
  8
DEFPOINTS
  6
BYBLOCK
 62
     0
100
AcDbPoint
 10
2700.0
 20
1900.0
 30
0.0
  0
POINT
  5
8E3
330
788
100
AcDbEntity
  8
DEFPOINTS
  6
BYBLOCK
 62
     0
100
AcDbPoint
 10
2700.0
 20
2020.0
 30
0.0
  0
POINT
  5
8E4
330
788
100
AcDbEntity
  8
DEFPOINTS
  6
BYBLOCK
 62
     0
100
AcDbPoint
 10
2450.0
 20
2020.0
 30
0.0
  0
ENDBLK
  5
795
330
788
100
AcDbEntity
  8
0
 62
     0
100
AcDbBlockEnd
  0
BLOCK
  5
7A1
330
797
100
AcDbEntity
  8
0
 62
     0
100
AcDbBlockBegin
  2
*D6
 70
     1
 10
0.0
 20
0.0
 30
0.0
  3
*D6
  1

  0
LINE
  5
8D1
330
797
100
AcDbEntity
  8
SUNPO
  6
BYBLOCK
 62
   144
100
AcDbLine
 10
1720.0
 20
1900.0
 30
0.0
 11
1950.0
 21
1900.0
 31
0.0
  0
LINE
  5
8D2
330
797
100
AcDbEntity
  8
SUNPO
  6
BYBLOCK
 62
   144
100
AcDbLine
 10
1720.0
 20
2050.0
 30
0.0
 11
1950.0
 21
2050.0
 31
0.0
  0
LINE
  5
8D3
330
797
100
AcDbEntity
  8
SUNPO
  6
BYBLOCK
 62
   144
100
AcDbLine
 10
1940.0
 20
1914.0
 30
0.0
 11
1940.0
 21
2036.0
 31
0.0
  0
SOLID
  5
8D4
330
797
100
AcDbEntity
  8
SUNPO
  6
BYBLOCK
 62
   144
100
AcDbTrace
 10
1937.666666666666
 20
1914.0
 30
0.0
 11
1942.333333333333
 21
1914.0
 31
0.0
 12
1940.0
 22
1900.0
 32
0.0
 13
1940.0
 23
1900.0
 33
0.0
  0
SOLID
  5
8D5
330
797
100
AcDbEntity
  8
SUNPO
  6
BYBLOCK
 62
   144
100
AcDbTrace
 10
1937.666666666666
 20
2036.0
 30
0.0
 11
1942.333333333333
 21
2036.0
 31
0.0
 12
1940.0
 22
2050.0
 32
0.0
 13
1940.0
 23
2050.0
 33
0.0
  0
MTEXT
  5
8D6
330
797
100
AcDbEntity
  8
SUNPO
  6
BYBLOCK
 62
     7
100
AcDbMText
 10
1902.499999999999
 20
1975.0
 30
0.0
 40
50.0
 41
0.0
 71
     5
 72
     1
  1
\A2;150
  7
ADD
 11
0.0000000000000001
 21
1.0
 31
0.0
1001
ACAD
1000
MTEXTBEGIN
1070
    73
1070
     1
1070
    44
1040
1.0
1070
    74
1070
     0
1000
MTEXTEND
1000
MTEXTBEGIN
1070
    73
1070
     1
1070
    44
1040
1.0
1070
    74
1070
     0
1000
MTEXTEND
  0
POINT
  5
8D7
330
797
100
AcDbEntity
  8
DEFPOINTS
  6
BYBLOCK
 62
     0
100
AcDbPoint
 10
1700.0
 20
1900.0
 30
0.0
  0
POINT
  5
8D8
330
797
100
AcDbEntity
  8
DEFPOINTS
  6
BYBLOCK
 62
     0
100
AcDbPoint
 10
1700.0
 20
2050.0
 30
0.0
  0
POINT
  5
8D9
330
797
100
AcDbEntity
  8
DEFPOINTS
  6
BYBLOCK
 62
     0
100
AcDbPoint
 10
1940.0
 20
2050.0
 30
0.0
  0
ENDBLK
  5
7A2
330
797
100
AcDbEntity
  8
0
 62
     0
100
AcDbBlockEnd
  0
BLOCK
  5
7AE
330
7A4
100
AcDbEntity
  8
0
 62
     0
100
AcDbBlockBegin
  2
*D7
 70
     1
 10
0.0
 20
0.0
 30
0.0
  3
*D7
  1

  0
LINE
  5
8C8
330
7A4
100
AcDbEntity
  8
SUNPO
  6
BYBLOCK
 62
   144
100
AcDbLine
 10
1000.0
 20
2090.0
 30
0.0
 11
1000.0
 21
2220.0
 31
0.0
  0
LINE
  5
8C9
330
7A4
100
AcDbEntity
  8
SUNPO
  6
BYBLOCK
 62
   144
100
AcDbLine
 10
1200.0
 20
2090.0
 30
0.0
 11
1200.0
 21
2220.0
 31
0.0
  0
LINE
  5
8CA
330
7A4
100
AcDbEntity
  8
SUNPO
  6
BYBLOCK
 62
   144
100
AcDbLine
 10
1014.0
 20
2210.0
 30
0.0
 11
1186.0
 21
2210.0
 31
0.0
  0
SOLID
  5
8CB
330
7A4
100
AcDbEntity
  8
SUNPO
  6
BYBLOCK
 62
   144
100
AcDbTrace
 10
1014.0
 20
2212.333333333333
 30
0.0
 11
1014.0
 21
2207.666666666665
 31
0.0
 12
1000.0
 22
2210.0
 32
0.0
 13
1000.0
 23
2210.0
 33
0.0
  0
SOLID
  5
8CC
330
7A4
100
AcDbEntity
  8
SUNPO
  6
BYBLOCK
 62
   144
100
AcDbTrace
 10
1186.0
 20
2212.333333333333
 30
0.0
 11
1186.0
 21
2207.666666666665
 31
0.0
 12
1200.0
 22
2210.0
 32
0.0
 13
1200.0
 23
2210.0
 33
0.0
  0
MTEXT
  5
8CD
330
7A4
100
AcDbEntity
  8
SUNPO
  6
BYBLOCK
 62
     7
100
AcDbMText
 10
1100.0
 20
2247.5
 30
0.0
 40
50.0
 41
0.0
 71
     5
 72
     1
  1
\A2;200
  7
ADD
1001
ACAD
1000
MTEXTBEGIN
1070
    73
1070
     1
1070
    44
1040
1.0
1070
    74
1070
     0
1000
MTEXTEND
1000
MTEXTBEGIN
1070
    73
1070
     1
1070
    44
1040
1.0
1070
    74
1070
     0
1000
MTEXTEND
  0
POINT
  5
8CE
330
7A4
100
AcDbEntity
  8
DEFPOINTS
  6
BYBLOCK
 62
     0
100
AcDbPoint
 10
1000.0
 20
2070.0
 30
0.0
  0
POINT
  5
8CF
330
7A4
100
AcDbEntity
  8
DEFPOINTS
  6
BYBLOCK
 62
     0
100
AcDbPoint
 10
1200.0
 20
2070.0
 30
0.0
  0
POINT
  5
8D0
330
7A4
100
AcDbEntity
  8
DEFPOINTS
  6
BYBLOCK
 62
     0
100
AcDbPoint
 10
1200.0
 20
2210.0
 30
0.0
  0
ENDBLK
  5
7AF
330
7A4
100
AcDbEntity
  8
0
 62
     0
100
AcDbBlockEnd
  0
BLOCK
  5
7BB
330
7B1
100
AcDbEntity
  8
0
 62
     0
100
AcDbBlockBegin
  2
*D8
 70
     1
 10
0.0
 20
0.0
 30
0.0
  3
*D8
  1

  0
LINE
  5
8BF
330
7B1
100
AcDbEntity
  8
SUNPO
  6
BYBLOCK
 62
   144
100
AcDbLine
 10
1200.0
 20
2090.0
 30
0.0
 11
1200.0
 21
2220.0
 31
0.0
  0
LINE
  5
8C0
330
7B1
100
AcDbEntity
  8
SUNPO
  6
BYBLOCK
 62
   144
100
AcDbLine
 10
1700.0
 20
2090.0
 30
0.0
 11
1700.0
 21
2220.0
 31
0.0
  0
LINE
  5
8C1
330
7B1
100
AcDbEntity
  8
SUNPO
  6
BYBLOCK
 62
   144
100
AcDbLine
 10
1214.0
 20
2210.0
 30
0.0
 11
1686.0
 21
2210.0
 31
0.0
  0
SOLID
  5
8C2
330
7B1
100
AcDbEntity
  8
SUNPO
  6
BYBLOCK
 62
   144
100
AcDbTrace
 10
1214.0
 20
2212.333333333333
 30
0.0
 11
1214.0
 21
2207.666666666665
 31
0.0
 12
1200.0
 22
2210.0
 32
0.0
 13
1200.0
 23
2210.0
 33
0.0
  0
SOLID
  5
8C3
330
7B1
100
AcDbEntity
  8
SUNPO
  6
BYBLOCK
 62
   144
100
AcDbTrace
 10
1686.0
 20
2212.333333333333
 30
0.0
 11
1686.0
 21
2207.666666666665
 31
0.0
 12
1700.0
 22
2210.0
 32
0.0
 13
1700.0
 23
2210.0
 33
0.0
  0
MTEXT
  5
8C4
330
7B1
100
AcDbEntity
  8
SUNPO
  6
BYBLOCK
 62
     7
100
AcDbMText
 10
1450.0
 20
2247.5
 30
0.0
 40
50.0
 41
0.0
 71
     5
 72
     1
  1
\A2;500
  7
ADD
1001
ACAD
1000
MTEXTBEGIN
1070
    73
1070
     1
1070
    44
1040
1.0
1070
    74
1070
     0
1000
MTEXTEND
1000
MTEXTBEGIN
1070
    73
1070
     1
1070
    44
1040
1.0
1070
    74
1070
     0
1000
MTEXTEND
  0
POINT
  5
8C5
330
7B1
100
AcDbEntity
  8
DEFPOINTS
  6
BYBLOCK
 62
     0
100
AcDbPoint
 10
1200.0
 20
2070.0
 30
0.0
  0
POINT
  5
8C6
330
7B1
100
AcDbEntity
  8
DEFPOINTS
  6
BYBLOCK
 62
     0
100
AcDbPoint
 10
1700.0
 20
2070.0
 30
0.0
  0
POINT
  5
8C7
330
7B1
100
AcDbEntity
  8
DEFPOINTS
  6
BYBLOCK
 62
     0
100
AcDbPoint
 10
1700.0
 20
2210.0
 30
0.0
  0
ENDBLK
  5
7BC
330
7B1
100
AcDbEntity
  8
0
 62
     0
100
AcDbBlockEnd
  0
BLOCK
  5
7C8
330
7BE
100
AcDbEntity
  8
0
 62
     0
100
AcDbBlockBegin
  2
*D9
 70
     1
 10
0.0
 20
0.0
 30
0.0
  3
*D9
  1

  0
LINE
  5
8B6
330
7BE
100
AcDbEntity
  8
SUNPO
  6
BYBLOCK
 62
   144
100
AcDbLine
 10
1000.0
 20
2090.0
 30
0.0
 11
1000.0
 21
2350.0
 31
0.0
  0
LINE
  5
8B7
330
7BE
100
AcDbEntity
  8
SUNPO
  6
BYBLOCK
 62
   144
100
AcDbLine
 10
1700.0
 20
2090.0
 30
0.0
 11
1700.0
 21
2350.0
 31
0.0
  0
LINE
  5
8B8
330
7BE
100
AcDbEntity
  8
SUNPO
  6
BYBLOCK
 62
   144
100
AcDbLine
 10
1014.0
 20
2340.0
 30
0.0
 11
1686.0
 21
2340.0
 31
0.0
  0
SOLID
  5
8B9
330
7BE
100
AcDbEntity
  8
SUNPO
  6
BYBLOCK
 62
   144
100
AcDbTrace
 10
1014.0
 20
2342.333333333333
 30
0.0
 11
1014.0
 21
2337.666666666666
 31
0.0
 12
1000.0
 22
2340.0
 32
0.0
 13
1000.0
 23
2340.0
 33
0.0
  0
SOLID
  5
8BA
330
7BE
100
AcDbEntity
  8
SUNPO
  6
BYBLOCK
 62
   144
100
AcDbTrace
 10
1686.0
 20
2342.333333333333
 30
0.0
 11
1686.0
 21
2337.666666666666
 31
0.0
 12
1700.0
 22
2340.0
 32
0.0
 13
1700.0
 23
2340.0
 33
0.0
  0
MTEXT
  5
8BB
330
7BE
100
AcDbEntity
  8
SUNPO
  6
BYBLOCK
 62
     7
100
AcDbMText
 10
1350.0
 20
2377.5
 30
0.0
 40
50.0
 41
0.0
 71
     5
 72
     1
  1
\A2;700
  7
ADD
1001
ACAD
1000
MTEXTBEGIN
1070
    73
1070
     1
1070
    44
1040
1.0
1070
    74
1070
     0
1000
MTEXTEND
1000
MTEXTBEGIN
1070
    73
1070
     1
1070
    44
1040
1.0
1070
    74
1070
     0
1000
MTEXTEND
  0
POINT
  5
8BC
330
7BE
100
AcDbEntity
  8
DEFPOINTS
  6
BYBLOCK
 62
     0
100
AcDbPoint
 10
1000.0
 20
2070.0
 30
0.0
  0
POINT
  5
8BD
330
7BE
100
AcDbEntity
  8
DEFPOINTS
  6
BYBLOCK
 62
     0
100
AcDbPoint
 10
1700.0
 20
2070.0
 30
0.0
  0
POINT
  5
8BE
330
7BE
100
AcDbEntity
  8
DEFPOINTS
  6
BYBLOCK
 62
     0
100
AcDbPoint
 10
1700.0
 20
2340.0
 30
0.0
  0
ENDBLK
  5
7C9
330
7BE
100
AcDbEntity
  8
0
 62
     0
100
AcDbBlockEnd
  0
BLOCK
  5
7D7
330
7CB
100
AcDbEntity
  8
0
 62
     0
100
AcDbBlockBegin
  2
*D10
 70
     1
 10
0.0
 20
0.0
 30
0.0
  3
*D10
  1

  0
LINE
  5
8AB
330
7CB
100
AcDbEntity
  8
SUNPO
  6
BYBLOCK
 62
   144
100
AcDbLine
 10
980.0
 20
1900.0
 30
0.0
 11
830.0
 21
1900.0
 31
0.0
  0
LINE
  5
8AC
330
7CB
100
AcDbEntity
  8
SUNPO
  6
BYBLOCK
 62
   144
100
AcDbLine
 10
980.0
 20
2020.0
 30
0.0
 11
830.0
 21
2020.0
 31
0.0
  0
LINE
  5
8AD
330
7CB
100
AcDbEntity
  8
SUNPO
  6
BYBLOCK
 62
   144
100
AcDbLine
 10
840.0
 20
1886.0
 30
0.0
 11
840.0
 21
1872.0
 31
0.0
  0
LINE
  5
8AE
330
7CB
100
AcDbEntity
  8
SUNPO
  6
BYBLOCK
 62
   144
100
AcDbLine
 10
840.0
 20
2034.0
 30
0.0
 11
840.0
 21
2047.999999999999
 31
0.0
  0
LINE
  5
8AF
330
7CB
100
AcDbEntity
  8
SUNPO
  6
BYBLOCK
 62
   144
100
AcDbLine
 10
840.0
 20
1900.0
 30
0.0
 11
840.0
 21
2020.0
 31
0.0
  0
SOLID
  5
8B0
330
7CB
100
AcDbEntity
  8
SUNPO
  6
BYBLOCK
 62
   144
100
AcDbTrace
 10
837.6666666666665
 20
1886.0
 30
0.0
 11
842.3333333333332
 21
1886.0
 31
0.0
 12
840.0
 22
1900.0
 32
0.0
 13
840.0
 23
1900.0
 33
0.0
  0
SOLID
  5
8B1
330
7CB
100
AcDbEntity
  8
SUNPO
  6
BYBLOCK
 62
   144
100
AcDbTrace
 10
837.6666666666665
 20
2034.0
 30
0.0
 11
842.3333333333332
 21
2034.0
 31
0.0
 12
840.0
 22
2020.0
 32
0.0
 13
840.0
 23
2020.0
 33
0.0
  0
MTEXT
  5
8B2
330
7CB
100
AcDbEntity
  8
SUNPO
  6
BYBLOCK
 62
     7
100
AcDbMText
 10
802.4999999999996
 20
1960.0
 30
0.0
 40
50.0
 41
0.0
 71
     5
 72
     1
  1
\A2;120
  7
ADD
 11
0.0000000000000001
 21
1.0
 31
0.0
1001
ACAD
1000
MTEXTBEGIN
1070
    73
1070
     1
1070
    44
1040
1.0
1070
    74
1070
     0
1000
MTEXTEND
1000
MTEXTBEGIN
1070
    73
1070
     1
1070
    44
1040
1.0
1070
    74
1070
     0
1000
MTEXTEND
  0
POINT
  5
8B3
330
7CB
100
AcDbEntity
  8
DEFPOINTS
  6
BYBLOCK
 62
     0
100
AcDbPoint
 10
1000.0
 20
1900.0
 30
0.0
  0
POINT
  5
8B4
330
7CB
100
AcDbEntity
  8
DEFPOINTS
  6
BYBLOCK
 62
     0
100
AcDbPoint
 10
1000.0
 20
2020.0
 30
0.0
  0
POINT
  5
8B5
330
7CB
100
AcDbEntity
  8
DEFPOINTS
  6
BYBLOCK
 62
     0
100
AcDbPoint
 10
840.0
 20
2020.0
 30
0.0
  0
ENDBLK
  5
7D8
330
7CB
100
AcDbEntity
  8
0
 62
     0
100
AcDbBlockEnd
  0
BLOCK
  5
7E4
330
7DA
100
AcDbEntity
  8
0
 62
     0
100
AcDbBlockBegin
  2
*D11
 70
     1
 10
0.0
 20
0.0
 30
0.0
  3
*D11
  1

  0
LINE
  5
8A2
330
7DA
100
AcDbEntity
  8
SUNPO
  6
BYBLOCK
 62
   144
100
AcDbLine
 10
980.0
 20
1900.0
 30
0.0
 11
720.0
 21
1900.0
 31
0.0
  0
LINE
  5
8A3
330
7DA
100
AcDbEntity
  8
SUNPO
  6
BYBLOCK
 62
   144
100
AcDbLine
 10
980.0
 20
2070.0
 30
0.0
 11
720.0
 21
2070.0
 31
0.0
  0
LINE
  5
8A4
330
7DA
100
AcDbEntity
  8
SUNPO
  6
BYBLOCK
 62
   144
100
AcDbLine
 10
730.0
 20
1914.0
 30
0.0
 11
730.0
 21
2056.0
 31
0.0
  0
SOLID
  5
8A5
330
7DA
100
AcDbEntity
  8
SUNPO
  6
BYBLOCK
 62
   144
100
AcDbTrace
 10
727.6666666666665
 20
1914.0
 30
0.0
 11
732.3333333333335
 21
1914.0
 31
0.0
 12
730.0
 22
1900.0
 32
0.0
 13
730.0
 23
1900.0
 33
0.0
  0
SOLID
  5
8A6
330
7DA
100
AcDbEntity
  8
SUNPO
  6
BYBLOCK
 62
   144
100
AcDbTrace
 10
727.6666666666665
 20
2056.0
 30
0.0
 11
732.3333333333335
 21
2056.0
 31
0.0
 12
730.0
 22
2070.0
 32
0.0
 13
730.0
 23
2070.0
 33
0.0
  0
MTEXT
  5
8A7
330
7DA
100
AcDbEntity
  8
SUNPO
  6
BYBLOCK
 62
     7
100
AcDbMText
 10
692.4999999999997
 20
1985.0
 30
0.0
 40
50.0
 41
0.0
 71
     5
 72
     1
  1
\A2;170
  7
ADD
 11
0.0000000000000001
 21
1.0
 31
0.0
1001
ACAD
1000
MTEXTBEGIN
1070
    73
1070
     1
1070
    44
1040
1.0
1070
    74
1070
     0
1000
MTEXTEND
1000
MTEXTBEGIN
1070
    73
1070
     1
1070
    44
1040
1.0
1070
    74
1070
     0
1000
MTEXTEND
  0
POINT
  5
8A8
330
7DA
100
AcDbEntity
  8
DEFPOINTS
  6
BYBLOCK
 62
     0
100
AcDbPoint
 10
1000.0
 20
1900.0
 30
0.0
  0
POINT
  5
8A9
330
7DA
100
AcDbEntity
  8
DEFPOINTS
  6
BYBLOCK
 62
     0
100
AcDbPoint
 10
1000.0
 20
2070.0
 30
0.0
  0
POINT
  5
8AA
330
7DA
100
AcDbEntity
  8
DEFPOINTS
  6
BYBLOCK
 62
     0
100
AcDbPoint
 10
730.0
 20
2070.0
 30
0.0
  0
ENDBLK
  5
7E5
330
7DA
100
AcDbEntity
  8
0
 62
     0
100
AcDbBlockEnd
  0
BLOCK
  5
917
330
90B
100
AcDbEntity
  8
0
 62
     4
100
AcDbBlockBegin
  2
*D12
 70
     1
 10
0.0
 20
0.0
 30
0.0
  3
*D12
  1

  0
LINE
  5
90C
330
90B
100
AcDbEntity
  8
SUNPO
  6
BYBLOCK
 62
   144
100
AcDbLine
 10
3680.0
 20
2020.0
 30
0.0
 11
3690.0
 21
2020.0
 31
0.0
  0
LINE
  5
90D
330
90B
100
AcDbEntity
  8
SUNPO
  6
BYBLOCK
 62
   144
100
AcDbLine
 10
3680.0
 20
1900.0
 30
0.0
 11
3690.0
 21
1900.0
 31
0.0
  0
LINE
  5
90E
330
90B
100
AcDbEntity
  8
SUNPO
  6
BYBLOCK
 62
   144
100
AcDbLine
 10
3700.0
 20
2034.0
 30
0.0
 11
3700.0
 21
2048.0
 31
0.0
  0
LINE
  5
90F
330
90B
100
AcDbEntity
  8
SUNPO
  6
BYBLOCK
 62
   144
100
AcDbLine
 10
3700.0
 20
1886.0
 30
0.0
 11
3700.0
 21
1872.0
 31
0.0
  0
LINE
  5
910
330
90B
100
AcDbEntity
  8
SUNPO
  6
BYBLOCK
 62
   144
100
AcDbLine
 10
3700.0
 20
2020.0
 30
0.0
 11
3700.0
 21
1900.0
 31
0.0
  0
SOLID
  5
911
330
90B
100
AcDbEntity
  8
SUNPO
  6
BYBLOCK
 62
   144
100
AcDbTrace
 10
3697.666666666666
 20
2034.0
 30
0.0
 11
3702.333333333333
 21
2034.0
 31
0.0
 12
3700.0
 22
2020.0
 32
0.0
 13
3700.0
 23
2020.0
 33
0.0
  0
SOLID
  5
912
330
90B
100
AcDbEntity
  8
SUNPO
  6
BYBLOCK
 62
   144
100
AcDbTrace
 10
3697.666666666666
 20
1886.0
 30
0.0
 11
3702.333333333333
 21
1886.0
 31
0.0
 12
3700.0
 22
1900.0
 32
0.0
 13
3700.0
 23
1900.0
 33
0.0
  0
MTEXT
  5
913
330
90B
100
AcDbEntity
  8
SUNPO
  6
BYBLOCK
 62
     7
100
AcDbMText
 10
3662.499999999998
 20
1960.0
 30
0.0
 40
50.0
 41
0.0
 71
     5
 72
     1
  1
\A2;120
  7
ADD
 11
0.0000000000000001
 21
1.0
 31
0.0
1001
ACAD
1000
MTEXTBEGIN
1070
    73
1070
     1
1070
    44
1040
1.0
1070
    74
1070
     0
1000
MTEXTEND
1000
MTEXTBEGIN
1070
    73
1070
     1
1070
    44
1040
1.0
1070
    74
1070
     0
1000
MTEXTEND
  0
POINT
  5
914
330
90B
100
AcDbEntity
  8
DEFPOINTS
  6
BYBLOCK
 62
     0
100
AcDbPoint
 10
3700.0
 20
2020.0
 30
0.0
  0
POINT
  5
915
330
90B
100
AcDbEntity
  8
DEFPOINTS
  6
BYBLOCK
 62
     0
100
AcDbPoint
 10
3700.0
 20
1900.0
 30
0.0
  0
POINT
  5
916
330
90B
100
AcDbEntity
  8
DEFPOINTS
  6
BYBLOCK
 62
     0
100
AcDbPoint
 10
3700.0
 20
1900.0
 30
0.0
  0
ENDBLK
  5
918
330
90B
100
AcDbEntity
  8
0
 62
     4
100
AcDbBlockEnd
  0
BLOCK
  5
9B6
330
9AA
100
AcDbEntity
  8
0
 62
     0
100
AcDbBlockBegin
  2
*D13
 70
     1
 10
0.0
 20
0.0
 30
0.0
  3
*D13
  1

  0
LINE
  5
9AB
330
9AA
100
AcDbEntity
  8
SUNPO
  6
BYBLOCK
 62
   144
100
AcDbLine
 10
1220.0
 20
1900.0
 30
0.0
 11
1460.0
 21
1900.0
 31
0.0
  0
LINE
  5
9AC
330
9AA
100
AcDbEntity
  8
SUNPO
  6
BYBLOCK
 62
   144
100
AcDbLine
 10
1220.0
 20
2020.0
 30
0.0
 11
1460.0
 21
2020.0
 31
0.0
  0
LINE
  5
9AD
330
9AA
100
AcDbEntity
  8
SUNPO
  6
BYBLOCK
 62
   144
100
AcDbLine
 10
1450.0
 20
1886.0
 30
0.0
 11
1450.0
 21
1872.0
 31
0.0
  0
LINE
  5
9AE
330
9AA
100
AcDbEntity
  8
SUNPO
  6
BYBLOCK
 62
   144
100
AcDbLine
 10
1450.0
 20
2034.0
 30
0.0
 11
1450.0
 21
2047.999999999999
 31
0.0
  0
LINE
  5
9AF
330
9AA
100
AcDbEntity
  8
SUNPO
  6
BYBLOCK
 62
   144
100
AcDbLine
 10
1450.0
 20
1900.0
 30
0.0
 11
1450.0
 21
2020.0
 31
0.0
  0
SOLID
  5
9B0
330
9AA
100
AcDbEntity
  8
SUNPO
  6
BYBLOCK
 62
   144
100
AcDbTrace
 10
1447.666666666666
 20
1886.0
 30
0.0
 11
1452.333333333332
 21
1886.0
 31
0.0
 12
1450.0
 22
1900.0
 32
0.0
 13
1450.0
 23
1900.0
 33
0.0
  0
SOLID
  5
9B1
330
9AA
100
AcDbEntity
  8
SUNPO
  6
BYBLOCK
 62
   144
100
AcDbTrace
 10
1447.666666666666
 20
2034.0
 30
0.0
 11
1452.333333333332
 21
2034.0
 31
0.0
 12
1450.0
 22
2020.0
 32
0.0
 13
1450.0
 23
2020.0
 33
0.0
  0
MTEXT
  5
9B2
330
9AA
100
AcDbEntity
  8
SUNPO
  6
BYBLOCK
 62
     7
100
AcDbMText
 10
1412.499999999999
 20
1960.0
 30
0.0
 40
50.0
 41
0.0
 71
     5
 72
     1
  1
\A2;120
  7
ADD
 11
0.0000000000000001
 21
1.0
 31
0.0
1001
ACAD
1000
MTEXTBEGIN
1070
    73
1070
     1
1070
    44
1040
1.0
1070
    74
1070
     0
1000
MTEXTEND
1000
MTEXTBEGIN
1070
    73
1070
     1
1070
    44
1040
1.0
1070
    74
1070
     0
1000
MTEXTEND
  0
POINT
  5
9B3
330
9AA
100
AcDbEntity
  8
DEFPOINTS
  6
BYBLOCK
 62
     0
100
AcDbPoint
 10
1200.0
 20
1900.0
 30
0.0
  0
POINT
  5
9B4
330
9AA
100
AcDbEntity
  8
DEFPOINTS
  6
BYBLOCK
 62
     0
100
AcDbPoint
 10
1200.0
 20
2020.0
 30
0.0
  0
POINT
  5
9B5
330
9AA
100
AcDbEntity
  8
DEFPOINTS
  6
BYBLOCK
 62
     0
100
AcDbPoint
 10
1450.0
 20
2020.0
 30
0.0
  0
ENDBLK
  5
9B7
330
9AA
100
AcDbEntity
  8
0
 62
     0
100
AcDbBlockEnd
  0
BLOCK
  5
A0C
330
A00
100
AcDbEntity
  8
0
 62
     0
100
AcDbBlockBegin
  2
*D14
 70
     1
 10
0.0
 20
0.0
 30
0.0
  3
*D14
  1

  0
LINE
  5
A25
330
A00
100
AcDbEntity
  8
SUNPO
  6
BYBLOCK
 62
   144
100
AcDbLine
 10
2668.580496178721
 20
2070.345862777087
 30
0.0
 11
2440.025126403543
 21
2070.345862777087
 31
0.0
  0
LINE
  5
A26
330
A00
100
AcDbEntity
  8
SUNPO
  6
BYBLOCK
 62
   144
100
AcDbLine
 10
2668.580496178721
 20
2020.345862777087
 30
0.0
 11
2440.025126403543
 21
2020.345862777087
 31
0.0
  0
LINE
  5
A27
330
A00
100
AcDbEntity
  8
SUNPO
  6
BYBLOCK
 62
   144
100
AcDbLine
 10
2450.025126403543
 20
2084.345862777086
 30
0.0
 11
2450.025126403543
 21
2098.345862777086
 31
0.0
  0
LINE
  5
A28
330
A00
100
AcDbEntity
  8
SUNPO
  6
BYBLOCK
 62
   144
100
AcDbLine
 10
2450.025126403543
 20
2006.345862777087
 30
0.0
 11
2450.025126403543
 21
1992.345862777087
 31
0.0
  0
MTEXT
  5
A29
330
A00
100
AcDbEntity
  8
SUNPO
  6
BYBLOCK
 62
     7
100
AcDbMText
 10
2401.080496178721
 20
2116.416564881339
 30
0.0
 40
50.0
 41
0.0
 71
     5
 72
     1
  1
\A2;50
  7
ADD
 11
0.0000000000000001
 21
1.0
 31
0.0
1001
ACAD
1000
MTEXTBEGIN
1070
    73
1070
     1
1070
    44
1040
1.0
1070
    74
1070
     0
1000
MTEXTEND
1000
MTEXTBEGIN
1070
    73
1070
     1
1070
    44
1040
1.0
1070
    74
1070
     0
1000
MTEXTEND
  0
LINE
  5
A2A
330
A00
100
AcDbEntity
  8
SUNPO
  6
BYBLOCK
 62
   144
100
AcDbLine
 10
2450.025126403543
 20
2070.345862777087
 30
0.0
 11
2450.025126403543
 21
2020.345862777087
 31
0.0
  0
SOLID
  5
A2B
330
A00
100
AcDbEntity
  8
SUNPO
  6
BYBLOCK
 62
   144
100
AcDbTrace
 10
2447.691793070209
 20
2084.345862777086
 30
0.0
 11
2452.358459736876
 21
2084.345862777086
 31
0.0
 12
2450.025126403543
 22
2070.345862777087
 32
0.0
 13
2450.025126403543
 23
2070.345862777087
 33
0.0
  0
SOLID
  5
A2C
330
A00
100
AcDbEntity
  8
SUNPO
  6
BYBLOCK
 62
   144
100
AcDbTrace
 10
2447.691793070209
 20
2006.345862777087
 30
0.0
 11
2452.358459736876
 21
2006.345862777087
 31
0.0
 12
2450.025126403543
 22
2020.345862777087
 32
0.0
 13
2450.025126403543
 23
2020.345862777087
 33
0.0
  0
POINT
  5
A2D
330
A00
100
AcDbEntity
  8
DEFPOINTS
  6
BYBLOCK
 62
     0
100
AcDbPoint
 10
2688.580496178721
 20
2070.345862777087
 30
0.0
  0
POINT
  5
A2E
330
A00
100
AcDbEntity
  8
DEFPOINTS
  6
BYBLOCK
 62
     0
100
AcDbPoint
 10
2688.580496178721
 20
2020.345862777087
 30
0.0
  0
POINT
  5
A2F
330
A00
100
AcDbEntity
  8
DEFPOINTS
  6
BYBLOCK
 62
     0
100
AcDbPoint
 10
2450.025126403543
 20
2020.345862777087
 30
0.0
  0
ENDBLK
  5
A0D
330
A00
100
AcDbEntity
  8
0
 62
     0
100
AcDbBlockEnd
  0
BLOCK
  5
B5F
330
B58
100
AcDbEntity
  8
0
 62
     0
100
AcDbBlockBegin
  2
*D15
 70
     1
 10
0.0
 20
0.0
 30
0.0
  3
*D15
  1

  0
LINE
  5
B59
330
B58
100
AcDbEntity
  8
SUNPO
  6
BYBLOCK
 62
   144
100
AcDbLine
 10
1025.605359267126
 20
1847.510908919624
 30
0.0
 11
1170.259334747202
 21
1990.746916642619
 31
0.0
  0
MTEXT
  5
B5A
330
B58
100
AcDbEntity
  8
SUNPO
  6
BYBLOCK
 62
     7
100
AcDbMText
 10
1053.782243332568
 20
1928.185310824627
 30
0.0
 40
50.0
 41
0.0
 71
     5
 72
     1
  1
\A2;R20
  7
ADD
 11
0.7105809321828299
 21
0.7036154765340089
 31
0.0
1001
ACAD
1000
MTEXTBEGIN
1070
    73
1070
     1
1070
    44
1040
1.0
1070
    74
1070
     0
1000
MTEXTEND
1000
MTEXTBEGIN
1070
    73
1070
     1
1070
    44
1040
1.0
1070
    74
1070
     0
1000
MTEXTEND
  0
LINE
  5
B5B
330
B58
100
AcDbEntity
  8
SUNPO
  6
BYBLOCK
 62
   144
100
AcDbLine
 10
1219.999999999998
 20
2039.999999999999
 30
0.0
 11
1205.788381356343
 21
2025.927690469318
 31
0.0
  0
SOLID
  5
B5C
330
B58
100
AcDbEntity
  8
SUNPO
  6
BYBLOCK
 62
   144
100
AcDbTrace
 10
1164.395872442752
 20
1996.668424410809
 30
0.0
 11
1176.122797051652
 21
1984.825408874428
 31
0.0
 12
1205.788381356343
 22
2025.927690469318
 32
0.0
 13
1205.788381356343
 23
2025.927690469318
 33
0.0
  0
POINT
  5
B5D
330
B58
100
AcDbEntity
  8
DEFPOINTS
  6
BYBLOCK
 62
     0
100
AcDbPoint
 10
1205.788381356343
 20
2025.927690469318
 30
0.0
  0
POINT
  5
B5E
330
B58
100
AcDbEntity
  8
DEFPOINTS
  6
BYBLOCK
 62
     0
100
AcDbPoint
 10
1219.999999999998
 20
2039.999999999999
 30
0.0
  0
ENDBLK
  5
B60
330
B58
100
AcDbEntity
  8
0
 62
     0
100
AcDbBlockEnd
  0
ENDSEC
  0
SECTION
  2
ENTITIES
  0
LINE
  5
60A
330
1F
100
AcDbEntity
  8
HOJO
100
AcDbLine
 10
360.0
 20
260.0
 30
0.0
 11
5580.0
 21
260.0
 31
0.0
  0
LINE
  5
60B
330
1F
100
AcDbEntity
  8
HOJO
100
AcDbLine
 10
360.0
 20
560.0
 30
0.0
 11
5580.0
 21
560.0
 31
0.0
  0
LINE
  5
60C
330
1F
100
AcDbEntity
  8
HOJO
100
AcDbLine
 10
360.0
 20
260.0
 30
0.0
 11
360.0
 21
560.0
 31
0.0
  0
LINE
  5
60D
330
1F
100
AcDbEntity
  8
HOJO
100
AcDbLine
 10
2360.0
 20
260.0
 30
0.0
 11
2360.0
 21
560.0
 31
0.0
  0
LINE
  5
60F
330
1F
100
AcDbEntity
  8
HOJO
100
AcDbLine
 10
3160.0
 20
260.0
 30
0.0
 11
3160.0
 21
560.0
 31
0.0
  0
LINE
  5
610
330
1F
100
AcDbEntity
  8
HOJO
100
AcDbLine
 10
3660.0
 20
260.0
 30
0.0
 11
3660.0
 21
560.0
 31
0.0
  0
LINE
  5
672
330
1F
100
AcDbEntity
  8
3C1
100
AcDbLine
 10
2700.0
 20
2020.0
 30
0.0
 11
4700.0
 21
2020.0
 31
0.0
  0
LINE
  5
675
330
1F
100
AcDbEntity
  8
3C1
100
AcDbLine
 10
2700.0
 20
2040.0
 30
0.0
 11
4700.0
 21
2040.0
 31
0.0
  0
LINE
  5
677
330
1F
100
AcDbEntity
  8
KIJUN
  6
BYBLOCK
 62
     4
100
AcDbLine
 10
1200.0
 20
2020.0
 30
0.0
 11
1200.0
 21
2020.0
 31
0.0
  0
LINE
  5
67A
330
1F
100
AcDbEntity
  8
3C1
  6
BYBLOCK
 62
     0
100
AcDbLine
 10
1000.0
 20
2070.0
 30
0.0
 11
1000.0
 21
1900.0
 31
0.0
  0
LINE
  5
67B
330
1F
100
AcDbEntity
  8
3C1
  6
BYBLOCK
 62
     0
100
AcDbLine
 10
1000.0
 20
1900.0
 30
0.0
 11
1700.0
 21
1900.0
 31
0.0
  0
LINE
  5
67C
330
1F
100
AcDbEntity
  8
3C1
  6
BYBLOCK
 62
     0
100
AcDbLine
 10
1700.0
 20
1900.0
 30
0.0
 11
1700.0
 21
2040.0
 31
0.0
  0
LINE
  5
67D
330
1F
100
AcDbEntity
  8
3C1
  6
BYBLOCK
 62
     0
100
AcDbLine
 10
1700.0
 20
2040.0
 30
0.0
 11
1700.0
 21
2050.0
 31
0.0
  0
LINE
  5
67F
330
1F
100
AcDbEntity
  8
3C1
  6
BYBLOCK
 62
     0
100
AcDbLine
 10
1230.0
 20
2020.0
 30
0.0
 11
1700.0
 21
2050.0
 31
0.0
  0
LINE
  5
680
330
1F
100
AcDbEntity
  8
3C1
  6
BYBLOCK
 62
     0
100
AcDbLine
 10
1000.0
 20
2070.0
 30
0.0
 11
1200.0
 21
2040.0
 31
0.0
  0
LINE
  5
900
330
1F
100
AcDbEntity
  8
3C1
  6
BYBLOCK
 62
     0
100
AcDbLine
 10
2700.0
 20
1900.0
 30
0.0
 11
4700.0
 21
1900.0
 31
0.0
  0
LINE
  5
903
330
1F
100
AcDbEntity
  8
3C1
  6
BYBLOCK
 62
     0
100
AcDbLine
 10
2700.0
 20
1900.0
 30
0.0
 11
2700.0
 21
2070.0
 31
0.0
  0
LINE
  5
904
330
1F
100
AcDbEntity
  8
3C1
  6
BYBLOCK
 62
     0
100
AcDbLine
 10
2700.0
 20
2070.0
 30
0.0
 11
4700.0
 21
2070.0
 31
0.0
  0
LINE
  5
905
330
1F
100
AcDbEntity
  8
3C1
  6
BYBLOCK
 62
     0
100
AcDbLine
 10
4700.0
 20
2070.0
 30
0.0
 11
4700.0
 21
1900.0
 31
0.0
  0
LINE
  5
906
330
1F
100
AcDbEntity
  8
3C1
  6
BYBLOCK
 62
     0
100
AcDbLine
 10
2700.0
 20
2020.0
 30
0.0
 11
4700.0
 21
2020.0
 31
0.0
  0
LINE
  5
907
330
1F
100
AcDbEntity
  8
3C1
  6
BYBLOCK
 62
     0
100
AcDbLine
 10
2700.0
 20
2040.0
 30
0.0
 11
4700.0
 21
2040.0
 31
0.0
  0
LINE
  5
908
330
1F
100
AcDbEntity
  8
3C1
  6
BYBLOCK
 62
     0
100
AcDbLine
 10
2700.0
 20
2050.0
 30
0.0
 11
4700.0
 21
2050.0
 31
0.0
  0
LINE
  5
919
330
1F
100
AcDbEntity
  8
3C1
  6
BYBLOCK
 62
     4
100
AcDbLine
 10
1000.0
 20
1900.0
 30
0.0
 11
1700.0
 21
1900.0
 31
0.0
  0
LINE
  5
91A
330
1F
100
AcDbEntity
  8
3C1
  6
BYBLOCK
 62
     0
100
AcDbLine
 10
1000.0
 20
1900.0
 30
0.0
 11
1700.0
 21
1900.0
 31
0.0
  0
LINE
  5
91B
330
1F
100
AcDbEntity
  8
3C1
  6
BYBLOCK
 62
     0
100
AcDbLine
 10
1700.0
 20
1900.0
 30
0.0
 11
1700.0
 21
2050.0
 31
0.0
  0
LINE
  5
91C
330
1F
100
AcDbEntity
  8
3C1
  6
BYBLOCK
 62
     0
100
AcDbLine
 10
1000.0
 20
2070.0
 30
0.0
 11
1000.0
 21
1900.0
 31
0.0
  0
LINE
  5
99F
330
1F
100
AcDbEntity
  8
SUNPO
  6
BYBLOCK
 62
   144
100
AcDbLine
 10
980.0
 20
2070.0
 30
0.0
 11
830.0
 21
2070.0
 31
0.0
  0
LINE
  5
9A0
330
1F
100
AcDbEntity
  8
SUNPO
  6
BYBLOCK
 62
   144
100
AcDbLine
 10
980.0
 20
2020.0
 30
0.0
 11
830.0
 21
2020.0
 31
0.0
  0
LINE
  5
9A1
330
1F
100
AcDbEntity
  8
SUNPO
  6
BYBLOCK
 62
   144
100
AcDbLine
 10
840.0
 20
2084.0
 30
0.0
 11
840.0
 21
2098.0
 31
0.0
  0
LINE
  5
9A2
330
1F
100
AcDbEntity
  8
SUNPO
  6
BYBLOCK
 62
   144
100
AcDbLine
 10
840.0
 20
2006.0
 30
0.0
 11
840.0
 21
1992.0
 31
0.0
  0
LINE
  5
9A4
330
1F
100
AcDbEntity
  8
SUNPO
  6
BYBLOCK
 62
   144
100
AcDbLine
 10
840.0
 20
2070.0
 30
0.0
 11
840.0
 21
2020.0
 31
0.0
  0
SOLID
  5
9A5
330
1F
100
AcDbEntity
  8
SUNPO
  6
BYBLOCK
 62
   144
100
AcDbTrace
 10
837.6666666666665
 20
2084.0
 30
0.0
 11
842.3333333333332
 21
2084.0
 31
0.0
 12
840.0
 22
2070.0
 32
0.0
 13
840.0
 23
2070.0
 33
0.0
  0
SOLID
  5
9A6
330
1F
100
AcDbEntity
  8
SUNPO
  6
BYBLOCK
 62
   144
100
AcDbTrace
 10
837.6666666666665
 20
2006.0
 30
0.0
 11
842.3333333333332
 21
2006.0
 31
0.0
 12
840.0
 22
2020.0
 32
0.0
 13
840.0
 23
2020.0
 33
0.0
  0
LINE
  5
9C7
330
1F
100
AcDbEntity
  8
SUNPO
  6
BYBLOCK
 62
   144
100
AcDbLine
 10
1220.0
 20
2020.0
 30
0.0
 11
1460.0
 21
2020.0
 31
0.0
  0
LINE
  5
9C9
330
1F
100
AcDbEntity
  8
SUNPO
  6
BYBLOCK
 62
   144
100
AcDbLine
 10
1450.0
 20
2006.0
 30
0.0
 11
1450.0
 21
1992.0
 31
0.0
  0
LINE
  5
9CA
330
1F
100
AcDbEntity
  8
SUNPO
  6
BYBLOCK
 62
   144
100
AcDbLine
 10
1450.0
 20
2053.999999999999
 30
0.0
 11
1450.0
 21
2067.999999999999
 31
0.0
  0
LINE
  5
9CB
330
1F
100
AcDbEntity
  8
SUNPO
  6
BYBLOCK
 62
   144
100
AcDbLine
 10
1450.0
 20
2020.0
 30
0.0
 11
1450.0
 21
2040.0
 31
0.0
  0
SOLID
  5
9CC
330
1F
100
AcDbEntity
  8
SUNPO
  6
BYBLOCK
 62
   144
100
AcDbTrace
 10
1447.666666666666
 20
2006.0
 30
0.0
 11
1452.333333333332
 21
2006.0
 31
0.0
 12
1450.0
 22
2020.0
 32
0.0
 13
1450.0
 23
2020.0
 33
0.0
  0
SOLID
  5
9CD
330
1F
100
AcDbEntity
  8
SUNPO
  6
BYBLOCK
 62
   144
100
AcDbTrace
 10
1447.666666666666
 20
2053.999999999999
 30
0.0
 11
1452.333333333332
 21
2053.999999999999
 31
0.0
 12
1450.0
 22
2040.0
 32
0.0
 13
1450.0
 23
2040.0
 33
0.0
  0
TEXT
  5
9D0
330
1F
100
AcDbEntity
  8
SUNPO
  6
BYBLOCK
 62
     7
100
AcDbText
 10
1433.873420945394
 20
2044.321242099937
 30
0.0
 40
50.0
  1
20
 50
90.0
  7
ADD
100
AcDbText
  0
LINE
  5
9F7
330
1F
100
AcDbEntity
  8
SUNPO
  6
BYBLOCK
 62
   144
100
AcDbLine
 10
3680.0
 20
2020.0
 30
0.0
 11
3690.0
 21
2020.0
 31
0.0
  0
LINE
  5
9F8
330
1F
100
AcDbEntity
  8
SUNPO
  6
BYBLOCK
 62
   144
100
AcDbLine
 10
3680.0
 20
2040.0
 30
0.0
 11
3690.0
 21
2040.0
 31
0.0
  0
LINE
  5
9F9
330
1F
100
AcDbEntity
  8
SUNPO
  6
BYBLOCK
 62
   144
100
AcDbLine
 10
3700.0
 20
2006.0
 30
0.0
 11
3700.0
 21
1992.0
 31
0.0
  0
LINE
  5
9FA
330
1F
100
AcDbEntity
  8
SUNPO
  6
BYBLOCK
 62
   144
100
AcDbLine
 10
3700.0
 20
2054.0
 30
0.0
 11
3700.0
 21
2068.0
 31
0.0
  0
LINE
  5
9FB
330
1F
100
AcDbEntity
  8
SUNPO
  6
BYBLOCK
 62
   144
100
AcDbLine
 10
3700.0
 20
2020.0
 30
0.0
 11
3700.0
 21
2040.0
 31
0.0
  0
SOLID
  5
9FC
330
1F
100
AcDbEntity
  8
SUNPO
  6
BYBLOCK
 62
   144
100
AcDbTrace
 10
3697.666666666666
 20
2006.0
 30
0.0
 11
3702.333333333333
 21
2006.0
 31
0.0
 12
3700.0
 22
2020.0
 32
0.0
 13
3700.0
 23
2020.0
 33
0.0
  0
SOLID
  5
9FD
330
1F
100
AcDbEntity
  8
SUNPO
  6
BYBLOCK
 62
   144
100
AcDbTrace
 10
3697.666666666666
 20
2054.0
 30
0.0
 11
3702.333333333333
 21
2054.0
 31
0.0
 12
3700.0
 22
2040.0
 32
0.0
 13
3700.0
 23
2040.0
 33
0.0
  0
LINE
  5
A30
330
1F
100
AcDbEntity
  8
SUNPO
  6
BYBLOCK
 62
     0
100
AcDbLine
 10
2450.025126403543
 20
2098.345862777086
 30
0.0
 11
2450.025126403543
 21
2160.160431018459
 31
0.0
  0
LINE
  5
A31
330
1F
100
AcDbEntity
  8
SUNPO
  6
BYBLOCK
 62
     0
100
AcDbLine
 10
1450.0
 20
2067.999999999999
 30
0.0
 11
1450.0
 21
2135.229097966961
 31
0.0
  0
LINE
  5
A32
330
1F
100
AcDbEntity
  8
SUNPO
  6
BYBLOCK
 62
     0
100
AcDbLine
 10
840.0
 20
2098.0
 30
0.0
 11
840.0
 21
2171.000144442616
 31
0.0
  0
LINE
  5
A33
330
1F
100
AcDbEntity
  8
SUNPO
  6
BYBLOCK
 62
     0
100
AcDbLine
 10
3700.0
 20
2068.0
 30
0.0
 11
3700.0
 21
2185.091764069956
 31
0.0
  0
ARC
  5
A3F
330
1F
100
AcDbEntity
  8
3C1
  6
BYBLOCK
 62
     0
100
AcDbCircle
 10
1220.0
 20
2040.0
 30
0.0
 40
20.0
100
AcDbArc
 50
180.0
 51
270.0
  0
LINE
  5
A41
330
1F
100
AcDbEntity
  8
SUNPO
  6
BYBLOCK
 62
     4
100
AcDbLine
 10
1220.0
 20
2040.0
 30
0.0
 11
1450.0
 21
2040.0
 31
0.0
  0
LINE
  5
A42
330
1F
100
AcDbEntity
  8
SUNPO
  6
BYBLOCK
 62
     4
100
AcDbLine
 10
1220.0
 20
2040.0
 30
0.0
 11
1450.0
 21
2040.0
 31
0.0
  0
LINE
  5
A43
330
1F
100
AcDbEntity
  8
SUNPO
  6
BYBLOCK
 62
     0
100
AcDbLine
 10
1220.0
 20
2040.0
 30
0.0
 11
1450.0
 21
2040.0
 31
0.0
  0
LINE
  5
C59
330
1F
100
AcDbEntity
  8
SUNPO
  6
BYBLOCK
 62
   144
100
AcDbLine
 10
1025.605359267126
 20
1847.510908919624
 30
0.0
 11
1170.259334747202
 21
1990.746916642619
 31
0.0
  0
LINE
  5
C5B
330
1F
100
AcDbEntity
  8
SUNPO
  6
BYBLOCK
 62
   144
100
AcDbLine
 10
1219.999999999998
 20
2039.999999999999
 30
0.0
 11
1205.788381356343
 21
2025.927690469318
 31
0.0
  0
SOLID
  5
C5C
330
1F
100
AcDbEntity
  8
SUNPO
  6
BYBLOCK
 62
   144
100
AcDbTrace
 10
1164.395872442752
 20
1996.668424410809
 30
0.0
 11
1176.122797051652
 21
1984.825408874428
 31
0.0
 12
1205.788381356343
 22
2025.927690469318
 32
0.0
 13
1205.788381356343
 23
2025.927690469318
 33
0.0
  0
TEXT
  5
C5D
330
1F
100
AcDbEntity
  8
SUNPO
  6
BYBLOCK
 62
     0
100
AcDbText
 10
2418.612439765071
 20
354.5435511308917
 30
0.0
 40
50.0
  1
平切下げ(車)CBL2-D1
  7
ADD
100
AcDbText
  0
TEXT
  5
C5E
330
1F
100
AcDbEntity
  8
SUNPO
  6
BYBLOCK
 62
     0
100
AcDbText
 10
-123.9712939941964
 20
373.3333234738596
 30
0.0
 40
70.0
  1
　　　　　　　　　千葉市型L2型　　CBL2
  7
ADD
100
AcDbText
  0
LINE
  5
C5F
330
1F
100
AcDbEntity
  8
SUNPO
  6
BYBLOCK
 62
   144
100
AcDbLine
 10
2668.580496178721
 20
2070.345862777087
 30
0.0
 11
2440.025126403543
 21
2070.345862777087
 31
0.0
  0
LINE
  5
C60
330
1F
100
AcDbEntity
  8
SUNPO
  6
BYBLOCK
 62
   144
100
AcDbLine
 10
2668.580496178721
 20
2020.345862777087
 30
0.0
 11
2440.025126403543
 21
2020.345862777087
 31
0.0
  0
LINE
  5
C61
330
1F
100
AcDbEntity
  8
SUNPO
  6
BYBLOCK
 62
   144
100
AcDbLine
 10
2450.025126403543
 20
2084.345862777086
 30
0.0
 11
2450.025126403543
 21
2098.345862777086
 31
0.0
  0
LINE
  5
C62
330
1F
100
AcDbEntity
  8
SUNPO
  6
BYBLOCK
 62
   144
100
AcDbLine
 10
2450.025126403543
 20
2006.345862777087
 30
0.0
 11
2450.025126403543
 21
1992.345862777087
 31
0.0
  0
LINE
  5
C64
330
1F
100
AcDbEntity
  8
SUNPO
  6
BYBLOCK
 62
   144
100
AcDbLine
 10
2450.025126403543
 20
2070.345862777087
 30
0.0
 11
2450.025126403543
 21
2020.345862777087
 31
0.0
  0
SOLID
  5
C65
330
1F
100
AcDbEntity
  8
SUNPO
  6
BYBLOCK
 62
   144
100
AcDbTrace
 10
2447.691793070209
 20
2084.345862777086
 30
0.0
 11
2452.358459736876
 21
2084.345862777086
 31
0.0
 12
2450.025126403543
 22
2070.345862777087
 32
0.0
 13
2450.025126403543
 23
2070.345862777087
 33
0.0
  0
SOLID
  5
C66
330
1F
100
AcDbEntity
  8
SUNPO
  6
BYBLOCK
 62
   144
100
AcDbTrace
 10
2447.691793070209
 20
2006.345862777087
 30
0.0
 11
2452.358459736876
 21
2006.345862777087
 31
0.0
 12
2450.025126403543
 22
2020.345862777087
 32
0.0
 13
2450.025126403543
 23
2020.345862777087
 33
0.0
  0
TEXT
  5
C67
330
1F
100
AcDbEntity
  8
SUNPO
  6
BYBLOCK
 62
     7
100
AcDbText
 10
3687.499999999998
 20
2095.693165793027
 30
0.0
 40
50.0
  1
20
 50
90.0
  7
ADD
100
AcDbText
  0
LINE
  5
C68
330
1F
100
AcDbEntity
  8
SUNPO
  6
BYBLOCK
 62
   144
100
AcDbLine
 10
1220.0
 20
1900.0
 30
0.0
 11
1460.0
 21
1900.0
 31
0.0
  0
LINE
  5
C69
330
1F
100
AcDbEntity
  8
SUNPO
  6
BYBLOCK
 62
   144
100
AcDbLine
 10
1220.0
 20
2020.0
 30
0.0
 11
1460.0
 21
2020.0
 31
0.0
  0
LINE
  5
C6A
330
1F
100
AcDbEntity
  8
SUNPO
  6
BYBLOCK
 62
   144
100
AcDbLine
 10
1450.0
 20
1886.0
 30
0.0
 11
1450.0
 21
1872.0
 31
0.0
  0
LINE
  5
C6B
330
1F
100
AcDbEntity
  8
SUNPO
  6
BYBLOCK
 62
   144
100
AcDbLine
 10
1450.0
 20
2034.0
 30
0.0
 11
1450.0
 21
2047.999999999999
 31
0.0
  0
LINE
  5
C6C
330
1F
100
AcDbEntity
  8
SUNPO
  6
BYBLOCK
 62
   144
100
AcDbLine
 10
1450.0
 20
1900.0
 30
0.0
 11
1450.0
 21
2020.0
 31
0.0
  0
SOLID
  5
C6D
330
1F
100
AcDbEntity
  8
SUNPO
  6
BYBLOCK
 62
   144
100
AcDbTrace
 10
1447.666666666666
 20
1886.0
 30
0.0
 11
1452.333333333332
 21
1886.0
 31
0.0
 12
1450.0
 22
1900.0
 32
0.0
 13
1450.0
 23
1900.0
 33
0.0
  0
SOLID
  5
C6E
330
1F
100
AcDbEntity
  8
SUNPO
  6
BYBLOCK
 62
   144
100
AcDbTrace
 10
1447.666666666666
 20
2034.0
 30
0.0
 11
1452.333333333332
 21
2034.0
 31
0.0
 12
1450.0
 22
2020.0
 32
0.0
 13
1450.0
 23
2020.0
 33
0.0
  0
TEXT
  5
C70
330
1F
100
AcDbEntity
  8
SUNPO
  6
BYBLOCK
 62
     7
100
AcDbText
 10
827.4999999999996
 20
2082.380952380952
 30
0.0
 40
50.0
  1
50
 50
90.0
  7
ADD
100
AcDbText
  0
LINE
  5
C71
330
1F
100
AcDbEntity
  8
SUNPO
  6
BYBLOCK
 62
   144
100
AcDbLine
 10
3680.0
 20
2020.0
 30
0.0
 11
3690.0
 21
2020.0
 31
0.0
  0
LINE
  5
C72
330
1F
100
AcDbEntity
  8
SUNPO
  6
BYBLOCK
 62
   144
100
AcDbLine
 10
3680.0
 20
1900.0
 30
0.0
 11
3690.0
 21
1900.0
 31
0.0
  0
LINE
  5
C73
330
1F
100
AcDbEntity
  8
SUNPO
  6
BYBLOCK
 62
   144
100
AcDbLine
 10
3700.0
 20
2034.0
 30
0.0
 11
3700.0
 21
2048.0
 31
0.0
  0
LINE
  5
C74
330
1F
100
AcDbEntity
  8
SUNPO
  6
BYBLOCK
 62
   144
100
AcDbLine
 10
3700.0
 20
1886.0
 30
0.0
 11
3700.0
 21
1872.0
 31
0.0
  0
LINE
  5
C75
330
1F
100
AcDbEntity
  8
SUNPO
  6
BYBLOCK
 62
   144
100
AcDbLine
 10
3700.0
 20
2020.0
 30
0.0
 11
3700.0
 21
1900.0
 31
0.0
  0
SOLID
  5
C76
330
1F
100
AcDbEntity
  8
SUNPO
  6
BYBLOCK
 62
   144
100
AcDbTrace
 10
3697.666666666666
 20
2034.0
 30
0.0
 11
3702.333333333333
 21
2034.0
 31
0.0
 12
3700.0
 22
2020.0
 32
0.0
 13
3700.0
 23
2020.0
 33
0.0
  0
SOLID
  5
C77
330
1F
100
AcDbEntity
  8
SUNPO
  6
BYBLOCK
 62
   144
100
AcDbTrace
 10
3697.666666666666
 20
1886.0
 30
0.0
 11
3702.333333333333
 21
1886.0
 31
0.0
 12
3700.0
 22
1900.0
 32
0.0
 13
3700.0
 23
1900.0
 33
0.0
  0
LINE
  5
C79
330
1F
100
AcDbEntity
  8
SUNPO
  6
BYBLOCK
 62
   144
100
AcDbLine
 10
980.0
 20
1900.0
 30
0.0
 11
720.0
 21
1900.0
 31
0.0
  0
LINE
  5
C7A
330
1F
100
AcDbEntity
  8
SUNPO
  6
BYBLOCK
 62
   144
100
AcDbLine
 10
980.0
 20
2070.0
 30
0.0
 11
720.0
 21
2070.0
 31
0.0
  0
LINE
  5
C7B
330
1F
100
AcDbEntity
  8
SUNPO
  6
BYBLOCK
 62
   144
100
AcDbLine
 10
730.0
 20
1914.0
 30
0.0
 11
730.0
 21
2056.0
 31
0.0
  0
SOLID
  5
C7C
330
1F
100
AcDbEntity
  8
SUNPO
  6
BYBLOCK
 62
   144
100
AcDbTrace
 10
727.6666666666665
 20
1914.0
 30
0.0
 11
732.3333333333335
 21
1914.0
 31
0.0
 12
730.0
 22
1900.0
 32
0.0
 13
730.0
 23
1900.0
 33
0.0
  0
SOLID
  5
C7D
330
1F
100
AcDbEntity
  8
SUNPO
  6
BYBLOCK
 62
   144
100
AcDbTrace
 10
727.6666666666665
 20
2056.0
 30
0.0
 11
732.3333333333335
 21
2056.0
 31
0.0
 12
730.0
 22
2070.0
 32
0.0
 13
730.0
 23
2070.0
 33
0.0
  0
LINE
  5
C7F
330
1F
100
AcDbEntity
  8
SUNPO
  6
BYBLOCK
 62
   144
100
AcDbLine
 10
980.0
 20
1900.0
 30
0.0
 11
830.0
 21
1900.0
 31
0.0
  0
LINE
  5
C80
330
1F
100
AcDbEntity
  8
SUNPO
  6
BYBLOCK
 62
   144
100
AcDbLine
 10
980.0
 20
2020.0
 30
0.0
 11
830.0
 21
2020.0
 31
0.0
  0
LINE
  5
C81
330
1F
100
AcDbEntity
  8
SUNPO
  6
BYBLOCK
 62
   144
100
AcDbLine
 10
840.0
 20
1886.0
 30
0.0
 11
840.0
 21
1872.0
 31
0.0
  0
LINE
  5
C82
330
1F
100
AcDbEntity
  8
SUNPO
  6
BYBLOCK
 62
   144
100
AcDbLine
 10
840.0
 20
2034.0
 30
0.0
 11
840.0
 21
2047.999999999999
 31
0.0
  0
LINE
  5
C83
330
1F
100
AcDbEntity
  8
SUNPO
  6
BYBLOCK
 62
   144
100
AcDbLine
 10
840.0
 20
1900.0
 30
0.0
 11
840.0
 21
2020.0
 31
0.0
  0
SOLID
  5
C84
330
1F
100
AcDbEntity
  8
SUNPO
  6
BYBLOCK
 62
   144
100
AcDbTrace
 10
837.6666666666665
 20
1886.0
 30
0.0
 11
842.3333333333332
 21
1886.0
 31
0.0
 12
840.0
 22
1900.0
 32
0.0
 13
840.0
 23
1900.0
 33
0.0
  0
SOLID
  5
C85
330
1F
100
AcDbEntity
  8
SUNPO
  6
BYBLOCK
 62
   144
100
AcDbTrace
 10
837.6666666666665
 20
2034.0
 30
0.0
 11
842.3333333333332
 21
2034.0
 31
0.0
 12
840.0
 22
2020.0
 32
0.0
 13
840.0
 23
2020.0
 33
0.0
  0
LINE
  5
C87
330
1F
100
AcDbEntity
  8
SUNPO
  6
BYBLOCK
 62
   144
100
AcDbLine
 10
1000.0
 20
2090.0
 30
0.0
 11
1000.0
 21
2350.0
 31
0.0
  0
LINE
  5
C88
330
1F
100
AcDbEntity
  8
SUNPO
  6
BYBLOCK
 62
   144
100
AcDbLine
 10
1700.0
 20
2090.0
 30
0.0
 11
1700.0
 21
2350.0
 31
0.0
  0
LINE
  5
C89
330
1F
100
AcDbEntity
  8
SUNPO
  6
BYBLOCK
 62
   144
100
AcDbLine
 10
1014.0
 20
2340.0
 30
0.0
 11
1686.0
 21
2340.0
 31
0.0
  0
SOLID
  5
C8A
330
1F
100
AcDbEntity
  8
SUNPO
  6
BYBLOCK
 62
   144
100
AcDbTrace
 10
1014.0
 20
2342.333333333333
 30
0.0
 11
1014.0
 21
2337.666666666666
 31
0.0
 12
1000.0
 22
2340.0
 32
0.0
 13
1000.0
 23
2340.0
 33
0.0
  0
SOLID
  5
C8B
330
1F
100
AcDbEntity
  8
SUNPO
  6
BYBLOCK
 62
   144
100
AcDbTrace
 10
1686.0
 20
2342.333333333333
 30
0.0
 11
1686.0
 21
2337.666666666666
 31
0.0
 12
1700.0
 22
2340.0
 32
0.0
 13
1700.0
 23
2340.0
 33
0.0
  0
LINE
  5
C8D
330
1F
100
AcDbEntity
  8
SUNPO
  6
BYBLOCK
 62
   144
100
AcDbLine
 10
1200.0
 20
2090.0
 30
0.0
 11
1200.0
 21
2220.0
 31
0.0
  0
LINE
  5
C8E
330
1F
100
AcDbEntity
  8
SUNPO
  6
BYBLOCK
 62
   144
100
AcDbLine
 10
1700.0
 20
2090.0
 30
0.0
 11
1700.0
 21
2220.0
 31
0.0
  0
LINE
  5
C8F
330
1F
100
AcDbEntity
  8
SUNPO
  6
BYBLOCK
 62
   144
100
AcDbLine
 10
1214.0
 20
2210.0
 30
0.0
 11
1686.0
 21
2210.0
 31
0.0
  0
SOLID
  5
C90
330
1F
100
AcDbEntity
  8
SUNPO
  6
BYBLOCK
 62
   144
100
AcDbTrace
 10
1214.0
 20
2212.333333333333
 30
0.0
 11
1214.0
 21
2207.666666666665
 31
0.0
 12
1200.0
 22
2210.0
 32
0.0
 13
1200.0
 23
2210.0
 33
0.0
  0
SOLID
  5
C91
330
1F
100
AcDbEntity
  8
SUNPO
  6
BYBLOCK
 62
   144
100
AcDbTrace
 10
1686.0
 20
2212.333333333333
 30
0.0
 11
1686.0
 21
2207.666666666665
 31
0.0
 12
1700.0
 22
2210.0
 32
0.0
 13
1700.0
 23
2210.0
 33
0.0
  0
LINE
  5
C93
330
1F
100
AcDbEntity
  8
SUNPO
  6
BYBLOCK
 62
   144
100
AcDbLine
 10
1000.0
 20
2090.0
 30
0.0
 11
1000.0
 21
2220.0
 31
0.0
  0
LINE
  5
C94
330
1F
100
AcDbEntity
  8
SUNPO
  6
BYBLOCK
 62
   144
100
AcDbLine
 10
1200.0
 20
2090.0
 30
0.0
 11
1200.0
 21
2220.0
 31
0.0
  0
LINE
  5
C95
330
1F
100
AcDbEntity
  8
SUNPO
  6
BYBLOCK
 62
   144
100
AcDbLine
 10
1014.0
 20
2210.0
 30
0.0
 11
1186.0
 21
2210.0
 31
0.0
  0
SOLID
  5
C96
330
1F
100
AcDbEntity
  8
SUNPO
  6
BYBLOCK
 62
   144
100
AcDbTrace
 10
1014.0
 20
2212.333333333333
 30
0.0
 11
1014.0
 21
2207.666666666665
 31
0.0
 12
1000.0
 22
2210.0
 32
0.0
 13
1000.0
 23
2210.0
 33
0.0
  0
SOLID
  5
C97
330
1F
100
AcDbEntity
  8
SUNPO
  6
BYBLOCK
 62
   144
100
AcDbTrace
 10
1186.0
 20
2212.333333333333
 30
0.0
 11
1186.0
 21
2207.666666666665
 31
0.0
 12
1200.0
 22
2210.0
 32
0.0
 13
1200.0
 23
2210.0
 33
0.0
  0
LINE
  5
C99
330
1F
100
AcDbEntity
  8
SUNPO
  6
BYBLOCK
 62
   144
100
AcDbLine
 10
1720.0
 20
1900.0
 30
0.0
 11
1950.0
 21
1900.0
 31
0.0
  0
LINE
  5
C9A
330
1F
100
AcDbEntity
  8
SUNPO
  6
BYBLOCK
 62
   144
100
AcDbLine
 10
1720.0
 20
2050.0
 30
0.0
 11
1950.0
 21
2050.0
 31
0.0
  0
LINE
  5
C9B
330
1F
100
AcDbEntity
  8
SUNPO
  6
BYBLOCK
 62
   144
100
AcDbLine
 10
1940.0
 20
1914.0
 30
0.0
 11
1940.0
 21
2036.0
 31
0.0
  0
SOLID
  5
C9C
330
1F
100
AcDbEntity
  8
SUNPO
  6
BYBLOCK
 62
   144
100
AcDbTrace
 10
1937.666666666666
 20
1914.0
 30
0.0
 11
1942.333333333333
 21
1914.0
 31
0.0
 12
1940.0
 22
1900.0
 32
0.0
 13
1940.0
 23
1900.0
 33
0.0
  0
SOLID
  5
C9D
330
1F
100
AcDbEntity
  8
SUNPO
  6
BYBLOCK
 62
   144
100
AcDbTrace
 10
1937.666666666666
 20
2036.0
 30
0.0
 11
1942.333333333333
 21
2036.0
 31
0.0
 12
1940.0
 22
2050.0
 32
0.0
 13
1940.0
 23
2050.0
 33
0.0
  0
LINE
  5
C9F
330
1F
100
AcDbEntity
  8
SUNPO
  6
BYBLOCK
 62
   144
100
AcDbLine
 10
2680.0
 20
1900.0
 30
0.0
 11
2440.0
 21
1900.0
 31
0.0
  0
LINE
  5
CA0
330
1F
100
AcDbEntity
  8
SUNPO
  6
BYBLOCK
 62
   144
100
AcDbLine
 10
2680.0
 20
2020.0
 30
0.0
 11
2440.0
 21
2020.0
 31
0.0
  0
LINE
  5
CA1
330
1F
100
AcDbEntity
  8
SUNPO
  6
BYBLOCK
 62
   144
100
AcDbLine
 10
2450.0
 20
1886.0
 30
0.0
 11
2450.0
 21
1872.0
 31
0.0
  0
LINE
  5
CA2
330
1F
100
AcDbEntity
  8
SUNPO
  6
BYBLOCK
 62
   144
100
AcDbLine
 10
2450.0
 20
2034.0
 30
0.0
 11
2450.0
 21
2048.0
 31
0.0
  0
LINE
  5
CA3
330
1F
100
AcDbEntity
  8
SUNPO
  6
BYBLOCK
 62
   144
100
AcDbLine
 10
2450.0
 20
1900.0
 30
0.0
 11
2450.0
 21
2020.0
 31
0.0
  0
SOLID
  5
CA4
330
1F
100
AcDbEntity
  8
SUNPO
  6
BYBLOCK
 62
   144
100
AcDbTrace
 10
2447.666666666666
 20
1886.0
 30
0.0
 11
2452.333333333333
 21
1886.0
 31
0.0
 12
2450.0
 22
1900.0
 32
0.0
 13
2450.0
 23
1900.0
 33
0.0
  0
SOLID
  5
CA5
330
1F
100
AcDbEntity
  8
SUNPO
  6
BYBLOCK
 62
   144
100
AcDbTrace
 10
2447.666666666666
 20
2034.0
 30
0.0
 11
2452.333333333333
 21
2034.0
 31
0.0
 12
2450.0
 22
2020.0
 32
0.0
 13
2450.0
 23
2020.0
 33
0.0
  0
LINE
  5
CA7
330
1F
100
AcDbEntity
  8
SUNPO
  6
BYBLOCK
 62
   144
100
AcDbLine
 10
4720.0
 20
1900.0
 30
0.0
 11
4859.999999999999
 21
1900.0
 31
0.0
  0
LINE
  5
CA8
330
1F
100
AcDbEntity
  8
SUNPO
  6
BYBLOCK
 62
   144
100
AcDbLine
 10
4720.0
 20
2050.0
 30
0.0
 11
4860.0
 21
2050.0
 31
0.0
  0
LINE
  5
CA9
330
1F
100
AcDbEntity
  8
SUNPO
  6
BYBLOCK
 62
   144
100
AcDbLine
 10
4849.999999999999
 20
1914.0
 30
0.0
 11
4849.999999999999
 21
2036.0
 31
0.0
  0
SOLID
  5
CAA
330
1F
100
AcDbEntity
  8
SUNPO
  6
BYBLOCK
 62
   144
100
AcDbTrace
 10
4847.666666666666
 20
1914.0
 30
0.0
 11
4852.333333333332
 21
1914.0
 31
0.0
 12
4849.999999999999
 22
1900.0
 32
0.0
 13
4849.999999999999
 23
1900.0
 33
0.0
  0
SOLID
  5
CAB
330
1F
100
AcDbEntity
  8
SUNPO
  6
BYBLOCK
 62
   144
100
AcDbTrace
 10
4847.666666666666
 20
2036.0
 30
0.0
 11
4852.333333333332
 21
2036.0
 31
0.0
 12
4850.0
 22
2050.0
 32
0.0
 13
4850.0
 23
2050.0
 33
0.0
  0
LINE
  5
CAD
330
1F
100
AcDbEntity
  8
SUNPO
  6
BYBLOCK
 62
   144
100
AcDbLine
 10
2700.0
 20
1880.0
 30
0.0
 11
2700.0
 21
1760.0
 31
0.0
  0
LINE
  5
CAE
330
1F
100
AcDbEntity
  8
SUNPO
  6
BYBLOCK
 62
   144
100
AcDbLine
 10
4700.0
 20
1880.0
 30
0.0
 11
4700.0
 21
1760.0
 31
0.0
  0
LINE
  5
CAF
330
1F
100
AcDbEntity
  8
SUNPO
  6
BYBLOCK
 62
   144
100
AcDbLine
 10
2714.0
 20
1770.0
 30
0.0
 11
4686.0
 21
1770.0
 31
0.0
  0
SOLID
  5
CB0
330
1F
100
AcDbEntity
  8
SUNPO
  6
BYBLOCK
 62
   144
100
AcDbTrace
 10
2714.0
 20
1772.333333333333
 30
0.0
 11
2714.0
 21
1767.666666666666
 31
0.0
 12
2700.0
 22
1770.0
 32
0.0
 13
2700.0
 23
1770.0
 33
0.0
  0
SOLID
  5
CB1
330
1F
100
AcDbEntity
  8
SUNPO
  6
BYBLOCK
 62
   144
100
AcDbTrace
 10
4686.0
 20
1772.333333333333
 30
0.0
 11
4686.0
 21
1767.666666666666
 31
0.0
 12
4700.0
 22
1770.0
 32
0.0
 13
4700.0
 23
1770.0
 33
0.0
  0
LINE
  5
CB3
330
1F
100
AcDbEntity
  8
SUNPO
  6
BYBLOCK
 62
   144
100
AcDbLine
 10
1000.0
 20
1880.0
 30
0.0
 11
1000.0
 21
1760.0
 31
0.0
  0
LINE
  5
CB4
330
1F
100
AcDbEntity
  8
SUNPO
  6
BYBLOCK
 62
   144
100
AcDbLine
 10
1700.0
 20
1880.0
 30
0.0
 11
1700.0
 21
1760.0
 31
0.0
  0
LINE
  5
CB5
330
1F
100
AcDbEntity
  8
SUNPO
  6
BYBLOCK
 62
   144
100
AcDbLine
 10
1014.0
 20
1770.0
 30
0.0
 11
1686.0
 21
1770.0
 31
0.0
  0
SOLID
  5
CB6
330
1F
100
AcDbEntity
  8
SUNPO
  6
BYBLOCK
 62
   144
100
AcDbTrace
 10
1014.0
 20
1772.333333333333
 30
0.0
 11
1014.0
 21
1767.666666666666
 31
0.0
 12
1000.0
 22
1770.0
 32
0.0
 13
1000.0
 23
1770.0
 33
0.0
  0
SOLID
  5
CB7
330
1F
100
AcDbEntity
  8
SUNPO
  6
BYBLOCK
 62
   144
100
AcDbTrace
 10
1686.0
 20
1772.333333333333
 30
0.0
 11
1686.0
 21
1767.666666666666
 31
0.0
 12
1700.0
 22
1770.0
 32
0.0
 13
1700.0
 23
1770.0
 33
0.0
  0
LINE
  5
CB9
330
1F
100
AcDbEntity
  8
3C1
100
AcDbLine
 10
2700.0
 20
1900.0
 30
0.0
 11
4700.0
 21
1900.0
 31
0.0
  0
LINE
  5
CBA
330
1F
100
AcDbEntity
  8
3C1
100
AcDbLine
 10
4700.0
 20
1900.0
 30
0.0
 11
4700.0
 21
2070.0
 31
0.0
  0
LINE
  5
CBB
330
1F
100
AcDbEntity
  8
3C1
100
AcDbLine
 10
4700.0
 20
2070.0
 30
0.0
 11
2700.0
 21
2070.0
 31
0.0
  0
LINE
  5
CBC
330
1F
100
AcDbEntity
  8
3C1
100
AcDbLine
 10
2700.0
 20
2070.0
 30
0.0
 11
2700.0
 21
1900.0
 31
0.0
  0
TEXT
  5
CBD
330
1F
100
AcDbEntity
  8
SUNPO
  6
BYBLOCK
100
AcDbText
 10
3246.680311730542
 20
359.2274732162223
 30
0.0
 40
70.0
  1
１／２０
  7
ADD
100
AcDbText
  0
TEXT
  5
CBE
330
1F
100
AcDbEntity
  8
SUNPO
  6
BYBLOCK
100
AcDbText
 10
381.8862574011546
 20
488.6918916770627
 30
0.0
 40
50.0
  1
製品名
  7
ADD
100
AcDbText
  0
TEXT
  5
CBF
330
1F
100
AcDbEntity
  8
SUNPO
  6
BYBLOCK
100
AcDbText
 10
2376.290169028722
 20
494.4531736811823
 30
0.0
 40
50.0
  1
型式
  7
ADD
100
AcDbText
  0
TEXT
  5
CC0
330
1F
100
AcDbEntity
  8
SUNPO
  6
BYBLOCK
100
AcDbText
 10
3177.510249231657
 20
488.6918916770627
 30
0.0
 40
50.0
  1
縮尺
  7
ADD
100
AcDbText
  0
TEXT
  5
CC1
330
1F
100
AcDbEntity
  8
SUNPO
  6
BYBLOCK
100
AcDbText
 10
3730.870883051572
 20
352.2726133092144
 30
0.0
 40
100.0
  1
千葉県コンクリート製品協同組合
  7
ADD
100
AcDbText
  0
LINE
  5
CC2
330
1F
100
AcDbEntity
  8
HOJO
100
AcDbLine
 10
360.0
 20
260.0
 30
0.0
 11
5580.0
 21
260.0
 31
0.0
  0
LINE
  5
CC3
330
1F
100
AcDbEntity
  8
HOJO
100
AcDbLine
 10
5580.0
 20
260.0
 30
0.0
 11
5580.0
 21
3940.0
 31
0.0
  0
LINE
  5
CC4
330
1F
100
AcDbEntity
  8
HOJO
100
AcDbLine
 10
5580.0
 20
3940.0
 30
0.0
 11
360.0
 21
3940.0
 31
0.0
  0
LINE
  5
CC5
330
1F
100
AcDbEntity
  8
HOJO
100
AcDbLine
 10
360.0
 20
3940.0
 30
0.0
 11
360.0
 21
260.0
 31
0.0
  0
LINE
  5
CC6
330
1F
100
AcDbEntity
  8
HOJO
100
AcDbLine
 10
0.0
 20
0.0
 30
0.0
 11
5940.0
 21
0.0
 31
0.0
  0
LINE
  5
CC7
330
1F
100
AcDbEntity
  8
HOJO
100
AcDbLine
 10
5940.0
 20
0.0
 30
0.0
 11
5940.0
 21
4200.0
 31
0.0
  0
LINE
  5
CC8
330
1F
100
AcDbEntity
  8
HOJO
100
AcDbLine
 10
5940.0
 20
4200.0
 30
0.0
 11
0.0
 21
4200.0
 31
0.0
  0
LINE
  5
CC9
330
1F
100
AcDbEntity
  8
HOJO
100
AcDbLine
 10
0.0
 20
4200.0
 30
0.0
 11
0.0
 21
0.0
 31
0.0
  0
TEXT
  5
CCA
330
1F
100
AcDbEntity
  8
SUNPO
  6
BYBLOCK
 62
     7
100
AcDbText
 10
1278.571428571428
 20
1782.499999999999
 30
0.0
 40
50.0
  1
700
  7
ADD
100
AcDbText
  0
TEXT
  5
CCB
330
1F
100
AcDbEntity
  8
SUNPO
  6
BYBLOCK
 62
     7
100
AcDbText
 10
3604.761904761904
 20
1782.499999999999
 30
0.0
 40
50.0
  1
2000
  7
ADD
100
AcDbText
  0
TEXT
  5
CCC
330
1F
100
AcDbEntity
  8
SUNPO
  6
BYBLOCK
 62
     7
100
AcDbText
 10
4837.499999999999
 20
1900.0
 30
0.0
 40
50.0
  1
150
 50
90.0
  7
ADD
100
AcDbText
  0
TEXT
  5
CCD
330
1F
100
AcDbEntity
  8
SUNPO
  6
BYBLOCK
 62
     7
100
AcDbText
 10
2437.5
 20
1885.0
 30
0.0
 40
50.0
  1
120
 50
90.0
  7
ADD
100
AcDbText
  0
TEXT
  5
CCE
330
1F
100
AcDbEntity
  8
SUNPO
  6
BYBLOCK
 62
     7
100
AcDbText
 10
1927.5
 20
1900.0
 30
0.0
 40
50.0
  1
150
 50
90.0
  7
ADD
100
AcDbText
  0
TEXT
  5
CCF
330
1F
100
AcDbEntity
  8
SUNPO
  6
BYBLOCK
 62
     7
100
AcDbText
 10
1028.571428571428
 20
2222.5
 30
0.0
 40
50.0
  1
200
  7
ADD
100
AcDbText
  0
TEXT
  5
CD0
330
1F
100
AcDbEntity
  8
SUNPO
  6
BYBLOCK
 62
     7
100
AcDbText
 10
1378.571428571428
 20
2222.5
 30
0.0
 40
50.0
  1
500
  7
ADD
100
AcDbText
  0
TEXT
  5
CD1
330
1F
100
AcDbEntity
  8
SUNPO
  6
BYBLOCK
 62
     7
100
AcDbText
 10
1278.571428571428
 20
2352.5
 30
0.0
 40
50.0
  1
700
  7
ADD
100
AcDbText
  0
TEXT
  5
CD2
330
1F
100
AcDbEntity
  8
SUNPO
  6
BYBLOCK
 62
     7
100
AcDbText
 10
827.4999999999996
 20
1885.0
 30
0.0
 40
50.0
  1
120
 50
90.0
  7
ADD
100
AcDbText
  0
TEXT
  5
CD3
330
1F
100
AcDbEntity
  8
SUNPO
  6
BYBLOCK
 62
     7
100
AcDbText
 10
717.4999999999997
 20
1910.0
 30
0.0
 40
50.0
  1
170
 50
90.0
  7
ADD
100
AcDbText
  0
TEXT
  5
CD4
330
1F
100
AcDbEntity
  8
SUNPO
  6
BYBLOCK
 62
     7
100
AcDbText
 10
3687.499999999998
 20
1885.0
 30
0.0
 40
50.0
  1
120
 50
90.0
  7
ADD
100
AcDbText
  0
TEXT
  5
CD5
330
1F
100
AcDbEntity
  8
SUNPO
  6
BYBLOCK
 62
     7
100
AcDbText
 10
1437.5
 20
1885.0
 30
0.0
 40
50.0
  1
120
 50
90.0
  7
ADD
100
AcDbText
  0
TEXT
  5
CD6
330
1F
100
AcDbEntity
  8
SUNPO
  6
BYBLOCK
 62
     7
100
AcDbText
 10
2426.080496178721
 20
2068.797517262292
 30
0.0
 40
50.0
  1
50
 50
90.0
  7
ADD
100
AcDbText
  0
TEXT
  5
CD7
330
1F
100
AcDbEntity
  8
SUNPO
  6
BYBLOCK
 62
     7
100
AcDbText
 10
1018.924990013376
 20
1858.48726425207
 30
0.0
 40
50.0
  1
R20
 50
44.71779875736095
  7
ADD
100
AcDbText
  0
VIEWPORT
  5
72
330
1B
100
AcDbEntity
 67
     1
  8
0
100
AcDbViewport
 10
429.8380103383458
 20
277.0
 30
0.0
 40
948.9782706766916
 41
628.4520000000001
 68
     1
 69
     1
1001
ACAD
1000
MVIEW
1002
{
1070
    16
1010
0.0
1020
0.0
1030
0.0
1010
0.0
1020
0.0
1030
1.0
1040
0.0
1040
628.4520000000001
1040
429.8380103383458
1040
277.0
1040
50.0
1040
0.0
1040
0.0
1070
     0
1070
   100
1070
     1
1070
     1
1070
     0
1070
     0
1070
     0
1070
     0
1040
0.0
1040
0.0
1040
0.0
1040
10.0
1040
10.0
1040
10.0
1040
10.0
1070
     0
1002
{
1002
}
1002
}
  0
VIEWPORT
  5
74
330
1B
100
AcDbEntity
 67
     1
  8
VIEWPORT
100
AcDbViewport
 10
414.3779638919212
 20
277.3177265058034
 30
0.0
 40
840.0353682728887
 41
567.2285469943826
 68
     2
 69
     2
1001
ACAD
1000
MVIEW
1002
{
1070
    16
1010
0.0
1020
0.0
1030
0.0
1010
0.0
1020
0.0
1030
1.0
1040
0.0
1040
579.5583043546322
1040
424.4938908624541
1040
286.1973242720074
1040
50.0
1040
0.0
1040
0.0
1070
     0
1070
   100
1070
     1
1070
     1
1070
     0
1070
     0
1070
     0
1070
     0
1040
0.0
1040
0.0
1040
0.0
1040
10.0
1040
10.0
1040
10.0
1040
10.0
1070
     0
1002
{
1002
}
1002
}
  0
ENDSEC
  0
SECTION
  2
OBJECTS
  0
DICTIONARY
  5
C
330
0
100
AcDbDictionary
  3
ACAD_GROUP
350
D
  3
ACAD_LAYOUT
350
1A
  3
ACAD_MLINESTYLE
350
17
  3
ACAD_PLOTSETTINGS
350
19
  3
ACADDIM
350
B4D
  3
DWGPROPS
350
4C7
1001
ACAD
1000
TREAT_AS_HARD
1070
     0
1000
TREAT_AS_HARD
1070
     0
  0
DICTIONARY
  5
ACF
330
1F
100
AcDbDictionary
  3
ACAD_LAYOUTSELFREF
350
D0B
1001
ACAD
1000
TREAT_AS_HARD
1070
     1
1000
TREAT_AS_HARD
1070
     0
  0
DICTIONARY
  5
AD1
330
1B
100
AcDbDictionary
  3
ACAD_LAYOUTSELFREF
350
D0A
1001
ACAD
1000
TREAT_AS_HARD
1070
     1
1000
TREAT_AS_HARD
1070
     0
  0
DICTIONARY
  5
D
102
{ACAD_REACTORS
330
C
102
}
330
C
100
AcDbDictionary
1001
ACAD
1000
TREAT_AS_HARD
1070
     0
1000
TREAT_AS_HARD
1070
     0
  0
DICTIONARY
  5
1A
102
{ACAD_REACTORS
330
C
102
}
330
C
100
AcDbDictionary
1001
ACAD
1000
TREAT_AS_HARD
1070
     0
1000
TREAT_AS_HARD
1070
     0
  0
DICTIONARY
  5
17
102
{ACAD_REACTORS
330
C
102
}
330
C
100
AcDbDictionary
  3
STANDARD
350
18
1001
ACAD
1000
TREAT_AS_HARD
1070
     0
1000
TREAT_AS_HARD
1070
     0
  0
DICTIONARY
  5
19
102
{ACAD_REACTORS
330
C
102
}
330
C
100
AcDbDictionary
1001
ACAD
1000
TREAT_AS_HARD
1070
     0
1000
TREAT_AS_HARD
1070
     0
  0
XRECORD
  5
B4D
102
{ACAD_REACTORS
330
C
102
}
330
C
100
AcDbXrecord
 90
   990106
  3

 60
     0
 61
     0
 62
     1
 63
     3
 64
     0
 65
     0
 66
     0
 67
     3
 68
     1
 69
     0
 70
     0
 71
     0
 72
     0
 40
0.0
170
     1
  0
XRECORD
  5
4C7
102
{ACAD_REACTORS
330
C
102
}
330
C
100
AcDbXrecord
  1
DWGPROPS COOKIE
  2
印刷用テスト
  3
AutoCAD2000による建築設計
  4
鈴木 裕二
  6

  7

  8
U2
  9

300
=
301
=
302
=
303
=
304
=
305
=
306
=
307
=
308
=
309
=
 40
0.7653446875
 41
2451285.4846114
 42
2451333.689743032
  1

 90
        0
  0
XRECORD
  5
D0B
102
{ACAD_REACTORS
330
ACF
102
}
330
ACF
100
AcDbXrecord
340
1F
  0
XRECORD
  5
D0A
102
{ACAD_REACTORS
330
AD1
102
}
330
AD1
100
AcDbXrecord
340
1B
  0
MLINESTYLE
  5
18
102
{ACAD_REACTORS
330
17
102
}
330
17
100
AcDbMlineStyle
  2
STANDARD
 70
     0
  3

 62
   256
 51
90.0
 52
90.0
 71
     2
 49
0.5
 62
   256
  6
BYLAYER
 49
-0.5
 62
   256
  6
BYLAYER
  0
ENDSEC
  0
EOF
