  0
SECTION
  2
HEADER
  9
$ACADVER
  1
AC1012
  9
$DWGCODEPAGE
  3
dos932
  9
$INSBASE
 10
0.0
 20
0.0
 30
0.0
  9
$EXTMIN
 10
-0.2718396993659553
 20
-0.1922098884388106
 30
-0.0000000000000058
  9
$EXTMAX
 10
5940.271950346394
 20
4200.192288123711
 30
0.0000000000000104
  9
$LIMMIN
 10
0.0
 20
0.0
  9
$LIMMAX
 10
5940.0
 20
4200.0
  9
$ORTHOMODE
 70
     0
  9
$REGENMODE
 70
     1
  9
$FILLMODE
 70
     1
  9
$QTEXTMODE
 70
     0
  9
$MIRRTEXT
 70
     0
  9
$DRAGMODE
 70
     2
  9
$LTSCALE
 40
10.0
  9
$OSMODE
 70
  3071
  9
$ATTMODE
 70
     1
  9
$TEXTSIZE
 40
50.0
  9
$TRACEWID
 40
1.0
  9
$TEXTSTYLE
  7
ADD
  9
$CLAYER
  8
SUNPO
  9
$CELTYPE
  6
BYLAYER
  9
$CECOLOR
 62
   256
  9
$CELTSCALE
 40
1.0
  9
$DELOBJ
 70
     1
  9
$DISPSILH
 70
     0
  9
$DIMSCALE
 40
20.0
  9
$DIMASZ
 40
2.5
  9
$DIMEXO
 40
1.0
  9
$DIMDLI
 40
7.0
  9
$DIMRND
 40
0.0
  9
$DIMDLE
 40
0.0
  9
$DIMEXE
 40
0.5
  9
$DIMTP
 40
0.0
  9
$DIMTM
 40
0.0
  9
$DIMTXT
 40
2.5
  9
$DIMCEN
 40
2.5
  9
$DIMTSZ
 40
0.0
  9
$DIMTOL
 70
     0
  9
$DIMLIM
 70
     0
  9
$DIMTIH
 70
     0
  9
$DIMTOH
 70
     0
  9
$DIMSE1
 70
     0
  9
$DIMSE2
 70
     0
  9
$DIMTAD
 70
     1
  9
$DIMZIN
 70
     8
  9
$DIMBLK
  1

  9
$DIMASO
 70
     1
  9
$DIMSHO
 70
     1
  9
$DIMPOST
  1

  9
$DIMAPOST
  1

  9
$DIMALT
 70
     0
  9
$DIMALTD
 70
     3
  9
$DIMALTF
 40
0.03937007874016
  9
$DIMLFAC
 40
1.0
  9
$DIMTOFL
 70
     1
  9
$DIMTVP
 40
0.7
  9
$DIMTIX
 70
     1
  9
$DIMSOXD
 70
     0
  9
$DIMSAH
 70
     0
  9
$DIMBLK1
  1

  9
$DIMBLK2
  1

  9
$DIMSTYLE
  2
ADD
  9
$DIMCLRD
 70
   144
  9
$DIMCLRE
 70
   144
  9
$DIMCLRT
 70
     7
  9
$DIMTFAC
 40
1.0
  9
$DIMGAP
 40
0.625
  9
$DIMJUST
 70
     0
  9
$DIMSD1
 70
     0
  9
$DIMSD2
 70
     0
  9
$DIMTOLJ
 70
     2
  9
$DIMTZIN
 70
     8
  9
$DIMALTZ
 70
     0
  9
$DIMALTTZ
 70
     0
  9
$DIMFIT
 70
     5
  9
$DIMUPT
 70
     0
  9
$DIMUNIT
 70
     2
  9
$DIMDEC
 70
     1
  9
$DIMTDEC
 70
     1
  9
$DIMALTU
 70
     2
  9
$DIMALTTD
 70
     3
  9
$DIMTXSTY
  7
ADD
  9
$DIMAUNIT
 70
     0
  9
$LUNITS
 70
     2
  9
$LUPREC
 70
     4
  9
$SKETCHINC
 40
1.0
  9
$FILLETRAD
 40
20.0
  9
$AUNITS
 70
     0
  9
$AUPREC
 70
     1
  9
$MENU
  1
.
  9
$ELEVATION
 40
0.0
  9
$PELEVATION
 40
0.0
  9
$THICKNESS
 40
0.0
  9
$LIMCHECK
 70
     0
  9
$BLIPMODE
 70
     0
  9
$CHAMFERA
 40
10.0
  9
$CHAMFERB
 40
10.0
  9
$CHAMFERC
 40
20.0
  9
$CHAMFERD
 40
0.0
  9
$SKPOLY
 70
     0
  9
$TDCREATE
 40
2451801.142532870
  9
$TDUPDATE
 40
2452537.592733182
  9
$TDINDWG
 40
0.1519204051
  9
$TDUSRTIMER
 40
0.1519204051
  9
$USRTIMER
 70
     1
  9
$ANGBASE
 50
0.0
  9
$ANGDIR
 70
     0
  9
$PDMODE
 70
     0
  9
$PDSIZE
 40
0.0
  9
$PLINEWID
 40
0.0
  9
$COORDS
 70
     1
  9
$SPLFRAME
 70
     0
  9
$SPLINETYPE
 70
     6
  9
$SPLINESEGS
 70
     8
  9
$ATTDIA
 70
     0
  9
$ATTREQ
 70
     1
  9
$HANDLING
 70
 22529
  9
$HANDSEED
  5
DA5
  9
$SURFTAB1
 70
     6
  9
$SURFTAB2
 70
     6
  9
$SURFTYPE
 70
     6
  9
$SURFU
 70
     6
  9
$SURFV
 70
     6
  9
$UCSNAME
  2

  9
$UCSORG
 10
0.0
 20
0.0
 30
0.0
  9
$UCSXDIR
 10
1.0
 20
0.0
 30
0.0
  9
$UCSYDIR
 10
0.0
 20
1.0
 30
0.0
  9
$PUCSNAME
  2

  9
$PUCSORG
 10
0.0
 20
0.0
 30
0.0
  9
$PUCSXDIR
 10
1.0
 20
0.0
 30
0.0
  9
$PUCSYDIR
 10
0.0
 20
1.0
 30
0.0
  9
$USERI1
 70
     0
  9
$USERI2
 70
     0
  9
$USERI3
 70
     0
  9
$USERI4
 70
     0
  9
$USERI5
 70
     0
  9
$USERR1
 40
841.0
  9
$USERR2
 40
594.0
  9
$USERR3
 40
1.0
  9
$USERR4
 40
0.0
  9
$USERR5
 40
0.0
  9
$WORLDVIEW
 70
     1
  9
$SHADEDGE
 70
     3
  9
$SHADEDIF
 70
    70
  9
$TILEMODE
 70
     1
  9
$MAXACTVP
 70
    48
  9
$PINSBASE
 10
0.0
 20
0.0
 30
0.0
  9
$PLIMCHECK
 70
     0
  9
$PEXTMIN
 10
-5.639720244523232
 20
-6.296546991387913
 30
0.0
  9
$PEXTMAX
 10
834.3956480283654
 20
560.9320000029947
 30
0.0
  9
$PLIMMIN
 10
-7.500000000000001
 20
-20.0
  9
$PLIMMAX
 10
833.5000000000002
 20
574.0000000000001
  9
$UNITMODE
 70
     0
  9
$VISRETAIN
 70
     1
  9
$PLINEGEN
 70
     0
  9
$PSLTSCALE
 70
     1
  9
$TREEDEPTH
 70
  3020
  9
$PICKSTYLE
 70
     1
  9
$CMLSTYLE
  2
STANDARD
  9
$CMLJUST
 70
     0
  9
$CMLSCALE
 40
20.0
  9
$SAVEIMAGES
 70
     1
  0
ENDSEC
  0
SECTION
  2
CLASSES
  0
CLASS
  1
ACDBDICTIONARYWDFLT
  2
AcDbDictionaryWithDefault
  3
AutoCAD 2000
 90
    32768
280
     0
281
     0
  0
CLASS
  1
ACDBPLACEHOLDER
  2
AcDbPlaceHolder
  3
AutoCAD 2000
 90
    32768
280
     0
281
     0
  0
CLASS
  1
LAYOUT
  2
AcDbLayout
  3
AutoCAD 2000
 90
    32768
280
     0
281
     0
  0
CLASS
  1
RTEXT
  2
RText
  3
RText|AutoCAD Express Tool|expresstools@autodesk.com
 90
    32768
280
     0
281
     1
  0
CLASS
  1
DICTIONARYVAR
  2
AcDbDictionaryVar
  3
AutoCAD 2000
 90
    32768
280
     0
281
     0
  0
CLASS
  1
LONG_TRANSACTION
  2
AcDbLongTransaction
  3
AutoCAD 2000
 90
    32768
280
     0
281
     0
  0
CLASS
  1
LWPOLYLINE
  2
AcDbPolyline
  3
AutoCAD 2000
 90
    32768
280
     0
281
     1
  0
CLASS
  1
HATCH
  2
AcDbHatch
  3
AutoCAD 2000
 90
    32768
280
     0
281
     1
  0
CLASS
  1
XRECORD
  2
AcDbXrecord
  3
AutoCAD 2000
 90
    32768
280
     0
281
     0
  0
CLASS
  1
LONG_TRANSACTION
  2
AcDbLongTransaction
  3
AutoCAD 2000
 90
    32768
280
     0
281
     0
  0
CLASS
  1
LWPOLYLINE
  2
AcDbPolyline
  3
AutoCAD 2000
 90
    32768
280
     0
281
     1
  0
CLASS
  1
HATCH
  2
AcDbHatch
  3
AutoCAD 2000
 90
    32768
280
     0
281
     1
  0
CLASS
  1
XRECORD
  2
AcDbXrecord
  3
AutoCAD 2000
 90
    32768
280
     0
281
     0
  0
CLASS
  1
LONG_TRANSACTION
  2
AcDbLongTransaction
  3
AutoCAD 2000
 90
    32768
280
     0
281
     0
  0
CLASS
  1
LWPOLYLINE
  2
AcDbPolyline
  3
AutoCAD 2000
 90
    32768
280
     0
281
     1
  0
CLASS
  1
HATCH
  2
AcDbHatch
  3
AutoCAD 2000
 90
    32768
280
     0
281
     1
  0
CLASS
  1
XRECORD
  2
AcDbXrecord
  3
AutoCAD 2000
 90
    32768
280
     0
281
     0
  0
ENDSEC
  0
SECTION
  2
TABLES
  0
TABLE
  2
VPORT
  5
8
330
0
100
AcDbSymbolTable
 70
     5
  0
VPORT
  5
D95
330
8
100
AcDbSymbolTableRecord
100
AcDbViewportTableRecord
  2
*ACTIVE
 70
     0
 10
0.0
 20
0.0
 11
1.0
 21
1.0
 12
2970.000055323514
 22
2100.000039117636
 13
0.0
 23
0.0
 14
10.0
 24
10.0
 15
10.0
 25
10.0
 16
0.0
 26
0.0
 36
1.0
 17
0.0
 27
0.0
 37
0.0
 40
4231.926809636772
 41
1.510025062656641
 42
50.0
 43
0.0
 44
0.0
 50
0.0
 51
0.0
 71
     0
 72
   100
 73
     1
 74
     1
 75
     0
 76
     0
 77
     0
 78
     0
  0
ENDTAB
  0
TABLE
  2
LTYPE
  5
5
330
0
100
AcDbSymbolTable
 70
     5
  0
LTYPE
  5
14
330
5
100
AcDbSymbolTableRecord
100
AcDbLinetypeTableRecord
  2
BYBLOCK
 70
     0
  3

 72
    65
 73
     0
 40
0.0
  0
LTYPE
  5
15
330
5
100
AcDbSymbolTableRecord
100
AcDbLinetypeTableRecord
  2
BYLAYER
 70
     0
  3

 72
    65
 73
     0
 40
0.0
  0
LTYPE
  5
16
330
5
100
AcDbSymbolTableRecord
100
AcDbLinetypeTableRecord
  2
CONTINUOUS
 70
     0
  3
Solid line
 72
    65
 73
     0
 40
0.0
  0
LTYPE
  5
555
330
5
100
AcDbSymbolTableRecord
100
AcDbLinetypeTableRecord
  2
CENTER
 70
     0
  3
Center ____ _ ____ _ ____ _ ____ _ ____ _ ____
 72
    65
 73
     4
 40
50.8
 49
31.75
 74
     0
 49
-6.349999999999999
 74
     0
 49
6.349999999999999
 74
     0
 49
-6.349999999999999
 74
     0
  0
LTYPE
  5
556
330
5
100
AcDbSymbolTableRecord
100
AcDbLinetypeTableRecord
  2
HIDDEN
 70
     0
  3
Hidden __ __ __ __ __ __ __ __ __ __ __ __ __ _
 72
    65
 73
     2
 40
9.524999999999998
 49
6.349999999999999
 74
     0
 49
-3.174999999999999
 74
     0
  0
LTYPE
  5
557
330
5
100
AcDbSymbolTableRecord
100
AcDbLinetypeTableRecord
  2
HIDDEN2
 70
     0
  3
Hidden (.5x) _ _ _ _ _ _ _ _ _ _ _ _ _ _ _ _ _
 72
    65
 73
     2
 40
4.762499999999999
 49
3.174999999999999
 74
     0
 49
-1.587499999999999
 74
     0
  0
LTYPE
  5
558
330
5
100
AcDbSymbolTableRecord
100
AcDbLinetypeTableRecord
  2
PHANTOM
 70
     0
  3
Phantom ______  __  __  ______  __  __  ______
 72
    65
 73
     6
 40
63.5
 49
31.75
 74
     0
 49
-6.349999999999999
 74
     0
 49
6.349999999999999
 74
     0
 49
-6.349999999999999
 74
     0
 49
6.349999999999999
 74
     0
 49
-6.349999999999999
 74
     0
  0
ENDTAB
  0
TABLE
  2
LAYER
  5
2
330
0
100
AcDbSymbolTable
 70
    22
  0
LAYER
  5
10
330
2
100
AcDbSymbolTableRecord
100
AcDbLayerTableRecord
  2
0
 70
     0
 62
     7
  6
CONTINUOUS
  0
LAYER
  5
75
330
2
100
AcDbSymbolTableRecord
100
AcDbLayerTableRecord
  2
VIEWPORT
 70
     0
 62
     1
  6
CONTINUOUS
  0
LAYER
  5
504
330
2
100
AcDbSymbolTableRecord
100
AcDbLayerTableRecord
  2
DEFPOINTS
 70
     0
 62
     7
  6
CONTINUOUS
  0
LAYER
  5
505
330
2
100
AcDbSymbolTableRecord
100
AcDbLayerTableRecord
  2
1C1
 70
     0
 62
   254
  6
CONTINUOUS
  0
LAYER
  5
506
330
2
100
AcDbSymbolTableRecord
100
AcDbLayerTableRecord
  2
1C2
 70
     0
 62
   254
  6
CONTINUOUS
  0
LAYER
  5
507
330
2
100
AcDbSymbolTableRecord
100
AcDbLayerTableRecord
  2
2C1
 70
     0
 62
   144
  6
CONTINUOUS
  0
LAYER
  5
508
330
2
100
AcDbSymbolTableRecord
100
AcDbLayerTableRecord
  2
2C2
 70
     0
 62
   144
  6
CONTINUOUS
  0
LAYER
  5
509
330
2
100
AcDbSymbolTableRecord
100
AcDbLayerTableRecord
  2
2H1
 70
     0
 62
   144
  6
HIDDEN
  0
LAYER
  5
50A
330
2
100
AcDbSymbolTableRecord
100
AcDbLayerTableRecord
  2
2H2
 70
     0
 62
   144
  6
HIDDEN2
  0
LAYER
  5
50B
330
2
100
AcDbSymbolTableRecord
100
AcDbLayerTableRecord
  2
2P1
 70
     0
 62
   144
  6
PHANTOM
  0
LAYER
  5
50C
330
2
100
AcDbSymbolTableRecord
100
AcDbLayerTableRecord
  2
3C1
 70
     0
 62
     7
  6
CONTINUOUS
  0
LAYER
  5
50D
330
2
100
AcDbSymbolTableRecord
100
AcDbLayerTableRecord
  2
3C2
 70
     0
 62
     7
  6
CONTINUOUS
  0
LAYER
  5
50E
330
2
100
AcDbSymbolTableRecord
100
AcDbLayerTableRecord
  2
3C3
 70
     0
 62
     7
  6
CONTINUOUS
  0
LAYER
  5
50F
330
2
100
AcDbSymbolTableRecord
100
AcDbLayerTableRecord
  2
4H1
 70
     0
 62
     6
  6
HIDDEN
  0
LAYER
  5
510
330
2
100
AcDbSymbolTableRecord
100
AcDbLayerTableRecord
  2
4H2
 70
     0
 62
     6
  6
HIDDEN2
  0
LAYER
  5
511
330
2
100
AcDbSymbolTableRecord
100
AcDbLayerTableRecord
  2
5C1
 70
     0
 62
    55
  6
CONTINUOUS
  0
LAYER
  5
512
330
2
100
AcDbSymbolTableRecord
100
AcDbLayerTableRecord
  2
5C2
 70
     0
 62
    55
  6
CONTINUOUS
  0
LAYER
  5
513
330
2
100
AcDbSymbolTableRecord
100
AcDbLayerTableRecord
  2
8C1
 70
     0
 62
    92
  6
CONTINUOUS
  0
LAYER
  5
514
330
2
100
AcDbSymbolTableRecord
100
AcDbLayerTableRecord
  2
HOJO
 70
     0
 62
     5
  6
CONTINUOUS
  0
LAYER
  5
515
330
2
100
AcDbSymbolTableRecord
100
AcDbLayerTableRecord
  2
KIJUN
 70
     0
 62
     1
  6
CENTER
  0
LAYER
  5
516
330
2
100
AcDbSymbolTableRecord
100
AcDbLayerTableRecord
  2
MOJI
 70
     0
 62
     7
  6
CONTINUOUS
  0
LAYER
  5
517
330
2
100
AcDbSymbolTableRecord
100
AcDbLayerTableRecord
  2
SUNPO
 70
     0
 62
   144
  6
CONTINUOUS
  0
ENDTAB
  0
TABLE
  2
STYLE
  5
3
330
0
100
AcDbSymbolTable
 70
     6
  0
STYLE
  5
11
330
3
100
AcDbSymbolTableRecord
100
AcDbTextStyleTableRecord
  2
STANDARD
 70
     0
 40
0.0
 41
1.0
 50
0.0
 71
     0
 42
2.5
  3
txt
  4

  0
STYLE
  5
2C
330
3
100
AcDbSymbolTableRecord
100
AcDbTextStyleTableRecord
  2

 70
     1
 40
0.0
 41
1.0
 50
0.0
 71
     0
 42
2.5
  3
ltypeshp.shx
  4

  0
STYLE
  5
18E
330
3
100
AcDbSymbolTableRecord
100
AcDbTextStyleTableRecord
  2
ADD
 70
     0
 40
0.0
 41
1.0
 50
0.0
 71
     0
 42
50.0
  3
romans.shx
  4
bigfont.shx
  0
STYLE
  5
191
330
3
100
AcDbSymbolTableRecord
100
AcDbTextStyleTableRecord
  2
MSG
 70
     0
 40
0.0
 41
1.0
 50
0.0
 71
     0
 42
2.5
  3
MS Gothic.ttf
  4

1001
ACAD
1000
MS Gothic
1071
    32817
  0
STYLE
  5
5C8
330
3
100
AcDbSymbolTableRecord
100
AcDbTextStyleTableRecord
  2
STANDARD15
 70
     0
 40
0.0
 41
1.0
 50
15.0
 71
     0
 42
2.5
  3
ROMANS
  4
bigfont
  0
STYLE
  5
5C9
330
3
100
AcDbSymbolTableRecord
100
AcDbTextStyleTableRecord
  2
ROMANS15
 70
     0
 40
0.0
 41
1.0
 50
15.0
 71
     0
 42
2.5
  3
romans
  4

  0
ENDTAB
  0
TABLE
  2
VIEW
  5
6
330
0
100
AcDbSymbolTable
 70
     1
  0
VIEW
  5
54D
330
6
100
AcDbSymbolTableRecord
100
AcDbViewTableRecord
  2
ALL
 70
     0
 40
594.0
 10
420.5
 20
297.0
 41
865.125
 11
0.0
 21
0.0
 31
1.0
 12
0.0
 22
0.0
 32
0.0
 42
50.0
 43
0.0
 44
0.0
 50
0.0
 71
     0
  0
ENDTAB
  0
TABLE
  2
UCS
  5
7
330
0
100
AcDbSymbolTable
 70
     0
  0
ENDTAB
  0
TABLE
  2
APPID
  5
9
330
0
100
AcDbSymbolTable
 70
     4
  0
APPID
  5
12
330
9
100
AcDbSymbolTableRecord
100
AcDbRegAppTableRecord
  2
ACAD
 70
     0
  0
APPID
  5
5CB
330
9
100
AcDbSymbolTableRecord
100
AcDbRegAppTableRecord
  2
ARAIGUMI_YOHEKI
 70
     0
  0
APPID
  5
5CC
330
9
100
AcDbSymbolTableRecord
100
AcDbRegAppTableRecord
  2
CONTENTTABDATA
 70
     0
  0
APPID
  5
5CD
330
9
100
AcDbSymbolTableRecord
100
AcDbRegAppTableRecord
  2
CONTENTCURRENTTAB
 70
     0
  0
ENDTAB
  0
TABLE
  2
DIMSTYLE
  5
A
330
0
100
AcDbSymbolTable
 70
    10
  0
DIMSTYLE
105
27
330
A
100
AcDbSymbolTableRecord
100
AcDbDimStyleTableRecord
  2
ISO-25
 70
     0
  3

  4

  5

  6

  7

 40
1.0
 41
2.5
 42
0.625
 43
3.75
 44
1.25
 45
0.0
 46
0.0
 47
0.0
 48
0.0
140
2.5
141
2.5
142
0.0
143
0.03937007874016
144
1.0
145
0.0
146
1.0
147
0.625
 71
     0
 72
     0
 73
     0
 74
     0
 75
     0
 76
     0
 77
     1
 78
     8
170
     0
171
     3
172
     1
173
     0
174
     0
175
     0
176
     0
177
     0
178
     0
270
     2
271
     2
272
     2
273
     2
274
     3
340
11
275
     0
280
     0
281
     0
282
     0
283
     0
284
     8
285
     0
286
     0
287
     3
288
     0
  0
DIMSTYLE
105
197
330
A
100
AcDbSymbolTableRecord
100
AcDbDimStyleTableRecord
  2
ADD
 70
     0
  3

  4

  5

  6

  7

 40
1.0
 41
2.5
 42
1.0
 43
7.0
 44
0.5
 45
0.0
 46
0.0
 47
0.0
 48
0.0
140
2.5
141
2.5
142
0.0
143
0.03937007874016
144
1.0
145
0.7
146
1.0
147
0.625
 71
     0
 72
     0
 73
     0
 74
     0
 75
     0
 76
     0
 77
     1
 78
     8
170
     0
171
     3
172
     1
173
     0
174
     1
175
     0
176
   144
177
   144
178
     7
270
     2
271
     1
272
     1
273
     2
274
     3
340
18E
275
     0
280
     0
281
     0
282
     0
283
     2
284
     8
285
     0
286
     0
287
     5
288
     0
  0
DIMSTYLE
105
3E6
330
A
100
AcDbSymbolTableRecord
100
AcDbDimStyleTableRecord
  2
ADD$2
 70
     0
  3

  4

  5

  6

  7

 40
1.0
 41
2.5
 42
1.0
 43
7.0
 44
0.5
 45
0.0
 46
0.0
 47
0.0
 48
0.0
140
2.5
141
2.5
142
0.0
143
0.03937007874016
144
1.0
145
0.7
146
1.0
147
0.625
 71
     0
 72
     0
 73
     0
 74
     0
 75
     0
 76
     0
 77
     1
 78
     8
170
     0
171
     3
172
     1
173
     0
174
     1
175
     0
176
   144
177
   144
178
     7
270
     2
271
     1
272
     1
273
     2
274
     3
340
18E
275
     0
280
     0
281
     0
282
     0
283
     2
284
     8
285
     0
286
     0
287
     5
288
     0
  0
DIMSTYLE
105
3E7
330
A
100
AcDbSymbolTableRecord
100
AcDbDimStyleTableRecord
  2
ADD$4
 70
     0
  3

  4

  5

  6

  7

 40
1.0
 41
2.5
 42
1.0
 43
7.0
 44
0.5
 45
0.0
 46
0.0
 47
0.0
 48
0.0
140
2.5
141
2.5
142
0.0
143
0.03937007874016
144
1.0
145
0.0
146
1.0
147
0.625
 71
     0
 72
     0
 73
     0
 74
     0
 75
     0
 76
     0
 77
     1
 78
     8
170
     0
171
     3
172
     1
173
     0
174
     1
175
     0
176
   144
177
   144
178
     7
270
     2
271
     1
272
     1
273
     2
274
     3
340
18E
275
     0
280
     0
281
     0
282
     0
283
     2
284
     8
285
     0
286
     0
287
     5
288
     0
  0
DIMSTYLE
105
3E8
330
A
100
AcDbSymbolTableRecord
100
AcDbDimStyleTableRecord
  2
ADD$3
 70
     0
  3

  4

  5

  6

  7

 40
1.0
 41
2.5
 42
1.0
 43
7.0
 44
0.5
 45
0.0
 46
0.0
 47
0.0
 48
0.0
140
2.5
141
2.5
142
0.0
143
0.03937007874016
144
1.0
145
0.0
146
1.0
147
0.625
 71
     0
 72
     0
 73
     0
 74
     0
 75
     0
 76
     0
 77
     1
 78
     8
170
     0
171
     3
172
     1
173
     0
174
     1
175
     0
176
   144
177
   144
178
     7
270
     2
271
     1
272
     1
273
     2
274
     3
340
18E
275
     0
280
     0
281
     0
282
     0
283
     2
284
     8
285
     0
286
     0
287
     5
288
     0
  0
DIMSTYLE
105
3E9
330
A
100
AcDbSymbolTableRecord
100
AcDbDimStyleTableRecord
  2
ADD$6
 70
     0
  3

  4

  5

  6

  7

 40
1.0
 41
2.5
 42
1.0
 43
7.0
 44
0.5
 45
0.0
 46
0.0
 47
0.0
 48
0.0
140
2.5
141
2.5
142
0.0
143
0.03937007874016
144
1.0
145
0.0
146
1.0
147
0.625
 71
     0
 72
     0
 73
     0
 74
     0
 75
     0
 76
     0
 77
     1
 78
     8
170
     0
171
     3
172
     1
173
     0
174
     1
175
     0
176
   144
177
   144
178
     7
270
     2
271
     1
272
     1
273
     2
274
     3
340
18E
275
     0
280
     0
281
     0
282
     0
283
     2
284
     8
285
     0
286
     0
287
     5
288
     0
  0
DIMSTYLE
105
3EA
330
A
100
AcDbSymbolTableRecord
100
AcDbDimStyleTableRecord
  2
ADD$7
 70
     0
  3

  4

  5

  6

  7

 40
1.0
 41
2.5
 42
1.0
 43
7.0
 44
0.5
 45
0.0
 46
0.0
 47
0.0
 48
0.0
140
2.5
141
2.5
142
0.0
143
0.03937007874016
144
1.0
145
0.0
146
1.0
147
0.625
 71
     0
 72
     0
 73
     0
 74
     0
 75
     0
 76
     0
 77
     0
 78
     8
170
     0
171
     3
172
     1
173
     0
174
     1
175
     0
176
   144
177
   144
178
     7
270
     2
271
     1
272
     1
273
     2
274
     3
340
18E
275
     0
280
     0
281
     0
282
     0
283
     2
284
     8
285
     0
286
     0
287
     5
288
     0
  0
DIMSTYLE
105
518
330
A
100
AcDbSymbolTableRecord
100
AcDbDimStyleTableRecord
  2
STANDARD
 70
     0
  3

  4

  5

  6

  7

 40
1.0
 41
0.18
 42
0.0625
 43
0.38
 44
0.18
 45
0.0
 46
0.0
 47
0.0
 48
0.0
140
0.18
141
0.09
142
0.0
143
25.4
144
1.0
145
0.0
146
1.0
147
0.09
 71
     0
 72
     0
 73
     1
 74
     1
 75
     0
 76
     0
 77
     0
 78
     0
170
     0
171
     2
172
     0
173
     0
174
     0
175
     0
176
     0
177
     0
178
     0
270
     2
271
     4
272
     4
273
     2
274
     2
340
11
275
     0
280
     0
281
     0
282
     0
283
     1
284
     0
285
     0
286
     0
287
     3
288
     0
  0
DIMSTYLE
105
550
330
A
100
AcDbSymbolTableRecord
100
AcDbDimStyleTableRecord
  2
ADD$0
 70
     0
  3

  4

  5

  6

  7

 40
1.0
 41
0.7
 42
1.0
 43
7.0
 44
0.5
 45
0.0
 46
0.0
 47
0.0
 48
0.0
140
2.5
141
2.5
142
0.0
143
0.03937007874016
144
1.0
145
0.7
146
1.0
147
0.625
 71
     0
 72
     0
 73
     0
 74
     0
 75
     0
 76
     0
 77
     1
 78
     8
170
     0
171
     3
172
     1
173
     0
174
     1
175
     0
176
   144
177
   144
178
     7
270
     2
271
     1
272
     1
273
     2
274
     3
340
18E
275
     0
280
     0
281
     0
282
     0
283
     2
284
     8
285
     0
286
     0
287
     5
288
     0
  0
DIMSTYLE
105
59B
330
A
100
AcDbSymbolTableRecord
100
AcDbDimStyleTableRecord
  2
ADD_M
 70
     0
  3

  4

  5

  6

  7

 40
1.0
 41
2.5
 42
1.0
 43
7.0
 44
0.5
 45
0.0
 46
0.0
 47
0.0
 48
0.0
140
2.5
141
2.5
142
0.0
143
0.03937007874016
144
1.0
145
0.7
146
1.0
147
0.625
 71
     0
 72
     0
 73
     0
 74
     0
 75
     0
 76
     0
 77
     1
 78
     8
170
     0
171
     3
172
     1
173
     0
174
     1
175
     0
176
   144
177
   144
178
     7
270
     2
271
     1
272
     1
273
     2
274
     3
340
18E
275
     0
280
     0
281
     0
282
     0
283
     2
284
     8
285
     0
286
     0
287
     5
288
     0
  0
ENDTAB
  0
TABLE
  2
BLOCK_RECORD
  5
1
330
0
100
AcDbSymbolTable
 70
    27
  0
BLOCK_RECORD
  5
1F
102
{ACAD_XDICTIONARY
360
66F
102
}
330
1
100
AcDbSymbolTableRecord
100
AcDbBlockTableRecord
  2
*MODEL_SPACE
  0
BLOCK_RECORD
  5
1B
102
{ACAD_XDICTIONARY
360
671
102
}
330
1
100
AcDbSymbolTableRecord
100
AcDbBlockTableRecord
  2
*PAPER_SPACE
  0
BLOCK_RECORD
  5
192
330
1
100
AcDbSymbolTableRecord
100
AcDbBlockTableRecord
  2
_DOT
  0
BLOCK_RECORD
  5
5CE
330
1
100
AcDbSymbolTableRecord
100
AcDbBlockTableRecord
  2
A4
  0
BLOCK_RECORD
  5
6F6
330
1
100
AcDbSymbolTableRecord
100
AcDbBlockTableRecord
  2
*D2
  0
BLOCK_RECORD
  5
703
330
1
100
AcDbSymbolTableRecord
100
AcDbBlockTableRecord
  2
*D3
  0
BLOCK_RECORD
  5
710
330
1
100
AcDbSymbolTableRecord
100
AcDbBlockTableRecord
  2
*D4
  0
BLOCK_RECORD
  5
71D
330
1
100
AcDbSymbolTableRecord
100
AcDbBlockTableRecord
  2
*D5
  0
BLOCK_RECORD
  5
863
330
1
100
AcDbSymbolTableRecord
100
AcDbBlockTableRecord
  2
*D6
  0
BLOCK_RECORD
  5
872
330
1
100
AcDbSymbolTableRecord
100
AcDbBlockTableRecord
  2
*D7
  0
BLOCK_RECORD
  5
88E
330
1
100
AcDbSymbolTableRecord
100
AcDbBlockTableRecord
  2
*D8
  0
BLOCK_RECORD
  5
89E
330
1
100
AcDbSymbolTableRecord
100
AcDbBlockTableRecord
  2
*D9
  0
BLOCK_RECORD
  5
8AD
330
1
100
AcDbSymbolTableRecord
100
AcDbBlockTableRecord
  2
*D10
  0
BLOCK_RECORD
  5
8BA
330
1
100
AcDbSymbolTableRecord
100
AcDbBlockTableRecord
  2
*D11
  0
BLOCK_RECORD
  5
8DF
330
1
100
AcDbSymbolTableRecord
100
AcDbBlockTableRecord
  2
*D12
  0
BLOCK_RECORD
  5
8EC
330
1
100
AcDbSymbolTableRecord
100
AcDbBlockTableRecord
  2
*D13
  0
BLOCK_RECORD
  5
8FC
330
1
100
AcDbSymbolTableRecord
100
AcDbBlockTableRecord
  2
*D14
  0
BLOCK_RECORD
  5
9BA
330
1
100
AcDbSymbolTableRecord
100
AcDbBlockTableRecord
  2
*D15
  0
BLOCK_RECORD
  5
9C9
330
1
100
AcDbSymbolTableRecord
100
AcDbBlockTableRecord
  2
*D16
  0
BLOCK_RECORD
  5
9F2
330
1
100
AcDbSymbolTableRecord
100
AcDbBlockTableRecord
  2
*D17
  0
BLOCK_RECORD
  5
A01
330
1
100
AcDbSymbolTableRecord
100
AcDbBlockTableRecord
  2
*D18
  0
BLOCK_RECORD
  5
A10
330
1
100
AcDbSymbolTableRecord
100
AcDbBlockTableRecord
  2
*D19
  0
BLOCK_RECORD
  5
A1D
330
1
100
AcDbSymbolTableRecord
100
AcDbBlockTableRecord
  2
*D20
  0
BLOCK_RECORD
  5
A90
330
1
100
AcDbSymbolTableRecord
100
AcDbBlockTableRecord
  2
*D21
  0
BLOCK_RECORD
  5
AA6
330
1
100
AcDbSymbolTableRecord
100
AcDbBlockTableRecord
  2
*D22
  0
BLOCK_RECORD
  5
AC4
330
1
100
AcDbSymbolTableRecord
100
AcDbBlockTableRecord
  2
*D23
  0
BLOCK_RECORD
  5
AD4
330
1
100
AcDbSymbolTableRecord
100
AcDbBlockTableRecord
  2
*D24
  0
BLOCK_RECORD
  5
B6C
330
1
100
AcDbSymbolTableRecord
100
AcDbBlockTableRecord
  2
*D25
  0
BLOCK_RECORD
  5
B7A
330
1
100
AcDbSymbolTableRecord
100
AcDbBlockTableRecord
  2
*D26
  0
ENDTAB
  0
ENDSEC
  0
SECTION
  2
BLOCKS
  0
BLOCK
  5
20
330
1F
100
AcDbEntity
  8
0
100
AcDbBlockBegin
  2
*MODEL_SPACE
 70
     0
 10
0.0
 20
0.0
 30
0.0
  3
*MODEL_SPACE
  1

  0
ENDBLK
  5
21
330
1F
100
AcDbEntity
  8
0
100
AcDbBlockEnd
  0
BLOCK
  5
1C
330
1B
100
AcDbEntity
 67
     1
  8
0
100
AcDbBlockBegin
  2
*PAPER_SPACE
 70
     0
 10
0.0
 20
0.0
 30
0.0
  3
*PAPER_SPACE
  1

  0
ENDBLK
  5
1D
330
1B
100
AcDbEntity
 67
     1
  8
0
100
AcDbBlockEnd
  0
BLOCK
  5
195
330
192
100
AcDbEntity
  8
0
100
AcDbBlockBegin
  2
_DOT
 70
     0
 10
0.0
 20
0.0
 30
0.0
  3
_DOT
  1

  0
POLYLINE
  5
193
330
192
100
AcDbEntity
  8
0
 62
     0
100
AcDb2dPolyline
 66
     1
 10
0.0
 20
0.0
 30
0.0
 70
     1
 40
0.5
 41
0.5
  0
VERTEX
  5
D98
330
193
100
AcDbEntity
  8
0
 62
     0
100
AcDbVertex
100
AcDb2dVertex
 10
-0.25
 20
0.0
 30
0.0
 42
1.0
  0
VERTEX
  5
D99
330
193
100
AcDbEntity
  8
0
 62
     0
100
AcDbVertex
100
AcDb2dVertex
 10
0.25
 20
0.0
 30
0.0
 42
1.0
  0
SEQEND
  5
D9A
330
193
100
AcDbEntity
  8
0
 62
     0
  0
LINE
  5
194
330
192
100
AcDbEntity
  8
0
 62
     0
100
AcDbLine
 10
-0.5
 20
0.0
 30
0.0
 11
-1.0
 21
0.0
 31
0.0
  0
ENDBLK
  5
196
330
192
100
AcDbEntity
  8
0
100
AcDbBlockEnd
  0
BLOCK
  5
5D1
330
5CE
100
AcDbEntity
  8
0
100
AcDbBlockBegin
  2
A4
 70
     0
 10
0.0
 20
0.0
 30
0.0
  3
A4
  1

  0
POLYLINE
  5
5CF
330
5CE
100
AcDbEntity
  8
HOJO
100
AcDb2dPolyline
 66
     1
 10
0.0
 20
0.0
 30
0.0
 70
     1
  0
VERTEX
  5
D9B
330
5CF
100
AcDbEntity
  8
HOJO
100
AcDbVertex
100
AcDb2dVertex
 10
0.0
 20
0.0
 30
0.0
  0
VERTEX
  5
D9C
330
5CF
100
AcDbEntity
  8
HOJO
100
AcDbVertex
100
AcDb2dVertex
 10
297.0
 20
0.0
 30
0.0
  0
VERTEX
  5
D9D
330
5CF
100
AcDbEntity
  8
HOJO
100
AcDbVertex
100
AcDb2dVertex
 10
297.0
 20
210.0
 30
0.0
  0
VERTEX
  5
D9E
330
5CF
100
AcDbEntity
  8
HOJO
100
AcDbVertex
100
AcDb2dVertex
 10
0.0
 20
210.0
 30
0.0
  0
SEQEND
  5
D9F
330
5CF
100
AcDbEntity
  8
HOJO
  0
POLYLINE
  5
5D0
330
5CE
100
AcDbEntity
  8
HOJO
100
AcDb2dPolyline
 66
     1
 10
0.0
 20
0.0
 30
0.0
 70
     1
  0
VERTEX
  5
DA0
330
5D0
100
AcDbEntity
  8
HOJO
100
AcDbVertex
100
AcDb2dVertex
 10
18.0
 20
13.0
 30
0.0
  0
VERTEX
  5
DA1
330
5D0
100
AcDbEntity
  8
HOJO
100
AcDbVertex
100
AcDb2dVertex
 10
279.0
 20
13.0
 30
0.0
  0
VERTEX
  5
DA2
330
5D0
100
AcDbEntity
  8
HOJO
100
AcDbVertex
100
AcDb2dVertex
 10
279.0
 20
197.0
 30
0.0
  0
VERTEX
  5
DA3
330
5D0
100
AcDbEntity
  8
HOJO
100
AcDbVertex
100
AcDb2dVertex
 10
18.0
 20
197.0
 30
0.0
  0
SEQEND
  5
DA4
330
5D0
100
AcDbEntity
  8
HOJO
  0
ENDBLK
  5
5D2
330
5CE
100
AcDbEntity
  8
0
100
AcDbBlockEnd
  0
BLOCK
  5
700
330
6F6
100
AcDbEntity
  8
0
100
AcDbBlockBegin
  2
*D2
 70
     1
 10
0.0
 20
0.0
 30
0.0
  3
*D2
  1

  0
LINE
  5
6F7
330
6F6
100
AcDbEntity
  8
SUNPO
 62
   144
100
AcDbLine
 10
1240.0
 20
1650.0
 30
0.0
 11
1240.0
 21
1367.049907167196
 31
0.0
  0
LINE
  5
6F8
330
6F6
100
AcDbEntity
  8
SUNPO
 62
   144
100
AcDbLine
 10
1940.0
 20
1650.0
 30
0.0
 11
1940.0
 21
1367.049907167196
 31
0.0
  0
LINE
  5
6F9
330
6F6
100
AcDbEntity
  8
SUNPO
 62
   144
100
AcDbLine
 10
1254.0
 20
1377.049907167196
 30
0.0
 11
1926.0
 21
1377.049907167196
 31
0.0
  0
SOLID
  5
6FA
330
6F6
100
AcDbEntity
  8
SUNPO
 62
   144
100
AcDbTrace
 10
1254.0
 20
1379.383240500529
 30
0.0
 11
1254.0
 21
1374.716573833863
 31
0.0
 12
1240.0
 22
1377.049907167196
 32
0.0
 13
1240.0
 23
1377.049907167196
 33
0.0
  0
SOLID
  5
6FB
330
6F6
100
AcDbEntity
  8
SUNPO
 62
   144
100
AcDbTrace
 10
1926.0
 20
1379.383240500529
 30
0.0
 11
1926.0
 21
1374.716573833863
 31
0.0
 12
1940.0
 22
1377.049907167196
 32
0.0
 13
1940.0
 23
1377.049907167196
 33
0.0
  0
MTEXT
  5
6FC
330
6F6
100
AcDbEntity
  8
SUNPO
 62
     7
100
AcDbMText
 10
1590.0
 20
1414.549907167196
 30
0.0
 40
50.0
 41
0.0
 71
     5
 72
     1
  1
\A2;700
  7
ADD
1001
ACAD
1000
MTEXTBEGIN
1070
    73
1070
     1
1070
    44
1040
1.0
1070
    74
1070
     0
1000
MTEXTEND
  0
POINT
  5
6FD
330
6F6
100
AcDbEntity
  8
DEFPOINTS
 62
     0
100
AcDbPoint
 10
1240.0
 20
1670.0
 30
0.0
  0
POINT
  5
6FE
330
6F6
100
AcDbEntity
  8
DEFPOINTS
 62
     0
100
AcDbPoint
 10
1940.0
 20
1670.0
 30
0.0
  0
POINT
  5
6FF
330
6F6
100
AcDbEntity
  8
DEFPOINTS
 62
     0
100
AcDbPoint
 10
1940.0
 20
1377.049907167196
 30
0.0
  0
ENDBLK
  5
701
330
6F6
100
AcDbEntity
  8
0
100
AcDbBlockEnd
  0
BLOCK
  5
70D
330
703
100
AcDbEntity
  8
0
100
AcDbBlockBegin
  2
*D3
 70
     1
 10
0.0
 20
0.0
 30
0.0
  3
*D3
  1

  0
LINE
  5
704
330
703
100
AcDbEntity
  8
SUNPO
 62
   144
100
AcDbLine
 10
2783.553692417005
 20
1650.0
 30
0.0
 11
2783.553692417005
 21
1369.383240500529
 31
0.0
  0
LINE
  5
705
330
703
100
AcDbEntity
  8
SUNPO
 62
   144
100
AcDbLine
 10
4783.553692417005
 20
1650.0
 30
0.0
 11
4783.553692417005
 21
1369.383240500529
 31
0.0
  0
LINE
  5
706
330
703
100
AcDbEntity
  8
SUNPO
 62
   144
100
AcDbLine
 10
2797.553692417004
 20
1379.383240500529
 30
0.0
 11
4769.553692417004
 21
1379.383240500529
 31
0.0
  0
SOLID
  5
707
330
703
100
AcDbEntity
  8
SUNPO
 62
   144
100
AcDbTrace
 10
2797.553692417004
 20
1381.716573833863
 30
0.0
 11
2797.553692417004
 21
1377.049907167196
 31
0.0
 12
2783.553692417005
 22
1379.383240500529
 32
0.0
 13
2783.553692417005
 23
1379.383240500529
 33
0.0
  0
SOLID
  5
708
330
703
100
AcDbEntity
  8
SUNPO
 62
   144
100
AcDbTrace
 10
4769.553692417004
 20
1381.716573833863
 30
0.0
 11
4769.553692417004
 21
1377.049907167196
 31
0.0
 12
4783.553692417005
 22
1379.383240500529
 32
0.0
 13
4783.553692417005
 23
1379.383240500529
 33
0.0
  0
MTEXT
  5
709
330
703
100
AcDbEntity
  8
SUNPO
 62
     7
100
AcDbMText
 10
3783.553692417005
 20
1416.88324050053
 30
0.0
 40
50.0
 41
0.0
 71
     5
 72
     1
  1
\A2;2000
  7
ADD
1001
ACAD
1000
MTEXTBEGIN
1070
    73
1070
     1
1070
    44
1040
1.0
1070
    74
1070
     0
1000
MTEXTEND
  0
POINT
  5
70A
330
703
100
AcDbEntity
  8
DEFPOINTS
 62
     0
100
AcDbPoint
 10
2783.553692417005
 20
1670.0
 30
0.0
  0
POINT
  5
70B
330
703
100
AcDbEntity
  8
DEFPOINTS
 62
     0
100
AcDbPoint
 10
4783.553692417005
 20
1670.0
 30
0.0
  0
POINT
  5
70C
330
703
100
AcDbEntity
  8
DEFPOINTS
 62
     0
100
AcDbPoint
 10
4783.553692417005
 20
1379.383240500529
 30
0.0
  0
ENDBLK
  5
70E
330
703
100
AcDbEntity
  8
0
100
AcDbBlockEnd
  0
BLOCK
  5
71A
330
710
100
AcDbEntity
  8
0
100
AcDbBlockBegin
  2
*D4
 70
     1
 10
0.0
 20
0.0
 30
0.0
  3
*D4
  1

  0
LINE
  5
711
330
710
100
AcDbEntity
  8
SUNPO
 62
   144
100
AcDbLine
 10
2783.553692417005
 20
2010.0
 30
0.0
 11
2783.553692417005
 21
2288.675899204898
 31
0.0
  0
LINE
  5
712
330
710
100
AcDbEntity
  8
SUNPO
 62
   144
100
AcDbLine
 10
3383.553692417005
 20
2010.0
 30
0.0
 11
3383.553692417005
 21
2288.675899204898
 31
0.0
  0
LINE
  5
713
330
710
100
AcDbEntity
  8
SUNPO
 62
   144
100
AcDbLine
 10
2797.553692417004
 20
2278.675899204898
 30
0.0
 11
3369.553692417005
 21
2278.675899204898
 31
0.0
  0
SOLID
  5
714
330
710
100
AcDbEntity
  8
SUNPO
 62
   144
100
AcDbTrace
 10
2797.553692417004
 20
2281.009232538231
 30
0.0
 11
2797.553692417004
 21
2276.342565871564
 31
0.0
 12
2783.553692417005
 22
2278.675899204898
 32
0.0
 13
2783.553692417005
 23
2278.675899204898
 33
0.0
  0
SOLID
  5
715
330
710
100
AcDbEntity
  8
SUNPO
 62
   144
100
AcDbTrace
 10
3369.553692417005
 20
2281.009232538231
 30
0.0
 11
3369.553692417005
 21
2276.342565871564
 31
0.0
 12
3383.553692417005
 22
2278.675899204898
 32
0.0
 13
3383.553692417005
 23
2278.675899204898
 33
0.0
  0
MTEXT
  5
716
330
710
100
AcDbEntity
  8
SUNPO
 62
     7
100
AcDbMText
 10
3083.553692417004
 20
2316.175899204897
 30
0.0
 40
50.0
 41
0.0
 71
     5
 72
     1
  1
\A2;600
  7
ADD
1001
ACAD
1000
MTEXTBEGIN
1070
    73
1070
     1
1070
    44
1040
1.0
1070
    74
1070
     0
1000
MTEXTEND
  0
POINT
  5
717
330
710
100
AcDbEntity
  8
DEFPOINTS
 62
     0
100
AcDbPoint
 10
2783.553692417005
 20
1990.0
 30
0.0
  0
POINT
  5
718
330
710
100
AcDbEntity
  8
DEFPOINTS
 62
     0
100
AcDbPoint
 10
3383.553692417005
 20
1990.0
 30
0.0
  0
POINT
  5
719
330
710
100
AcDbEntity
  8
DEFPOINTS
 62
     0
100
AcDbPoint
 10
3383.553692417005
 20
2278.675899204898
 30
0.0
  0
ENDBLK
  5
71B
330
710
100
AcDbEntity
  8
0
100
AcDbBlockEnd
  0
BLOCK
  5
727
330
71D
100
AcDbEntity
  8
0
100
AcDbBlockBegin
  2
*D5
 70
     1
 10
0.0
 20
0.0
 30
0.0
  3
*D5
  1

  0
LINE
  5
71E
330
71D
100
AcDbEntity
  8
SUNPO
 62
   144
100
AcDbLine
 10
3383.553692417005
 20
2010.0
 30
0.0
 11
3383.553692417005
 21
2288.675899204898
 31
0.0
  0
LINE
  5
71F
330
71D
100
AcDbEntity
  8
SUNPO
 62
   144
100
AcDbLine
 10
4783.553692417005
 20
2010.0
 30
0.0
 11
4783.553692417005
 21
2288.675899204898
 31
0.0
  0
LINE
  5
720
330
71D
100
AcDbEntity
  8
SUNPO
 62
   144
100
AcDbLine
 10
3397.553692417004
 20
2278.675899204898
 30
0.0
 11
4769.553692417004
 21
2278.675899204898
 31
0.0
  0
SOLID
  5
721
330
71D
100
AcDbEntity
  8
SUNPO
 62
   144
100
AcDbTrace
 10
3397.553692417004
 20
2281.009232538231
 30
0.0
 11
3397.553692417004
 21
2276.342565871564
 31
0.0
 12
3383.553692417005
 22
2278.675899204898
 32
0.0
 13
3383.553692417005
 23
2278.675899204898
 33
0.0
  0
SOLID
  5
722
330
71D
100
AcDbEntity
  8
SUNPO
 62
   144
100
AcDbTrace
 10
4769.553692417004
 20
2281.009232538231
 30
0.0
 11
4769.553692417004
 21
2276.342565871564
 31
0.0
 12
4783.553692417005
 22
2278.675899204898
 32
0.0
 13
4783.553692417005
 23
2278.675899204898
 33
0.0
  0
MTEXT
  5
723
330
71D
100
AcDbEntity
  8
SUNPO
 62
     7
100
AcDbMText
 10
4083.553692417004
 20
2316.175899204897
 30
0.0
 40
50.0
 41
0.0
 71
     5
 72
     1
  1
\A2;1400
  7
ADD
1001
ACAD
1000
MTEXTBEGIN
1070
    73
1070
     1
1070
    44
1040
1.0
1070
    74
1070
     0
1000
MTEXTEND
  0
POINT
  5
724
330
71D
100
AcDbEntity
  8
DEFPOINTS
 62
     0
100
AcDbPoint
 10
3383.553692417005
 20
1990.0
 30
0.0
  0
POINT
  5
725
330
71D
100
AcDbEntity
  8
DEFPOINTS
 62
     0
100
AcDbPoint
 10
4783.553692417005
 20
1990.0
 30
0.0
  0
POINT
  5
726
330
71D
100
AcDbEntity
  8
DEFPOINTS
 62
     0
100
AcDbPoint
 10
4783.553692417005
 20
2278.675899204898
 30
0.0
  0
ENDBLK
  5
728
330
71D
100
AcDbEntity
  8
0
100
AcDbBlockEnd
  0
BLOCK
  5
86F
330
863
100
AcDbEntity
  8
0
100
AcDbBlockBegin
  2
*D6
 70
     1
 10
0.0
 20
0.0
 30
0.0
  3
*D6
  1

  0
LINE
  5
864
330
863
100
AcDbEntity
  8
SUNPO
 62
   144
100
AcDbLine
 10
1220.0
 20
1670.0
 30
0.0
 11
910.2188601191627
 21
1670.0
 31
0.0
  0
LINE
  5
865
330
863
100
AcDbEntity
  8
SUNPO
 62
   144
100
AcDbLine
 10
1220.0
 20
1790.0
 30
0.0
 11
910.2188601191627
 21
1790.0
 31
0.0
  0
LINE
  5
866
330
863
100
AcDbEntity
  8
SUNPO
 62
   144
100
AcDbLine
 10
920.2188601191627
 20
1656.0
 30
0.0
 11
920.2188601191627
 21
1642.0
 31
0.0
  0
LINE
  5
867
330
863
100
AcDbEntity
  8
SUNPO
 62
   144
100
AcDbLine
 10
920.2188601191629
 20
1804.0
 30
0.0
 11
920.2188601191629
 21
1818.0
 31
0.0
  0
LINE
  5
868
330
863
100
AcDbEntity
  8
SUNPO
 62
   144
100
AcDbLine
 10
920.2188601191627
 20
1670.0
 30
0.0
 11
920.2188601191627
 21
1790.0
 31
0.0
  0
SOLID
  5
869
330
863
100
AcDbEntity
  8
SUNPO
 62
   144
100
AcDbTrace
 10
917.8855267858294
 20
1656.0
 30
0.0
 11
922.5521934524961
 21
1656.0
 31
0.0
 12
920.2188601191627
 22
1670.0
 32
0.0
 13
920.2188601191627
 23
1670.0
 33
0.0
  0
SOLID
  5
86A
330
863
100
AcDbEntity
  8
SUNPO
 62
   144
100
AcDbTrace
 10
917.8855267858294
 20
1804.0
 30
0.0
 11
922.5521934524962
 21
1804.0
 31
0.0
 12
920.2188601191627
 22
1790.0
 32
0.0
 13
920.2188601191627
 23
1790.0
 33
0.0
  0
MTEXT
  5
86B
330
863
100
AcDbEntity
  8
SUNPO
 62
     7
100
AcDbMText
 10
882.7188601191625
 20
1730.0
 30
0.0
 40
50.0
 41
0.0
 71
     5
 72
     1
  1
\A2;120
  7
ADD
 11
0.0000000000000001
 21
1.0
 31
0.0
1001
ACAD
1000
MTEXTBEGIN
1070
    73
1070
     1
1070
    44
1040
1.0
1070
    74
1070
     0
1000
MTEXTEND
  0
POINT
  5
86C
330
863
100
AcDbEntity
  8
DEFPOINTS
 62
     0
100
AcDbPoint
 10
1240.0
 20
1670.0
 30
0.0
  0
POINT
  5
86D
330
863
100
AcDbEntity
  8
DEFPOINTS
 62
     0
100
AcDbPoint
 10
1240.0
 20
1790.0
 30
0.0
  0
POINT
  5
86E
330
863
100
AcDbEntity
  8
DEFPOINTS
 62
     0
100
AcDbPoint
 10
920.2188601191627
 20
1790.0
 30
0.0
  0
ENDBLK
  5
870
330
863
100
AcDbEntity
  8
0
100
AcDbBlockEnd
  0
BLOCK
  5
87C
330
872
100
AcDbEntity
  8
0
100
AcDbBlockBegin
  2
*D7
 70
     1
 10
0.0
 20
0.0
 30
0.0
  3
*D7
  1

  0
LINE
  5
873
330
872
100
AcDbEntity
  8
SUNPO
 62
   144
100
AcDbLine
 10
1220.0
 20
1790.0
 30
0.0
 11
910.2188601191627
 21
1790.0
 31
0.0
  0
LINE
  5
874
330
872
100
AcDbEntity
  8
SUNPO
 62
   144
100
AcDbLine
 10
1242.5
 20
1990.0
 30
0.0
 11
910.2188601191627
 21
1990.0
 31
0.0
  0
LINE
  5
875
330
872
100
AcDbEntity
  8
SUNPO
 62
   144
100
AcDbLine
 10
920.2188601191629
 20
1804.0
 30
0.0
 11
920.2188601191629
 21
1976.0
 31
0.0
  0
SOLID
  5
876
330
872
100
AcDbEntity
  8
SUNPO
 62
   144
100
AcDbTrace
 10
917.8855267858294
 20
1804.0
 30
0.0
 11
922.5521934524962
 21
1804.0
 31
0.0
 12
920.2188601191627
 22
1790.0
 32
0.0
 13
920.2188601191627
 23
1790.0
 33
0.0
  0
SOLID
  5
877
330
872
100
AcDbEntity
  8
SUNPO
 62
   144
100
AcDbTrace
 10
917.8855267858294
 20
1976.0
 30
0.0
 11
922.5521934524962
 21
1976.0
 31
0.0
 12
920.2188601191629
 22
1990.0
 32
0.0
 13
920.2188601191629
 23
1990.0
 33
0.0
  0
MTEXT
  5
878
330
872
100
AcDbEntity
  8
SUNPO
 62
     7
100
AcDbMText
 10
882.7188601191625
 20
1890.0
 30
0.0
 40
50.0
 41
0.0
 71
     5
 72
     1
  1
\A2;200
  7
ADD
 11
0.0000000000000001
 21
1.0
 31
0.0
1001
ACAD
1000
MTEXTBEGIN
1070
    73
1070
     1
1070
    44
1040
1.0
1070
    74
1070
     0
1000
MTEXTEND
  0
POINT
  5
879
330
872
100
AcDbEntity
  8
DEFPOINTS
 62
     0
100
AcDbPoint
 10
1240.0
 20
1790.0
 30
0.0
  0
POINT
  5
87A
330
872
100
AcDbEntity
  8
DEFPOINTS
 62
     0
100
AcDbPoint
 10
1262.5
 20
1990.0
 30
0.0
  0
POINT
  5
87B
330
872
100
AcDbEntity
  8
DEFPOINTS
 62
     0
100
AcDbPoint
 10
920.2188601191629
 20
1990.0
 30
0.0
  0
ENDBLK
  5
87D
330
872
100
AcDbEntity
  8
0
100
AcDbBlockEnd
  0
BLOCK
  5
898
330
88E
100
AcDbEntity
  8
0
100
AcDbBlockBegin
  2
*D8
 70
     1
 10
0.0
 20
0.0
 30
0.0
  3
*D8
  1

  0
LINE
  5
88F
330
88E
100
AcDbEntity
  8
SUNPO
 62
   144
100
AcDbLine
 10
900.2188601191628
 20
1670.0
 30
0.0
 11
727.0587219133139
 21
1670.0
 31
0.0
  0
LINE
  5
890
330
88E
100
AcDbEntity
  8
SUNPO
 62
   144
100
AcDbLine
 10
900.2188601191626
 20
1990.0
 30
0.0
 11
727.0587219133139
 21
1990.0
 31
0.0
  0
LINE
  5
891
330
88E
100
AcDbEntity
  8
SUNPO
 62
   144
100
AcDbLine
 10
737.0587219133138
 20
1684.0
 30
0.0
 11
737.058721913314
 21
1976.0
 31
0.0
  0
SOLID
  5
892
330
88E
100
AcDbEntity
  8
SUNPO
 62
   144
100
AcDbTrace
 10
734.7253885799805
 20
1684.0
 30
0.0
 11
739.3920552466473
 21
1684.0
 31
0.0
 12
737.0587219133138
 22
1670.0
 32
0.0
 13
737.0587219133138
 23
1670.0
 33
0.0
  0
SOLID
  5
893
330
88E
100
AcDbEntity
  8
SUNPO
 62
   144
100
AcDbTrace
 10
734.7253885799806
 20
1976.0
 30
0.0
 11
739.3920552466473
 21
1976.0
 31
0.0
 12
737.058721913314
 22
1990.0
 32
0.0
 13
737.058721913314
 23
1990.0
 33
0.0
  0
MTEXT
  5
894
330
88E
100
AcDbEntity
  8
SUNPO
 62
     7
100
AcDbMText
 10
699.5587219133136
 20
1830.0
 30
0.0
 40
50.0
 41
0.0
 71
     5
 72
     1
  1
\A2;320
  7
ADD
 11
0.0000000000000001
 21
1.0
 31
0.0
1001
ACAD
1000
MTEXTBEGIN
1070
    73
1070
     1
1070
    44
1040
1.0
1070
    74
1070
     0
1000
MTEXTEND
  0
POINT
  5
895
330
88E
100
AcDbEntity
  8
DEFPOINTS
 62
     0
100
AcDbPoint
 10
920.2188601191627
 20
1670.0
 30
0.0
  0
POINT
  5
896
330
88E
100
AcDbEntity
  8
DEFPOINTS
 62
     0
100
AcDbPoint
 10
920.2188601191625
 20
1990.0
 30
0.0
  0
POINT
  5
897
330
88E
100
AcDbEntity
  8
DEFPOINTS
 62
     0
100
AcDbPoint
 10
737.058721913314
 20
1990.0
 30
0.0
  0
ENDBLK
  5
899
330
88E
100
AcDbEntity
  8
0
100
AcDbBlockEnd
  0
BLOCK
  5
8AA
330
89E
100
AcDbEntity
  8
0
100
AcDbBlockBegin
  2
*D9
 70
     1
 10
0.0
 20
0.0
 30
0.0
  3
*D9
  1

  0
LINE
  5
8C8
330
89E
100
AcDbEntity
  8
SUNPO
 62
   144
100
AcDbLine
 10
1240.0
 20
2010.0
 30
0.0
 11
1240.0
 21
2288.675899204898
 31
0.0
  0
LINE
  5
8C9
330
89E
100
AcDbEntity
  8
SUNPO
 62
   144
100
AcDbLine
 10
1262.5
 20
2010.0
 30
0.0
 11
1262.5
 21
2288.675899204898
 31
0.0
  0
LINE
  5
8CA
330
89E
100
AcDbEntity
  8
SUNPO
 62
   144
100
AcDbLine
 10
1226.0
 20
2278.675899204898
 30
0.0
 11
1212.0
 21
2278.675899204898
 31
0.0
  0
LINE
  5
8CB
330
89E
100
AcDbEntity
  8
SUNPO
 62
   144
100
AcDbLine
 10
1276.5
 20
2278.675899204898
 30
0.0
 11
1290.5
 21
2278.675899204898
 31
0.0
  0
MTEXT
  5
8CC
330
89E
100
AcDbEntity
  8
SUNPO
 62
     7
100
AcDbMText
 10
1153.000340742897
 20
2316.175899204897
 30
0.0
 40
50.0
 41
0.0
 71
     5
 72
     1
  1
\A2;22.5
  7
ADD
1001
ACAD
1000
MTEXTBEGIN
1070
    73
1070
     1
1070
    44
1040
1.0
1070
    74
1070
     0
1000
MTEXTEND
  0
LINE
  5
8CD
330
89E
100
AcDbEntity
  8
SUNPO
 62
   144
100
AcDbLine
 10
1240.0
 20
2278.675899204898
 30
0.0
 11
1262.5
 21
2278.675899204898
 31
0.0
  0
SOLID
  5
8CE
330
89E
100
AcDbEntity
  8
SUNPO
 62
   144
100
AcDbTrace
 10
1226.0
 20
2281.009232538231
 30
0.0
 11
1226.0
 21
2276.342565871564
 31
0.0
 12
1240.0
 22
2278.675899204898
 32
0.0
 13
1240.0
 23
2278.675899204898
 33
0.0
  0
SOLID
  5
8CF
330
89E
100
AcDbEntity
  8
SUNPO
 62
   144
100
AcDbTrace
 10
1276.5
 20
2281.009232538231
 30
0.0
 11
1276.5
 21
2276.342565871564
 31
0.0
 12
1262.5
 22
2278.675899204898
 32
0.0
 13
1262.5
 23
2278.675899204898
 33
0.0
  0
POINT
  5
8D0
330
89E
100
AcDbEntity
  8
DEFPOINTS
 62
     0
100
AcDbPoint
 10
1240.0
 20
1990.0
 30
0.0
  0
POINT
  5
8D1
330
89E
100
AcDbEntity
  8
DEFPOINTS
 62
     0
100
AcDbPoint
 10
1262.5
 20
1990.0
 30
0.0
  0
POINT
  5
8D2
330
89E
100
AcDbEntity
  8
DEFPOINTS
 62
     0
100
AcDbPoint
 10
1262.5
 20
2278.675899204898
 30
0.0
  0
ENDBLK
  5
8AB
330
89E
100
AcDbEntity
  8
0
100
AcDbBlockEnd
  0
BLOCK
  5
8B7
330
8AD
100
AcDbEntity
  8
0
100
AcDbBlockBegin
  2
*D10
 70
     1
 10
0.0
 20
0.0
 30
0.0
  3
*D10
  1

  0
LINE
  5
8AE
330
8AD
100
AcDbEntity
  8
SUNPO
 62
   144
100
AcDbLine
 10
1262.5
 20
2010.0
 30
0.0
 11
1262.5
 21
2288.675899204898
 31
0.0
  0
LINE
  5
8AF
330
8AD
100
AcDbEntity
  8
SUNPO
 62
   144
100
AcDbLine
 10
1417.5
 20
2010.0
 30
0.0
 11
1417.5
 21
2288.675899204898
 31
0.0
  0
LINE
  5
8B0
330
8AD
100
AcDbEntity
  8
SUNPO
 62
   144
100
AcDbLine
 10
1276.5
 20
2278.675899204898
 30
0.0
 11
1403.5
 21
2278.675899204898
 31
0.0
  0
SOLID
  5
8B1
330
8AD
100
AcDbEntity
  8
SUNPO
 62
   144
100
AcDbTrace
 10
1276.5
 20
2281.009232538231
 30
0.0
 11
1276.5
 21
2276.342565871564
 31
0.0
 12
1262.5
 22
2278.675899204898
 32
0.0
 13
1262.5
 23
2278.675899204898
 33
0.0
  0
SOLID
  5
8B2
330
8AD
100
AcDbEntity
  8
SUNPO
 62
   144
100
AcDbTrace
 10
1403.5
 20
2281.009232538231
 30
0.0
 11
1403.5
 21
2276.342565871564
 31
0.0
 12
1417.5
 22
2278.675899204898
 32
0.0
 13
1417.5
 23
2278.675899204898
 33
0.0
  0
MTEXT
  5
8B3
330
8AD
100
AcDbEntity
  8
SUNPO
 62
     7
100
AcDbMText
 10
1340.0
 20
2316.175899204897
 30
0.0
 40
50.0
 41
0.0
 71
     5
 72
     1
  1
\A2;155
  7
ADD
1001
ACAD
1000
MTEXTBEGIN
1070
    73
1070
     1
1070
    44
1040
1.0
1070
    74
1070
     0
1000
MTEXTEND
  0
POINT
  5
8B4
330
8AD
100
AcDbEntity
  8
DEFPOINTS
 62
     0
100
AcDbPoint
 10
1262.5
 20
1990.0
 30
0.0
  0
POINT
  5
8B5
330
8AD
100
AcDbEntity
  8
DEFPOINTS
 62
     0
100
AcDbPoint
 10
1417.5
 20
1990.0
 30
0.0
  0
POINT
  5
8B6
330
8AD
100
AcDbEntity
  8
DEFPOINTS
 62
     0
100
AcDbPoint
 10
1417.5
 20
2278.675899204898
 30
0.0
  0
ENDBLK
  5
8B8
330
8AD
100
AcDbEntity
  8
0
100
AcDbBlockEnd
  0
BLOCK
  5
8C6
330
8BA
100
AcDbEntity
  8
0
100
AcDbBlockBegin
  2
*D11
 70
     1
 10
0.0
 20
0.0
 30
0.0
  3
*D11
  1

  0
LINE
  5
8D3
330
8BA
100
AcDbEntity
  8
SUNPO
 62
   144
100
AcDbLine
 10
1417.5
 20
2010.0
 30
0.0
 11
1417.5
 21
2288.675899204898
 31
0.0
  0
LINE
  5
8D4
330
8BA
100
AcDbEntity
  8
SUNPO
 62
   144
100
AcDbLine
 10
1440.0
 20
2296.279348660223
 30
0.0
 11
1440.0
 21
2288.675899204898
 31
0.0
  0
LINE
  5
8D5
330
8BA
100
AcDbEntity
  8
SUNPO
 62
   144
100
AcDbLine
 10
1403.5
 20
2278.675899204898
 30
0.0
 11
1389.499999999999
 21
2278.675899204898
 31
0.0
  0
LINE
  5
8D6
330
8BA
100
AcDbEntity
  8
SUNPO
 62
   144
100
AcDbLine
 10
1454.0
 20
2278.675899204898
 30
0.0
 11
1468.0
 21
2278.675899204898
 31
0.0
  0
MTEXT
  5
8D7
330
8BA
100
AcDbEntity
  8
SUNPO
 62
     7
100
AcDbMText
 10
1529.300965929622
 20
2316.175899204897
 30
0.0
 40
50.0
 41
0.0
 71
     5
 72
     1
  1
\A2;22.5
  7
ADD
1001
ACAD
1000
MTEXTBEGIN
1070
    73
1070
     1
1070
    44
1040
1.0
1070
    74
1070
     0
1000
MTEXTEND
  0
LINE
  5
8D8
330
8BA
100
AcDbEntity
  8
SUNPO
 62
   144
100
AcDbLine
 10
1417.5
 20
2278.675899204898
 30
0.0
 11
1440.0
 21
2278.675899204898
 31
0.0
  0
SOLID
  5
8D9
330
8BA
100
AcDbEntity
  8
SUNPO
 62
   144
100
AcDbTrace
 10
1403.5
 20
2281.009232538231
 30
0.0
 11
1403.5
 21
2276.342565871564
 31
0.0
 12
1417.5
 22
2278.675899204898
 32
0.0
 13
1417.5
 23
2278.675899204898
 33
0.0
  0
SOLID
  5
8DA
330
8BA
100
AcDbEntity
  8
SUNPO
 62
   144
100
AcDbTrace
 10
1454.0
 20
2281.009232538231
 30
0.0
 11
1454.0
 21
2276.342565871564
 31
0.0
 12
1440.0
 22
2278.675899204898
 32
0.0
 13
1440.0
 23
2278.675899204898
 33
0.0
  0
POINT
  5
8DB
330
8BA
100
AcDbEntity
  8
DEFPOINTS
 62
     0
100
AcDbPoint
 10
1417.5
 20
1990.0
 30
0.0
  0
POINT
  5
8DC
330
8BA
100
AcDbEntity
  8
DEFPOINTS
 62
     0
100
AcDbPoint
 10
1440.0
 20
2276.279348660224
 30
0.0
  0
POINT
  5
8DD
330
8BA
100
AcDbEntity
  8
DEFPOINTS
 62
     0
100
AcDbPoint
 10
1440.0
 20
2278.675899204898
 30
0.0
  0
ENDBLK
  5
8C7
330
8BA
100
AcDbEntity
  8
0
100
AcDbBlockEnd
  0
BLOCK
  5
8E9
330
8DF
100
AcDbEntity
  8
0
100
AcDbBlockBegin
  2
*D12
 70
     1
 10
0.0
 20
0.0
 30
0.0
  3
*D12
  1

  0
LINE
  5
8E0
330
8DF
100
AcDbEntity
  8
SUNPO
 62
   144
100
AcDbLine
 10
1240.0
 20
2298.675899204897
 30
0.0
 11
1240.0
 21
2459.415767736098
 31
0.0
  0
LINE
  5
8E1
330
8DF
100
AcDbEntity
  8
SUNPO
 62
   144
100
AcDbLine
 10
1440.0
 20
2296.279348660223
 30
0.0
 11
1440.0
 21
2459.415767736098
 31
0.0
  0
LINE
  5
8E2
330
8DF
100
AcDbEntity
  8
SUNPO
 62
   144
100
AcDbLine
 10
1254.0
 20
2449.415767736098
 30
0.0
 11
1426.0
 21
2449.415767736098
 31
0.0
  0
SOLID
  5
8E3
330
8DF
100
AcDbEntity
  8
SUNPO
 62
   144
100
AcDbTrace
 10
1254.0
 20
2451.749101069431
 30
0.0
 11
1254.0
 21
2447.082434402764
 31
0.0
 12
1240.0
 22
2449.415767736098
 32
0.0
 13
1240.0
 23
2449.415767736098
 33
0.0
  0
SOLID
  5
8E4
330
8DF
100
AcDbEntity
  8
SUNPO
 62
   144
100
AcDbTrace
 10
1426.0
 20
2451.749101069431
 30
0.0
 11
1426.0
 21
2447.082434402764
 31
0.0
 12
1440.0
 22
2449.415767736098
 32
0.0
 13
1440.0
 23
2449.415767736098
 33
0.0
  0
MTEXT
  5
8E5
330
8DF
100
AcDbEntity
  8
SUNPO
 62
     7
100
AcDbMText
 10
1340.0
 20
2486.915767736098
 30
0.0
 40
50.0
 41
0.0
 71
     5
 72
     1
  1
\A2;200
  7
ADD
1001
ACAD
1000
MTEXTBEGIN
1070
    73
1070
     1
1070
    44
1040
1.0
1070
    74
1070
     0
1000
MTEXTEND
  0
POINT
  5
8E6
330
8DF
100
AcDbEntity
  8
DEFPOINTS
 62
     0
100
AcDbPoint
 10
1240.0
 20
2278.675899204898
 30
0.0
  0
POINT
  5
8E7
330
8DF
100
AcDbEntity
  8
DEFPOINTS
 62
     0
100
AcDbPoint
 10
1440.0
 20
2276.279348660224
 30
0.0
  0
POINT
  5
8E8
330
8DF
100
AcDbEntity
  8
DEFPOINTS
 62
     0
100
AcDbPoint
 10
1440.0
 20
2449.415767736098
 30
0.0
  0
ENDBLK
  5
8EA
330
8DF
100
AcDbEntity
  8
0
100
AcDbBlockEnd
  0
BLOCK
  5
8F6
330
8EC
100
AcDbEntity
  8
0
100
AcDbBlockBegin
  2
*D13
 70
     1
 10
0.0
 20
0.0
 30
0.0
  3
*D13
  1

  0
LINE
  5
B62
330
8EC
100
AcDbEntity
  8
SUNPO
 62
   144
100
AcDbLine
 10
1440.0
 20
2296.279348660223
 30
0.0
 11
1440.0
 21
2459.415767736098
 31
0.0
  0
LINE
  5
B63
330
8EC
100
AcDbEntity
  8
SUNPO
 62
   144
100
AcDbLine
 10
1940.0
 20
1926.056921267234
 30
0.0
 11
1940.0
 21
2459.415767736098
 31
0.0
  0
LINE
  5
B64
330
8EC
100
AcDbEntity
  8
SUNPO
 62
   144
100
AcDbLine
 10
1454.0
 20
2449.415767736098
 30
0.0
 11
1926.0
 21
2449.415767736098
 31
0.0
  0
SOLID
  5
B65
330
8EC
100
AcDbEntity
  8
SUNPO
 62
   144
100
AcDbTrace
 10
1454.0
 20
2451.749101069431
 30
0.0
 11
1454.0
 21
2447.082434402764
 31
0.0
 12
1440.0
 22
2449.415767736098
 32
0.0
 13
1440.0
 23
2449.415767736098
 33
0.0
  0
SOLID
  5
B66
330
8EC
100
AcDbEntity
  8
SUNPO
 62
   144
100
AcDbTrace
 10
1926.0
 20
2451.749101069431
 30
0.0
 11
1926.0
 21
2447.082434402764
 31
0.0
 12
1940.0
 22
2449.415767736098
 32
0.0
 13
1940.0
 23
2449.415767736098
 33
0.0
  0
MTEXT
  5
B67
330
8EC
100
AcDbEntity
  8
SUNPO
 62
     7
100
AcDbMText
 10
1690.0
 20
2486.915767736098
 30
0.0
 40
50.0
 41
0.0
 71
     5
 72
     1
  1
\A2;500
  7
ADD
1001
ACAD
1000
MTEXTBEGIN
1070
    73
1070
     1
1070
    44
1040
1.0
1070
    74
1070
     0
1000
MTEXTEND
  0
POINT
  5
B68
330
8EC
100
AcDbEntity
  8
DEFPOINTS
 62
     0
100
AcDbPoint
 10
1440.0
 20
2276.279348660224
 30
0.0
  0
POINT
  5
B69
330
8EC
100
AcDbEntity
  8
DEFPOINTS
 62
     0
100
AcDbPoint
 10
1940.0
 20
1906.056921267234
 30
0.0
  0
POINT
  5
B6A
330
8EC
100
AcDbEntity
  8
DEFPOINTS
 62
     0
100
AcDbPoint
 10
1940.0
 20
2449.415767736098
 30
0.0
  0
ENDBLK
  5
8F7
330
8EC
100
AcDbEntity
  8
0
100
AcDbBlockEnd
  0
BLOCK
  5
903
330
8FC
100
AcDbEntity
  8
0
100
AcDbBlockBegin
  2
*D14
 70
     1
 10
0.0
 20
0.0
 30
0.0
  3
*D14
  1

  0
LINE
  5
90F
330
8FC
100
AcDbEntity
  8
SUNPO
 62
   144
100
AcDbLine
 10
1633.439910537798
 20
2106.571396172506
 30
0.0
 11
1459.170553223503
 21
2001.350116804334
 31
0.0
  0
MTEXT
  5
910
330
8FC
100
AcDbEntity
  8
SUNPO
 62
     7
100
AcDbMText
 10
1548.323864649673
 20
2098.984918021355
 30
0.0
 40
50.0
 41
0.0
 71
     5
 72
     1
  1
\A2;R30
  7
ADD
 11
0.8560600008421491
 21
0.516876460054179
 31
0.0
1001
ACAD
1000
MTEXTBEGIN
1070
    73
1070
     1
1070
    44
1040
1.0
1070
    74
1070
     0
1000
MTEXTEND
  0
LINE
  5
911
330
8FC
100
AcDbEntity
  8
SUNPO
 62
   144
100
AcDbLine
 10
1390.685753156131
 20
1960.0
 30
0.0
 11
1416.367553181396
 21
1975.506293801625
 31
0.0
  0
SOLID
  5
912
330
8FC
100
AcDbEntity
  8
SUNPO
 62
   144
100
AcDbTrace
 10
1454.863249389719
 20
2008.483950144685
 30
0.0
 11
1463.477857057288
 21
1994.216283463983
 31
0.0
 12
1416.367553181396
 22
1975.506293801625
 32
0.0
 13
1416.367553181396
 23
1975.506293801625
 33
0.0
  0
POINT
  5
913
330
8FC
100
AcDbEntity
  8
DEFPOINTS
 62
     0
100
AcDbPoint
 10
1416.367553181396
 20
1975.506293801625
 30
0.0
  0
POINT
  5
914
330
8FC
100
AcDbEntity
  8
DEFPOINTS
 62
     0
100
AcDbPoint
 10
1390.685753156131
 20
1960.0
 30
0.0
  0
ENDBLK
  5
904
330
8FC
100
AcDbEntity
  8
0
100
AcDbBlockEnd
  0
BLOCK
  5
9C6
330
9BA
100
AcDbEntity
  8
0
100
AcDbBlockBegin
  2
*D15
 70
     1
 10
0.0
 20
0.0
 30
0.0
  3
*D15
  1

  0
LINE
  5
9BB
330
9BA
100
AcDbEntity
  8
SUNPO
 62
   144
100
AcDbLine
 10
3406.405196124735
 20
1670.0
 30
0.0
 11
3415.027650213167
 21
1670.0
 31
0.0
  0
LINE
  5
9BC
330
9BA
100
AcDbEntity
  8
SUNPO
 62
   144
100
AcDbLine
 10
3406.405196124735
 20
1790.0
 30
0.0
 11
3415.027650213167
 21
1790.0
 31
0.0
  0
LINE
  5
9BD
330
9BA
100
AcDbEntity
  8
SUNPO
 62
   144
100
AcDbLine
 10
3405.027650213167
 20
1656.0
 30
0.0
 11
3405.027650213167
 21
1642.0
 31
0.0
  0
LINE
  5
9BE
330
9BA
100
AcDbEntity
  8
SUNPO
 62
   144
100
AcDbLine
 10
3405.027650213167
 20
1804.0
 30
0.0
 11
3405.027650213167
 21
1818.0
 31
0.0
  0
LINE
  5
9BF
330
9BA
100
AcDbEntity
  8
SUNPO
 62
   144
100
AcDbLine
 10
3405.027650213167
 20
1670.0
 30
0.0
 11
3405.027650213167
 21
1790.0
 31
0.0
  0
SOLID
  5
9C0
330
9BA
100
AcDbEntity
  8
SUNPO
 62
   144
100
AcDbTrace
 10
3402.694316879834
 20
1656.0
 30
0.0
 11
3407.3609835465
 21
1656.0
 31
0.0
 12
3405.027650213167
 22
1670.0
 32
0.0
 13
3405.027650213167
 23
1670.0
 33
0.0
  0
SOLID
  5
9C1
330
9BA
100
AcDbEntity
  8
SUNPO
 62
   144
100
AcDbTrace
 10
3402.694316879834
 20
1804.0
 30
0.0
 11
3407.3609835465
 21
1804.0
 31
0.0
 12
3405.027650213167
 22
1790.0
 32
0.0
 13
3405.027650213167
 23
1790.0
 33
0.0
  0
MTEXT
  5
9C2
330
9BA
100
AcDbEntity
  8
SUNPO
 62
     7
100
AcDbMText
 10
3367.527650213166
 20
1730.0
 30
0.0
 40
50.0
 41
0.0
 71
     5
 72
     1
  1
\A2;120
  7
ADD
 11
0.0000000000000001
 21
1.0
 31
0.0
1001
ACAD
1000
MTEXTBEGIN
1070
    73
1070
     1
1070
    44
1040
1.0
1070
    74
1070
     0
1000
MTEXTEND
  0
POINT
  5
9C3
330
9BA
100
AcDbEntity
  8
DEFPOINTS
 62
     0
100
AcDbPoint
 10
3386.405196124735
 20
1670.0
 30
0.0
  0
POINT
  5
9C4
330
9BA
100
AcDbEntity
  8
DEFPOINTS
 62
     0
100
AcDbPoint
 10
3386.405196124735
 20
1790.0
 30
0.0
  0
POINT
  5
9C5
330
9BA
100
AcDbEntity
  8
DEFPOINTS
 62
     0
100
AcDbPoint
 10
3405.027650213167
 20
1790.0
 30
0.0
  0
ENDBLK
  5
9C7
330
9BA
100
AcDbEntity
  8
0
100
AcDbBlockEnd
  0
BLOCK
  5
9D5
330
9C9
100
AcDbEntity
  8
0
100
AcDbBlockBegin
  2
*D16
 70
     1
 10
0.0
 20
0.0
 30
0.0
  3
*D16
  1

  0
LINE
  5
9D7
330
9C9
100
AcDbEntity
  8
SUNPO
 62
   144
100
AcDbLine
 10
3406.405196124735
 20
1790.0
 30
0.0
 11
3415.027650213167
 21
1790.0
 31
0.0
  0
LINE
  5
9D8
330
9C9
100
AcDbEntity
  8
SUNPO
 62
   144
100
AcDbLine
 10
3386.694316879834
 20
1800.0
 30
0.0
 11
3395.027650213167
 21
1800.0
 31
0.0
  0
LINE
  5
9D9
330
9C9
100
AcDbEntity
  8
SUNPO
 62
   144
100
AcDbLine
 10
3405.027650213167
 20
1776.0
 30
0.0
 11
3405.027650213167
 21
1762.0
 31
0.0
  0
LINE
  5
9DA
330
9C9
100
AcDbEntity
  8
SUNPO
 62
   144
100
AcDbLine
 10
3405.027650213167
 20
1814.0
 30
0.0
 11
3405.027650213167
 21
1828.0
 31
0.0
  0
MTEXT
  5
9DB
330
9C9
100
AcDbEntity
  8
SUNPO
 62
     7
100
AcDbMText
 10
3367.527650213166
 20
1850.935483075964
 30
0.0
 40
50.0
 41
0.0
 71
     5
 72
     1
  1
\A2;10
  7
ADD
 11
0.0000000000000001
 21
1.0
 31
0.0
1001
ACAD
1000
MTEXTBEGIN
1070
    73
1070
     1
1070
    44
1040
1.0
1070
    74
1070
     0
1000
MTEXTEND
  0
LINE
  5
9DC
330
9C9
100
AcDbEntity
  8
SUNPO
 62
   144
100
AcDbLine
 10
3405.027650213167
 20
1790.0
 30
0.0
 11
3405.027650213167
 21
1800.0
 31
0.0
  0
SOLID
  5
9DD
330
9C9
100
AcDbEntity
  8
SUNPO
 62
   144
100
AcDbTrace
 10
3402.694316879834
 20
1776.0
 30
0.0
 11
3407.3609835465
 21
1776.0
 31
0.0
 12
3405.027650213167
 22
1790.0
 32
0.0
 13
3405.027650213167
 23
1790.0
 33
0.0
  0
SOLID
  5
9DE
330
9C9
100
AcDbEntity
  8
SUNPO
 62
   144
100
AcDbTrace
 10
3402.694316879834
 20
1814.0
 30
0.0
 11
3407.3609835465
 21
1814.0
 31
0.0
 12
3405.027650213167
 22
1800.0
 32
0.0
 13
3405.027650213167
 23
1800.0
 33
0.0
  0
POINT
  5
9DF
330
9C9
100
AcDbEntity
  8
DEFPOINTS
 62
     0
100
AcDbPoint
 10
3386.405196124735
 20
1790.0
 30
0.0
  0
POINT
  5
9E0
330
9C9
100
AcDbEntity
  8
DEFPOINTS
 62
     0
100
AcDbPoint
 10
3406.694316879834
 20
1800.0
 30
0.0
  0
POINT
  5
9E1
330
9C9
100
AcDbEntity
  8
DEFPOINTS
 62
     0
100
AcDbPoint
 10
3405.027650213167
 20
1800.0
 30
0.0
  0
ENDBLK
  5
9D6
330
9C9
100
AcDbEntity
  8
0
100
AcDbBlockEnd
  0
BLOCK
  5
9FE
330
9F2
100
AcDbEntity
  8
0
100
AcDbBlockBegin
  2
*D17
 70
     1
 10
0.0
 20
0.0
 30
0.0
  3
*D17
  1

  0
LINE
  5
9F3
330
9F2
100
AcDbEntity
  8
SUNPO
 62
   144
100
AcDbLine
 10
2763.553692417004
 20
1670.0
 30
0.0
 11
2590.865340728301
 21
1670.0
 31
0.0
  0
LINE
  5
9F4
330
9F2
100
AcDbEntity
  8
SUNPO
 62
   144
100
AcDbLine
 10
2763.553692417004
 20
1790.0
 30
0.0
 11
2590.865340728301
 21
1790.0
 31
0.0
  0
LINE
  5
9F5
330
9F2
100
AcDbEntity
  8
SUNPO
 62
   144
100
AcDbLine
 10
2600.865340728302
 20
1656.0
 30
0.0
 11
2600.865340728302
 21
1642.0
 31
0.0
  0
LINE
  5
9F6
330
9F2
100
AcDbEntity
  8
SUNPO
 62
   144
100
AcDbLine
 10
2600.865340728302
 20
1804.0
 30
0.0
 11
2600.865340728302
 21
1818.0
 31
0.0
  0
LINE
  5
9F7
330
9F2
100
AcDbEntity
  8
SUNPO
 62
   144
100
AcDbLine
 10
2600.865340728302
 20
1670.0
 30
0.0
 11
2600.865340728302
 21
1790.0
 31
0.0
  0
SOLID
  5
9F8
330
9F2
100
AcDbEntity
  8
SUNPO
 62
   144
100
AcDbTrace
 10
2598.532007394968
 20
1656.0
 30
0.0
 11
2603.198674061635
 21
1656.0
 31
0.0
 12
2600.865340728302
 22
1670.0
 32
0.0
 13
2600.865340728302
 23
1670.0
 33
0.0
  0
SOLID
  5
9F9
330
9F2
100
AcDbEntity
  8
SUNPO
 62
   144
100
AcDbTrace
 10
2598.532007394968
 20
1804.0
 30
0.0
 11
2603.198674061635
 21
1804.0
 31
0.0
 12
2600.865340728302
 22
1790.0
 32
0.0
 13
2600.865340728302
 23
1790.0
 33
0.0
  0
MTEXT
  5
9FA
330
9F2
100
AcDbEntity
  8
SUNPO
 62
     7
100
AcDbMText
 10
2563.365340728301
 20
1730.0
 30
0.0
 40
50.0
 41
0.0
 71
     5
 72
     1
  1
\A2;120
  7
ADD
 11
0.0000000000000001
 21
1.0
 31
0.0
1001
ACAD
1000
MTEXTBEGIN
1070
    73
1070
     1
1070
    44
1040
1.0
1070
    74
1070
     0
1000
MTEXTEND
  0
POINT
  5
9FB
330
9F2
100
AcDbEntity
  8
DEFPOINTS
 62
     0
100
AcDbPoint
 10
2783.553692417005
 20
1670.0
 30
0.0
  0
POINT
  5
9FC
330
9F2
100
AcDbEntity
  8
DEFPOINTS
 62
     0
100
AcDbPoint
 10
2783.553692417005
 20
1790.0
 30
0.0
  0
POINT
  5
9FD
330
9F2
100
AcDbEntity
  8
DEFPOINTS
 62
     0
100
AcDbPoint
 10
2600.865340728302
 20
1790.0
 30
0.0
  0
ENDBLK
  5
9FF
330
9F2
100
AcDbEntity
  8
0
100
AcDbBlockEnd
  0
BLOCK
  5
A0D
330
A01
100
AcDbEntity
  8
0
100
AcDbBlockBegin
  2
*D18
 70
     1
 10
0.0
 20
0.0
 30
0.0
  3
*D18
  1

  0
LINE
  5
A29
330
A01
100
AcDbEntity
  8
SUNPO
 62
   144
100
AcDbLine
 10
2763.553692417004
 20
1790.0
 30
0.0
 11
2590.865340728301
 21
1790.0
 31
0.0
  0
LINE
  5
A2A
330
A01
100
AcDbEntity
  8
SUNPO
 62
   144
100
AcDbLine
 10
2763.553692417004
 20
1820.0
 30
0.0
 11
2590.865340728301
 21
1820.0
 31
0.0
  0
LINE
  5
A2B
330
A01
100
AcDbEntity
  8
SUNPO
 62
   144
100
AcDbLine
 10
2600.865340728302
 20
1776.0
 30
0.0
 11
2600.865340728302
 21
1762.0
 31
0.0
  0
LINE
  5
A2C
330
A01
100
AcDbEntity
  8
SUNPO
 62
   144
100
AcDbLine
 10
2600.865340728302
 20
1834.0
 30
0.0
 11
2600.865340728302
 21
1848.0
 31
0.0
  0
MTEXT
  5
A2D
330
A01
100
AcDbEntity
  8
SUNPO
 62
     7
100
AcDbMText
 10
2655.339782933464
 20
1790.0
 30
0.0
 40
50.0
 41
0.0
 71
     5
 72
     1
  1
\A2;30
  7
ADD
 11
0.0000000000000001
 21
1.0
 31
0.0
1001
ACAD
1000
MTEXTBEGIN
1070
    73
1070
     1
1070
    44
1040
1.0
1070
    74
1070
     0
1000
MTEXTEND
  0
LINE
  5
A2E
330
A01
100
AcDbEntity
  8
SUNPO
 62
   144
100
AcDbLine
 10
2600.865340728302
 20
1790.0
 30
0.0
 11
2600.865340728302
 21
1820.0
 31
0.0
  0
SOLID
  5
A2F
330
A01
100
AcDbEntity
  8
SUNPO
 62
   144
100
AcDbTrace
 10
2598.532007394968
 20
1776.0
 30
0.0
 11
2603.198674061635
 21
1776.0
 31
0.0
 12
2600.865340728302
 22
1790.0
 32
0.0
 13
2600.865340728302
 23
1790.0
 33
0.0
  0
SOLID
  5
A30
330
A01
100
AcDbEntity
  8
SUNPO
 62
   144
100
AcDbTrace
 10
2598.532007394968
 20
1834.0
 30
0.0
 11
2603.198674061635
 21
1834.0
 31
0.0
 12
2600.865340728302
 22
1820.0
 32
0.0
 13
2600.865340728302
 23
1820.0
 33
0.0
  0
POINT
  5
A31
330
A01
100
AcDbEntity
  8
DEFPOINTS
 62
     0
100
AcDbPoint
 10
2783.553692417005
 20
1790.0
 30
0.0
  0
POINT
  5
A32
330
A01
100
AcDbEntity
  8
DEFPOINTS
 62
     0
100
AcDbPoint
 10
2783.553692417005
 20
1820.0
 30
0.0
  0
POINT
  5
A33
330
A01
100
AcDbEntity
  8
DEFPOINTS
 62
     0
100
AcDbPoint
 10
2600.865340728302
 20
1820.0
 30
0.0
  0
ENDBLK
  5
A0E
330
A01
100
AcDbEntity
  8
0
100
AcDbBlockEnd
  0
BLOCK
  5
A1A
330
A10
100
AcDbEntity
  8
0
100
AcDbBlockBegin
  2
*D19
 70
     1
 10
0.0
 20
0.0
 30
0.0
  3
*D19
  1

  0
LINE
  5
A11
330
A10
100
AcDbEntity
  8
SUNPO
 62
   144
100
AcDbLine
 10
2763.553692417004
 20
1820.0
 30
0.0
 11
2590.865340728301
 21
1820.0
 31
0.0
  0
LINE
  5
A12
330
A10
100
AcDbEntity
  8
SUNPO
 62
   144
100
AcDbLine
 10
3363.553692417005
 20
1990.0
 30
0.0
 11
2590.865340728301
 21
1990.0
 31
0.0
  0
LINE
  5
A13
330
A10
100
AcDbEntity
  8
SUNPO
 62
   144
100
AcDbLine
 10
2600.865340728302
 20
1834.0
 30
0.0
 11
2600.865340728302
 21
1976.0
 31
0.0
  0
SOLID
  5
A14
330
A10
100
AcDbEntity
  8
SUNPO
 62
   144
100
AcDbTrace
 10
2598.532007394968
 20
1834.0
 30
0.0
 11
2603.198674061635
 21
1834.0
 31
0.0
 12
2600.865340728302
 22
1820.0
 32
0.0
 13
2600.865340728302
 23
1820.0
 33
0.0
  0
SOLID
  5
A15
330
A10
100
AcDbEntity
  8
SUNPO
 62
   144
100
AcDbTrace
 10
2598.532007394968
 20
1976.0
 30
0.0
 11
2603.198674061635
 21
1976.0
 31
0.0
 12
2600.865340728302
 22
1990.0
 32
0.0
 13
2600.865340728302
 23
1990.0
 33
0.0
  0
MTEXT
  5
A16
330
A10
100
AcDbEntity
  8
SUNPO
 62
     7
100
AcDbMText
 10
2563.365340728301
 20
1905.0
 30
0.0
 40
50.0
 41
0.0
 71
     5
 72
     1
  1
\A2;170
  7
ADD
 11
0.0000000000000001
 21
1.0
 31
0.0
1001
ACAD
1000
MTEXTBEGIN
1070
    73
1070
     1
1070
    44
1040
1.0
1070
    74
1070
     0
1000
MTEXTEND
  0
POINT
  5
A17
330
A10
100
AcDbEntity
  8
DEFPOINTS
 62
     0
100
AcDbPoint
 10
2783.553692417005
 20
1820.0
 30
0.0
  0
POINT
  5
A18
330
A10
100
AcDbEntity
  8
DEFPOINTS
 62
     0
100
AcDbPoint
 10
3383.553692417005
 20
1990.0
 30
0.0
  0
POINT
  5
A19
330
A10
100
AcDbEntity
  8
DEFPOINTS
 62
     0
100
AcDbPoint
 10
2600.865340728302
 20
1990.0
 30
0.0
  0
ENDBLK
  5
A1B
330
A10
100
AcDbEntity
  8
0
100
AcDbBlockEnd
  0
BLOCK
  5
A27
330
A1D
100
AcDbEntity
  8
0
100
AcDbBlockBegin
  2
*D20
 70
     1
 10
0.0
 20
0.0
 30
0.0
  3
*D20
  1

  0
LINE
  5
A1E
330
A1D
100
AcDbEntity
  8
SUNPO
 62
   144
100
AcDbLine
 10
2580.865340728301
 20
1670.0
 30
0.0
 11
2379.996533675172
 21
1670.0
 31
0.0
  0
LINE
  5
A1F
330
A1D
100
AcDbEntity
  8
SUNPO
 62
   144
100
AcDbLine
 10
2580.865340728301
 20
1990.0
 30
0.0
 11
2379.996533675172
 21
1990.0
 31
0.0
  0
LINE
  5
A20
330
A1D
100
AcDbEntity
  8
SUNPO
 62
   144
100
AcDbLine
 10
2389.996533675172
 20
1684.0
 30
0.0
 11
2389.996533675172
 21
1976.0
 31
0.0
  0
SOLID
  5
A21
330
A1D
100
AcDbEntity
  8
SUNPO
 62
   144
100
AcDbTrace
 10
2387.663200341838
 20
1684.0
 30
0.0
 11
2392.329867008505
 21
1684.0
 31
0.0
 12
2389.996533675172
 22
1670.0
 32
0.0
 13
2389.996533675172
 23
1670.0
 33
0.0
  0
SOLID
  5
A22
330
A1D
100
AcDbEntity
  8
SUNPO
 62
   144
100
AcDbTrace
 10
2387.663200341838
 20
1976.0
 30
0.0
 11
2392.329867008505
 21
1976.0
 31
0.0
 12
2389.996533675172
 22
1990.0
 32
0.0
 13
2389.996533675172
 23
1990.0
 33
0.0
  0
MTEXT
  5
A23
330
A1D
100
AcDbEntity
  8
SUNPO
 62
     7
100
AcDbMText
 10
2352.496533675171
 20
1830.0
 30
0.0
 40
50.0
 41
0.0
 71
     5
 72
     1
  1
\A2;320
  7
ADD
 11
0.0000000000000001
 21
1.0
 31
0.0
1001
ACAD
1000
MTEXTBEGIN
1070
    73
1070
     1
1070
    44
1040
1.0
1070
    74
1070
     0
1000
MTEXTEND
  0
POINT
  5
A24
330
A1D
100
AcDbEntity
  8
DEFPOINTS
 62
     0
100
AcDbPoint
 10
2600.865340728302
 20
1670.0
 30
0.0
  0
POINT
  5
A25
330
A1D
100
AcDbEntity
  8
DEFPOINTS
 62
     0
100
AcDbPoint
 10
2600.865340728302
 20
1990.0
 30
0.0
  0
POINT
  5
A26
330
A1D
100
AcDbEntity
  8
DEFPOINTS
 62
     0
100
AcDbPoint
 10
2389.996533675172
 20
1990.0
 30
0.0
  0
ENDBLK
  5
A28
330
A1D
100
AcDbEntity
  8
0
100
AcDbBlockEnd
  0
BLOCK
  5
A97
330
A90
100
AcDbEntity
  8
0
100
AcDbBlockBegin
  2
*D21
 70
     1
 10
0.0
 20
0.0
 30
0.0
  3
*D21
  1

  0
LINE
  5
A9F
330
A90
100
AcDbEntity
  8
SUNPO
 62
   144
100
AcDbLine
 10
1674.0516194275
 20
1943.48874456875
 30
0.0
 11
1501.67220223757
 21
1835.199026405518
 31
0.0
  0
MTEXT
  5
AA0
330
A90
100
AcDbEntity
  8
SUNPO
 62
     7
100
AcDbMText
 10
1589.083206966141
 20
1934.396725971992
 30
0.0
 40
50.0
 41
0.0
 71
     5
 72
     1
  1
\A2;R20
  7
ADD
 11
0.846776084441762
 21
0.5319494927316672
 31
0.0
1001
ACAD
1000
MTEXTBEGIN
1070
    73
1070
     1
1070
    44
1040
1.0
1070
    74
1070
     0
1000
MTEXTEND
  0
LINE
  5
AA1
330
A90
100
AcDbEntity
  8
SUNPO
 62
   144
100
AcDbLine
 10
1442.397876326646
 20
1797.962561914301
 30
0.0
 11
1459.333398015482
 21
1808.601551768935
 31
0.0
  0
SOLID
  5
AA2
330
A90
100
AcDbEntity
  8
SUNPO
 62
   144
100
AcDbTrace
 10
1497.239289798139
 20
1842.255493775867
 30
0.0
 11
1506.105114677
 21
1828.14255903517
 31
0.0
 12
1459.333398015482
 22
1808.601551768935
 32
0.0
 13
1459.333398015482
 23
1808.601551768935
 33
0.0
  0
POINT
  5
AA3
330
A90
100
AcDbEntity
  8
DEFPOINTS
 62
     0
100
AcDbPoint
 10
1459.333398015482
 20
1808.601551768935
 30
0.0
  0
POINT
  5
AA4
330
A90
100
AcDbEntity
  8
DEFPOINTS
 62
     0
100
AcDbPoint
 10
1442.397876326646
 20
1797.962561914301
 30
0.0
  0
ENDBLK
  5
A98
330
A90
100
AcDbEntity
  8
0
100
AcDbBlockEnd
  0
BLOCK
  5
AB2
330
AA6
100
AcDbEntity
  8
0
100
AcDbBlockBegin
  2
*D22
 70
     1
 10
0.0
 20
0.0
 30
0.0
  3
*D22
  1

  0
LINE
  5
AA7
330
AA6
100
AcDbEntity
  8
SUNPO
 62
   144
100
AcDbLine
 10
1200.0
 20
1790.0
 30
0.0
 11
1064.620210849383
 21
1790.0
 31
0.0
  0
LINE
  5
AA8
330
AA6
100
AcDbEntity
  8
SUNPO
 62
   144
100
AcDbLine
 10
1223.375
 20
1820.0
 30
0.0
 11
1064.620210849383
 21
1820.0
 31
0.0
  0
LINE
  5
AA9
330
AA6
100
AcDbEntity
  8
SUNPO
 62
   144
100
AcDbLine
 10
1074.620210849383
 20
1776.0
 30
0.0
 11
1074.620210849383
 21
1762.0
 31
0.0
  0
LINE
  5
AAA
330
AA6
100
AcDbEntity
  8
SUNPO
 62
   144
100
AcDbLine
 10
1074.620210849383
 20
1834.0
 30
0.0
 11
1074.620210849383
 21
1848.0
 31
0.0
  0
LINE
  5
AAB
330
AA6
100
AcDbEntity
  8
SUNPO
 62
   144
100
AcDbLine
 10
1074.620210849383
 20
1790.0
 30
0.0
 11
1074.620210849383
 21
1820.0
 31
0.0
  0
SOLID
  5
AAC
330
AA6
100
AcDbEntity
  8
SUNPO
 62
   144
100
AcDbTrace
 10
1072.28687751605
 20
1776.0
 30
0.0
 11
1076.953544182716
 21
1776.0
 31
0.0
 12
1074.620210849383
 22
1790.0
 32
0.0
 13
1074.620210849383
 23
1790.0
 33
0.0
  0
SOLID
  5
AAD
330
AA6
100
AcDbEntity
  8
SUNPO
 62
   144
100
AcDbTrace
 10
1072.28687751605
 20
1834.0
 30
0.0
 11
1076.953544182716
 21
1834.0
 31
0.0
 12
1074.620210849383
 22
1820.0
 32
0.0
 13
1074.620210849383
 23
1820.0
 33
0.0
  0
MTEXT
  5
AAE
330
AA6
100
AcDbEntity
  8
SUNPO
 62
     7
100
AcDbMText
 10
1037.120210849383
 20
1805.0
 30
0.0
 40
50.0
 41
0.0
 71
     5
 72
     1
  1
\A2;30
  7
ADD
 11
0.0000000000000001
 21
1.0
 31
0.0
1001
ACAD
1000
MTEXTBEGIN
1070
    73
1070
     1
1070
    44
1040
1.0
1070
    74
1070
     0
1000
MTEXTEND
  0
POINT
  5
AAF
330
AA6
100
AcDbEntity
  8
DEFPOINTS
 62
     0
100
AcDbPoint
 10
1220.0
 20
1790.0
 30
0.0
  0
POINT
  5
AB0
330
AA6
100
AcDbEntity
  8
DEFPOINTS
 62
     0
100
AcDbPoint
 10
1243.375
 20
1820.0
 30
0.0
  0
POINT
  5
AB1
330
AA6
100
AcDbEntity
  8
DEFPOINTS
 62
     0
100
AcDbPoint
 10
1074.620210849383
 20
1820.0
 30
0.0
  0
ENDBLK
  5
AB3
330
AA6
100
AcDbEntity
  8
0
100
AcDbBlockEnd
  0
BLOCK
  5
AD0
330
AC4
100
AcDbEntity
  8
0
100
AcDbBlockBegin
  2
*D23
 70
     1
 10
0.0
 20
0.0
 30
0.0
  3
*D23
  1

  0
LINE
  5
AC5
330
AC4
100
AcDbEntity
  8
SUNPO
 62
   144
100
AcDbLine
 10
4803.553692417004
 20
1670.0
 30
0.0
 11
5058.342595175891
 21
1670.0
 31
0.0
  0
LINE
  5
AC6
330
AC4
100
AcDbEntity
  8
SUNPO
 62
   144
100
AcDbLine
 10
4803.553692417004
 20
1800.0
 30
0.0
 11
5058.342595175891
 21
1800.0
 31
0.0
  0
LINE
  5
AC7
330
AC4
100
AcDbEntity
  8
SUNPO
 62
   144
100
AcDbLine
 10
5048.342595175891
 20
1656.0
 30
0.0
 11
5048.342595175891
 21
1642.0
 31
0.0
  0
LINE
  5
AC8
330
AC4
100
AcDbEntity
  8
SUNPO
 62
   144
100
AcDbLine
 10
5048.342595175891
 20
1814.0
 30
0.0
 11
5048.342595175891
 21
1828.0
 31
0.0
  0
LINE
  5
AC9
330
AC4
100
AcDbEntity
  8
SUNPO
 62
   144
100
AcDbLine
 10
5048.342595175891
 20
1670.0
 30
0.0
 11
5048.342595175891
 21
1800.0
 31
0.0
  0
SOLID
  5
ACA
330
AC4
100
AcDbEntity
  8
SUNPO
 62
   144
100
AcDbTrace
 10
5046.009261842558
 20
1656.0
 30
0.0
 11
5050.675928509225
 21
1656.0
 31
0.0
 12
5048.342595175891
 22
1670.0
 32
0.0
 13
5048.342595175891
 23
1670.0
 33
0.0
  0
SOLID
  5
ACB
330
AC4
100
AcDbEntity
  8
SUNPO
 62
   144
100
AcDbTrace
 10
5046.009261842558
 20
1814.0
 30
0.0
 11
5050.675928509225
 21
1814.0
 31
0.0
 12
5048.342595175891
 22
1800.0
 32
0.0
 13
5048.342595175891
 23
1800.0
 33
0.0
  0
MTEXT
  5
ACC
330
AC4
100
AcDbEntity
  8
SUNPO
 62
     7
100
AcDbMText
 10
5010.842595175891
 20
1735.000000000001
 30
0.0
 40
50.0
 41
0.0
 71
     5
 72
     1
  1
\A2;130
  7
ADD
 11
0.0000000000000001
 21
1.0
 31
0.0
1001
ACAD
1000
MTEXTBEGIN
1070
    73
1070
     1
1070
    44
1040
1.0
1070
    74
1070
     0
1000
MTEXTEND
  0
POINT
  5
ACD
330
AC4
100
AcDbEntity
  8
DEFPOINTS
 62
     0
100
AcDbPoint
 10
4783.553692417005
 20
1670.0
 30
0.0
  0
POINT
  5
ACE
330
AC4
100
AcDbEntity
  8
DEFPOINTS
 62
     0
100
AcDbPoint
 10
4783.553692417005
 20
1800.0
 30
0.0
  0
POINT
  5
ACF
330
AC4
100
AcDbEntity
  8
DEFPOINTS
 62
     0
100
AcDbPoint
 10
5048.342595175891
 20
1800.0
 30
0.0
  0
ENDBLK
  5
AD1
330
AC4
100
AcDbEntity
  8
0
100
AcDbBlockEnd
  0
BLOCK
  5
AE0
330
AD4
100
AcDbEntity
  8
0
100
AcDbBlockBegin
  2
*D24
 70
     1
 10
0.0
 20
0.0
 30
0.0
  3
*D24
  1

  0
LINE
  5
AD5
330
AD4
100
AcDbEntity
  8
SUNPO
 62
   144
100
AcDbLine
 10
1960.0
 20
1670.0
 30
0.0
 11
2156.933814418869
 21
1670.0
 31
0.0
  0
LINE
  5
AD6
330
AD4
100
AcDbEntity
  8
SUNPO
 62
   144
100
AcDbLine
 10
1959.999999999999
 20
1800.0
 30
0.0
 11
2156.933814418869
 21
1800.0
 31
0.0
  0
LINE
  5
AD7
330
AD4
100
AcDbEntity
  8
SUNPO
 62
   144
100
AcDbLine
 10
2146.933814418869
 20
1656.0
 30
0.0
 11
2146.933814418869
 21
1642.0
 31
0.0
  0
LINE
  5
AD8
330
AD4
100
AcDbEntity
  8
SUNPO
 62
   144
100
AcDbLine
 10
2146.933814418869
 20
1814.0
 30
0.0
 11
2146.933814418869
 21
1828.0
 31
0.0
  0
LINE
  5
AD9
330
AD4
100
AcDbEntity
  8
SUNPO
 62
   144
100
AcDbLine
 10
2146.933814418869
 20
1670.0
 30
0.0
 11
2146.933814418869
 21
1800.0
 31
0.0
  0
SOLID
  5
ADA
330
AD4
100
AcDbEntity
  8
SUNPO
 62
   144
100
AcDbTrace
 10
2144.600481085535
 20
1656.0
 30
0.0
 11
2149.267147752202
 21
1656.0
 31
0.0
 12
2146.933814418869
 22
1670.0
 32
0.0
 13
2146.933814418869
 23
1670.0
 33
0.0
  0
SOLID
  5
ADB
330
AD4
100
AcDbEntity
  8
SUNPO
 62
   144
100
AcDbTrace
 10
2144.600481085535
 20
1814.0
 30
0.0
 11
2149.267147752202
 21
1814.0
 31
0.0
 12
2146.933814418869
 22
1800.0
 32
0.0
 13
2146.933814418869
 23
1800.0
 33
0.0
  0
MTEXT
  5
ADC
330
AD4
100
AcDbEntity
  8
SUNPO
 62
     7
100
AcDbMText
 10
2109.433814418869
 20
1735.0
 30
0.0
 40
50.0
 41
0.0
 71
     5
 72
     1
  1
\A2;130
  7
ADD
 11
0.0000000000000001
 21
1.0
 31
0.0
1001
ACAD
1000
MTEXTBEGIN
1070
    73
1070
     1
1070
    44
1040
1.0
1070
    74
1070
     0
1000
MTEXTEND
  0
POINT
  5
ADD
330
AD4
100
AcDbEntity
  8
DEFPOINTS
 62
     0
100
AcDbPoint
 10
1940.0
 20
1670.0
 30
0.0
  0
POINT
  5
ADE
330
AD4
100
AcDbEntity
  8
DEFPOINTS
 62
     0
100
AcDbPoint
 10
1939.999999999999
 20
1800.0
 30
0.0
  0
POINT
  5
ADF
330
AD4
100
AcDbEntity
  8
DEFPOINTS
 62
     0
100
AcDbPoint
 10
2146.933814418869
 20
1800.0
 30
0.0
  0
ENDBLK
  5
AE1
330
AD4
100
AcDbEntity
  8
0
100
AcDbBlockEnd
  0
BLOCK
  5
B76
330
B6C
100
AcDbEntity
  8
0
100
AcDbBlockBegin
  2
*D25
 70
     1
 10
0.0
 20
0.0
 30
0.0
  3
*D25
  1

  0
LINE
  5
B6D
330
B6C
100
AcDbEntity
  8
SUNPO
 62
   144
100
AcDbLine
 10
1959.999999999999
 20
1670.0
 30
0.0
 11
2153.577773744005
 21
1670.0
 31
0.0
  0
LINE
  5
B6E
330
B6C
100
AcDbEntity
  8
SUNPO
 62
   144
100
AcDbLine
 10
1959.999999999999
 20
1820.0
 30
0.0
 11
2153.577773744005
 21
1820.0
 31
0.0
  0
LINE
  5
B6F
330
B6C
100
AcDbEntity
  8
SUNPO
 62
   144
100
AcDbLine
 10
2143.577773744005
 20
1684.0
 30
0.0
 11
2143.577773744005
 21
1806.0
 31
0.0
  0
SOLID
  5
B70
330
B6C
100
AcDbEntity
  8
SUNPO
 62
   144
100
AcDbTrace
 10
2141.244440410672
 20
1684.0
 30
0.0
 11
2145.911107077339
 21
1684.0
 31
0.0
 12
2143.577773744005
 22
1670.0
 32
0.0
 13
2143.577773744005
 23
1670.0
 33
0.0
  0
SOLID
  5
B71
330
B6C
100
AcDbEntity
  8
SUNPO
 62
   144
100
AcDbTrace
 10
2141.244440410672
 20
1806.0
 30
0.0
 11
2145.911107077339
 21
1806.0
 31
0.0
 12
2143.577773744005
 22
1820.0
 32
0.0
 13
2143.577773744005
 23
1820.0
 33
0.0
  0
MTEXT
  5
B72
330
B6C
100
AcDbEntity
  8
SUNPO
 62
     7
100
AcDbMText
 10
2106.077773744005
 20
1745.0
 30
0.0
 40
50.0
 41
0.0
 71
     5
 72
     1
  1
\A2;150
  7
ADD
 11
0.0000000000000001
 21
1.0
 31
0.0
1001
ACAD
1000
MTEXTBEGIN
1070
    73
1070
     1
1070
    44
1040
1.0
1070
    74
1070
     0
1000
MTEXTEND
  0
POINT
  5
B73
330
B6C
100
AcDbEntity
  8
DEFPOINTS
 62
     0
100
AcDbPoint
 10
1939.999999999999
 20
1670.0
 30
0.0
  0
POINT
  5
B74
330
B6C
100
AcDbEntity
  8
DEFPOINTS
 62
     0
100
AcDbPoint
 10
1939.999999999999
 20
1820.0
 30
0.0
  0
POINT
  5
B75
330
B6C
100
AcDbEntity
  8
DEFPOINTS
 62
     0
100
AcDbPoint
 10
2143.577773744005
 20
1820.0
 30
0.0
  0
ENDBLK
  5
B77
330
B6C
100
AcDbEntity
  8
0
100
AcDbBlockEnd
  0
BLOCK
  5
B84
330
B7A
100
AcDbEntity
  8
0
100
AcDbBlockBegin
  2
*D26
 70
     1
 10
0.0
 20
0.0
 30
0.0
  3
*D26
  1

  0
LINE
  5
B7B
330
B7A
100
AcDbEntity
  8
SUNPO
 62
   144
100
AcDbLine
 10
4803.553692417004
 20
1670.0
 30
0.0
 11
5056.342069857461
 21
1670.0
 31
0.0
  0
LINE
  5
B7C
330
B7A
100
AcDbEntity
  8
SUNPO
 62
   144
100
AcDbLine
 10
4803.553692417004
 20
1820.0
 30
0.0
 11
5056.342069857461
 21
1820.0
 31
0.0
  0
LINE
  5
B7D
330
B7A
100
AcDbEntity
  8
SUNPO
 62
   144
100
AcDbLine
 10
5046.342069857461
 20
1684.0
 30
0.0
 11
5046.342069857461
 21
1806.0
 31
0.0
  0
SOLID
  5
B7E
330
B7A
100
AcDbEntity
  8
SUNPO
 62
   144
100
AcDbTrace
 10
5044.008736524128
 20
1684.0
 30
0.0
 11
5048.675403190794
 21
1684.0
 31
0.0
 12
5046.342069857461
 22
1670.0
 32
0.0
 13
5046.342069857461
 23
1670.0
 33
0.0
  0
SOLID
  5
B7F
330
B7A
100
AcDbEntity
  8
SUNPO
 62
   144
100
AcDbTrace
 10
5044.008736524128
 20
1806.0
 30
0.0
 11
5048.675403190794
 21
1806.0
 31
0.0
 12
5046.342069857461
 22
1820.0
 32
0.0
 13
5046.342069857461
 23
1820.0
 33
0.0
  0
MTEXT
  5
B80
330
B7A
100
AcDbEntity
  8
SUNPO
 62
     7
100
AcDbMText
 10
5008.842069857461
 20
1745.0
 30
0.0
 40
50.0
 41
0.0
 71
     5
 72
     1
  1
\A2;150
  7
ADD
 11
0.0000000000000001
 21
1.0
 31
0.0
1001
ACAD
1000
MTEXTBEGIN
1070
    73
1070
     1
1070
    44
1040
1.0
1070
    74
1070
     0
1000
MTEXTEND
  0
POINT
  5
B81
330
B7A
100
AcDbEntity
  8
DEFPOINTS
 62
     0
100
AcDbPoint
 10
4783.553692417005
 20
1670.0
 30
0.0
  0
POINT
  5
B82
330
B7A
100
AcDbEntity
  8
DEFPOINTS
 62
     0
100
AcDbPoint
 10
4783.553692417005
 20
1820.0
 30
0.0
  0
POINT
  5
B83
330
B7A
100
AcDbEntity
  8
DEFPOINTS
 62
     0
100
AcDbPoint
 10
5046.342069857461
 20
1820.0
 30
0.0
  0
ENDBLK
  5
B85
330
B7A
100
AcDbEntity
  8
0
100
AcDbBlockEnd
  0
ENDSEC
  0
SECTION
  2
ENTITIES
  0
LINE
  5
60A
330
1F
100
AcDbEntity
  8
HOJO
100
AcDbLine
 10
360.0
 20
260.0
 30
0.0
 11
5580.0
 21
260.0
 31
0.0
  0
LINE
  5
60B
330
1F
100
AcDbEntity
  8
HOJO
100
AcDbLine
 10
360.0
 20
560.0
 30
0.0
 11
5580.0
 21
560.0
 31
0.0
  0
LINE
  5
60C
330
1F
100
AcDbEntity
  8
HOJO
100
AcDbLine
 10
360.0
 20
260.0
 30
0.0
 11
360.0
 21
560.0
 31
0.0
  0
LINE
  5
60D
330
1F
100
AcDbEntity
  8
HOJO
100
AcDbLine
 10
2360.0
 20
260.0
 30
0.0
 11
2360.0
 21
560.0
 31
0.0
  0
LINE
  5
60F
330
1F
100
AcDbEntity
  8
HOJO
100
AcDbLine
 10
3160.0
 20
260.0
 30
0.0
 11
3160.0
 21
560.0
 31
0.0
  0
LINE
  5
610
330
1F
100
AcDbEntity
  8
HOJO
100
AcDbLine
 10
3660.0
 20
260.0
 30
0.0
 11
3660.0
 21
560.0
 31
0.0
  0
LINE
  5
633
330
1F
100
AcDbEntity
  8
3C1
100
AcDbLine
 10
1240.0
 20
1670.0
 30
0.0
 11
1940.0
 21
1670.0
 31
0.0
  0
LINE
  5
634
330
1F
100
AcDbEntity
  8
3C1
100
AcDbLine
 10
1940.0
 20
1670.0
 30
0.0
 11
1939.999999999999
 21
1820.0
 31
0.0
  0
LINE
  5
635
330
1F
100
AcDbEntity
  8
3C1
100
AcDbLine
 10
1240.0
 20
1670.0
 30
0.0
 11
1240.0
 21
1790.0
 31
0.0
  0
LINE
  5
636
330
1F
100
AcDbEntity
  8
3C1
100
AcDbLine
 10
1289.314246843868
 20
1990.0
 30
0.0
 11
1390.685753156131
 21
1990.0
 31
0.0
  0
LINE
  5
638
330
1F
100
AcDbEntity
  8
3C1
100
AcDbLine
 10
1458.593651739604
 20
1790.743746069583
 30
0.0
 11
1939.999999999999
 21
1820.0
 31
0.0
  0
LINE
  5
63C
330
1F
100
AcDbEntity
  8
3C1
100
AcDbLine
 10
1259.502307359104
 20
1963.353843192036
 30
0.0
 11
1240.0
 21
1790.0
 31
0.0
  0
LINE
  5
63D
330
1F
100
AcDbEntity
  8
3C1
100
AcDbLine
 10
1420.497692640895
 20
1963.353843192036
 30
0.0
 11
1437.91966464945
 21
1808.491869782662
 31
0.0
  0
LINE
  5
641
330
1F
100
AcDbEntity
  8
3C1
100
AcDbLine
 10
1243.375
 20
1820.0
 30
0.0
 11
1437.75
 21
1810.0
 31
0.0
  0
LINE
  5
645
330
1F
100
AcDbEntity
  8
3C1
100
AcDbLine
 10
2783.553692417005
 20
1670.0
 30
0.0
 11
4783.553692417005
 21
1670.0
 31
0.0
  0
LINE
  5
649
330
1F
100
AcDbEntity
  8
3C1
100
AcDbLine
 10
2783.553692417005
 20
1820.0
 30
0.0
 11
2783.553692417005
 21
1670.0
 31
0.0
  0
LINE
  5
64A
330
1F
100
AcDbEntity
  8
3C1
100
AcDbLine
 10
4783.553692417005
 20
1990.0
 30
0.0
 11
4783.553692417005
 21
1670.0
 31
0.0
  0
LINE
  5
64B
330
1F
100
AcDbEntity
  8
3C1
100
AcDbLine
 10
3383.553692417005
 20
1990.0
 30
0.0
 11
4783.553692417005
 21
1990.0
 31
0.0
  0
LINE
  5
729
330
1F
100
AcDbEntity
  8
3C1
100
AcDbLine
 10
2783.553692417005
 20
1790.0
 30
0.0
 11
4783.553692417005
 21
1790.0
 31
0.0
  0
ARC
  5
8F8
330
1F
100
AcDbEntity
  8
3C1
100
AcDbCircle
 10
1289.314246843868
 20
1960.0
 30
0.0
 40
30.0
100
AcDbArc
 50
90.0
 51
173.5812132697612
  0
ARC
  5
8F9
330
1F
100
AcDbEntity
  8
3C1
100
AcDbCircle
 10
1390.685753156131
 20
1960.0
 30
0.0
 40
30.0
100
AcDbArc
 50
6.418786730238807
 51
90.0
  0
LINE
  5
9B5
330
1F
100
AcDbEntity
  8
3C1
100
AcDbLine
 10
2783.553692417005
 20
1800.0
 30
0.0
 11
3512.071598392447
 21
1800.0
 31
0.0
  0
LINE
  5
9B7
330
1F
100
AcDbEntity
  8
3C1
100
AcDbLine
 10
2783.553692417005
 20
1820.0
 30
0.0
 11
3383.553692417005
 21
1990.0
 31
0.0
  0
LINE
  5
9B8
330
1F
100
AcDbEntity
  8
3C1
100
AcDbLine
 10
2783.553692417005
 20
1800.0
 30
0.0
 11
3383.553692417005
 21
1990.0
 31
0.0
  0
ARC
  5
A36
330
1F
100
AcDbEntity
  8
3C1
100
AcDbCircle
 10
1457.794290972626
 20
1810.72776524402
 30
0.0
 40
20.0
100
AcDbArc
 50
186.4187867302389
 51
272.2906100426385
  0
LINE
  5
B78
330
1F
100
AcDbEntity
  8
3C1
100
AcDbLine
 10
2783.553692417005
 20
1820.0
 30
0.0
 11
4783.553692417005
 21
1820.0
 31
0.0
  0
LINE
  5
CD9
330
1F
100
AcDbEntity
  8
SUNPO
 62
   144
100
AcDbLine
 10
4803.553692417004
 20
1670.0
 30
0.0
 11
5056.342069857461
 21
1670.0
 31
0.0
  0
LINE
  5
CDA
330
1F
100
AcDbEntity
  8
SUNPO
 62
   144
100
AcDbLine
 10
4803.553692417004
 20
1820.0
 30
0.0
 11
5056.342069857461
 21
1820.0
 31
0.0
  0
LINE
  5
CDB
330
1F
100
AcDbEntity
  8
SUNPO
 62
   144
100
AcDbLine
 10
5046.342069857461
 20
1684.0
 30
0.0
 11
5046.342069857461
 21
1806.0
 31
0.0
  0
SOLID
  5
CDC
330
1F
100
AcDbEntity
  8
SUNPO
 62
   144
100
AcDbTrace
 10
5044.008736524128
 20
1684.0
 30
0.0
 11
5048.675403190794
 21
1684.0
 31
0.0
 12
5046.342069857461
 22
1670.0
 32
0.0
 13
5046.342069857461
 23
1670.0
 33
0.0
  0
SOLID
  5
CDD
330
1F
100
AcDbEntity
  8
SUNPO
 62
   144
100
AcDbTrace
 10
5044.008736524128
 20
1806.0
 30
0.0
 11
5048.675403190794
 21
1806.0
 31
0.0
 12
5046.342069857461
 22
1820.0
 32
0.0
 13
5046.342069857461
 23
1820.0
 33
0.0
  0
LINE
  5
CDF
330
1F
100
AcDbEntity
  8
SUNPO
 62
   144
100
AcDbLine
 10
1959.999999999999
 20
1670.0
 30
0.0
 11
2153.577773744005
 21
1670.0
 31
0.0
  0
LINE
  5
CE0
330
1F
100
AcDbEntity
  8
SUNPO
 62
   144
100
AcDbLine
 10
1959.999999999999
 20
1820.0
 30
0.0
 11
2153.577773744005
 21
1820.0
 31
0.0
  0
LINE
  5
CE1
330
1F
100
AcDbEntity
  8
SUNPO
 62
   144
100
AcDbLine
 10
2143.577773744005
 20
1684.0
 30
0.0
 11
2143.577773744005
 21
1806.0
 31
0.0
  0
SOLID
  5
CE2
330
1F
100
AcDbEntity
  8
SUNPO
 62
   144
100
AcDbTrace
 10
2141.244440410672
 20
1684.0
 30
0.0
 11
2145.911107077339
 21
1684.0
 31
0.0
 12
2143.577773744005
 22
1670.0
 32
0.0
 13
2143.577773744005
 23
1670.0
 33
0.0
  0
SOLID
  5
CE3
330
1F
100
AcDbEntity
  8
SUNPO
 62
   144
100
AcDbTrace
 10
2141.244440410672
 20
1806.0
 30
0.0
 11
2145.911107077339
 21
1806.0
 31
0.0
 12
2143.577773744005
 22
1820.0
 32
0.0
 13
2143.577773744005
 23
1820.0
 33
0.0
  0
LINE
  5
CE5
330
1F
100
AcDbEntity
  8
SUNPO
 62
   144
100
AcDbLine
 10
1200.0
 20
1790.0
 30
0.0
 11
1064.620210849383
 21
1790.0
 31
0.0
  0
LINE
  5
CE6
330
1F
100
AcDbEntity
  8
SUNPO
 62
   144
100
AcDbLine
 10
1223.375
 20
1820.0
 30
0.0
 11
1064.620210849383
 21
1820.0
 31
0.0
  0
LINE
  5
CE7
330
1F
100
AcDbEntity
  8
SUNPO
 62
   144
100
AcDbLine
 10
1074.620210849383
 20
1776.0
 30
0.0
 11
1074.620210849383
 21
1762.0
 31
0.0
  0
LINE
  5
CE8
330
1F
100
AcDbEntity
  8
SUNPO
 62
   144
100
AcDbLine
 10
1074.620210849383
 20
1834.0
 30
0.0
 11
1074.620210849383
 21
1848.0
 31
0.0
  0
LINE
  5
CE9
330
1F
100
AcDbEntity
  8
SUNPO
 62
   144
100
AcDbLine
 10
1074.620210849383
 20
1790.0
 30
0.0
 11
1074.620210849383
 21
1820.0
 31
0.0
  0
SOLID
  5
CEA
330
1F
100
AcDbEntity
  8
SUNPO
 62
   144
100
AcDbTrace
 10
1072.28687751605
 20
1776.0
 30
0.0
 11
1076.953544182716
 21
1776.0
 31
0.0
 12
1074.620210849383
 22
1790.0
 32
0.0
 13
1074.620210849383
 23
1790.0
 33
0.0
  0
SOLID
  5
CEB
330
1F
100
AcDbEntity
  8
SUNPO
 62
   144
100
AcDbTrace
 10
1072.28687751605
 20
1834.0
 30
0.0
 11
1076.953544182716
 21
1834.0
 31
0.0
 12
1074.620210849383
 22
1820.0
 32
0.0
 13
1074.620210849383
 23
1820.0
 33
0.0
  0
LINE
  5
CED
330
1F
100
AcDbEntity
  8
SUNPO
 62
   144
100
AcDbLine
 10
1674.0516194275
 20
1943.48874456875
 30
0.0
 11
1501.67220223757
 21
1835.199026405518
 31
0.0
  0
LINE
  5
CEF
330
1F
100
AcDbEntity
  8
SUNPO
 62
   144
100
AcDbLine
 10
1442.397876326646
 20
1797.962561914301
 30
0.0
 11
1459.333398015482
 21
1808.601551768935
 31
0.0
  0
SOLID
  5
CF0
330
1F
100
AcDbEntity
  8
SUNPO
 62
   144
100
AcDbTrace
 10
1497.239289798139
 20
1842.255493775867
 30
0.0
 11
1506.105114677
 21
1828.14255903517
 31
0.0
 12
1459.333398015482
 22
1808.601551768935
 32
0.0
 13
1459.333398015482
 23
1808.601551768935
 33
0.0
  0
LINE
  5
CF1
330
1F
100
AcDbEntity
  8
SUNPO
 62
   144
100
AcDbLine
 10
2580.865340728301
 20
1670.0
 30
0.0
 11
2379.996533675172
 21
1670.0
 31
0.0
  0
LINE
  5
CF2
330
1F
100
AcDbEntity
  8
SUNPO
 62
   144
100
AcDbLine
 10
2580.865340728301
 20
1990.0
 30
0.0
 11
2379.996533675172
 21
1990.0
 31
0.0
  0
LINE
  5
CF3
330
1F
100
AcDbEntity
  8
SUNPO
 62
   144
100
AcDbLine
 10
2389.996533675172
 20
1684.0
 30
0.0
 11
2389.996533675172
 21
1976.0
 31
0.0
  0
SOLID
  5
CF4
330
1F
100
AcDbEntity
  8
SUNPO
 62
   144
100
AcDbTrace
 10
2387.663200341838
 20
1684.0
 30
0.0
 11
2392.329867008505
 21
1684.0
 31
0.0
 12
2389.996533675172
 22
1670.0
 32
0.0
 13
2389.996533675172
 23
1670.0
 33
0.0
  0
SOLID
  5
CF5
330
1F
100
AcDbEntity
  8
SUNPO
 62
   144
100
AcDbTrace
 10
2387.663200341838
 20
1976.0
 30
0.0
 11
2392.329867008505
 21
1976.0
 31
0.0
 12
2389.996533675172
 22
1990.0
 32
0.0
 13
2389.996533675172
 23
1990.0
 33
0.0
  0
LINE
  5
CF7
330
1F
100
AcDbEntity
  8
SUNPO
 62
   144
100
AcDbLine
 10
2763.553692417004
 20
1820.0
 30
0.0
 11
2590.865340728301
 21
1820.0
 31
0.0
  0
LINE
  5
CF8
330
1F
100
AcDbEntity
  8
SUNPO
 62
   144
100
AcDbLine
 10
3363.553692417005
 20
1990.0
 30
0.0
 11
2590.865340728301
 21
1990.0
 31
0.0
  0
LINE
  5
CF9
330
1F
100
AcDbEntity
  8
SUNPO
 62
   144
100
AcDbLine
 10
2600.865340728302
 20
1834.0
 30
0.0
 11
2600.865340728302
 21
1976.0
 31
0.0
  0
SOLID
  5
CFA
330
1F
100
AcDbEntity
  8
SUNPO
 62
   144
100
AcDbTrace
 10
2598.532007394968
 20
1834.0
 30
0.0
 11
2603.198674061635
 21
1834.0
 31
0.0
 12
2600.865340728302
 22
1820.0
 32
0.0
 13
2600.865340728302
 23
1820.0
 33
0.0
  0
SOLID
  5
CFB
330
1F
100
AcDbEntity
  8
SUNPO
 62
   144
100
AcDbTrace
 10
2598.532007394968
 20
1976.0
 30
0.0
 11
2603.198674061635
 21
1976.0
 31
0.0
 12
2600.865340728302
 22
1990.0
 32
0.0
 13
2600.865340728302
 23
1990.0
 33
0.0
  0
LINE
  5
CFD
330
1F
100
AcDbEntity
  8
SUNPO
 62
   144
100
AcDbLine
 10
2763.553692417004
 20
1790.0
 30
0.0
 11
2590.865340728301
 21
1790.0
 31
0.0
  0
LINE
  5
CFE
330
1F
100
AcDbEntity
  8
SUNPO
 62
   144
100
AcDbLine
 10
2763.553692417004
 20
1820.0
 30
0.0
 11
2590.865340728301
 21
1820.0
 31
0.0
  0
LINE
  5
CFF
330
1F
100
AcDbEntity
  8
SUNPO
 62
   144
100
AcDbLine
 10
2600.865340728302
 20
1776.0
 30
0.0
 11
2600.865340728302
 21
1762.0
 31
0.0
  0
LINE
  5
D00
330
1F
100
AcDbEntity
  8
SUNPO
 62
   144
100
AcDbLine
 10
2600.865340728302
 20
1834.0
 30
0.0
 11
2600.865340728302
 21
1848.0
 31
0.0
  0
LINE
  5
D02
330
1F
100
AcDbEntity
  8
SUNPO
 62
   144
100
AcDbLine
 10
2600.865340728302
 20
1790.0
 30
0.0
 11
2600.865340728302
 21
1820.0
 31
0.0
  0
SOLID
  5
D03
330
1F
100
AcDbEntity
  8
SUNPO
 62
   144
100
AcDbTrace
 10
2598.532007394968
 20
1776.0
 30
0.0
 11
2603.198674061635
 21
1776.0
 31
0.0
 12
2600.865340728302
 22
1790.0
 32
0.0
 13
2600.865340728302
 23
1790.0
 33
0.0
  0
SOLID
  5
D04
330
1F
100
AcDbEntity
  8
SUNPO
 62
   144
100
AcDbTrace
 10
2598.532007394968
 20
1834.0
 30
0.0
 11
2603.198674061635
 21
1834.0
 31
0.0
 12
2600.865340728302
 22
1820.0
 32
0.0
 13
2600.865340728302
 23
1820.0
 33
0.0
  0
LINE
  5
D05
330
1F
100
AcDbEntity
  8
SUNPO
 62
   144
100
AcDbLine
 10
2763.553692417004
 20
1670.0
 30
0.0
 11
2590.865340728301
 21
1670.0
 31
0.0
  0
LINE
  5
D06
330
1F
100
AcDbEntity
  8
SUNPO
 62
   144
100
AcDbLine
 10
2763.553692417004
 20
1790.0
 30
0.0
 11
2590.865340728301
 21
1790.0
 31
0.0
  0
LINE
  5
D07
330
1F
100
AcDbEntity
  8
SUNPO
 62
   144
100
AcDbLine
 10
2600.865340728302
 20
1656.0
 30
0.0
 11
2600.865340728302
 21
1642.0
 31
0.0
  0
LINE
  5
D08
330
1F
100
AcDbEntity
  8
SUNPO
 62
   144
100
AcDbLine
 10
2600.865340728302
 20
1804.0
 30
0.0
 11
2600.865340728302
 21
1818.0
 31
0.0
  0
LINE
  5
D09
330
1F
100
AcDbEntity
  8
SUNPO
 62
   144
100
AcDbLine
 10
2600.865340728302
 20
1670.0
 30
0.0
 11
2600.865340728302
 21
1790.0
 31
0.0
  0
SOLID
  5
D0A
330
1F
100
AcDbEntity
  8
SUNPO
 62
   144
100
AcDbTrace
 10
2598.532007394968
 20
1656.0
 30
0.0
 11
2603.198674061635
 21
1656.0
 31
0.0
 12
2600.865340728302
 22
1670.0
 32
0.0
 13
2600.865340728302
 23
1670.0
 33
0.0
  0
SOLID
  5
D0B
330
1F
100
AcDbEntity
  8
SUNPO
 62
   144
100
AcDbTrace
 10
2598.532007394968
 20
1804.0
 30
0.0
 11
2603.198674061635
 21
1804.0
 31
0.0
 12
2600.865340728302
 22
1790.0
 32
0.0
 13
2600.865340728302
 23
1790.0
 33
0.0
  0
LINE
  5
D0D
330
1F
100
AcDbEntity
  8
SUNPO
 62
   144
100
AcDbLine
 10
3406.405196124735
 20
1790.0
 30
0.0
 11
3415.027650213167
 21
1790.0
 31
0.0
  0
LINE
  5
D0E
330
1F
100
AcDbEntity
  8
SUNPO
 62
   144
100
AcDbLine
 10
3386.694316879834
 20
1800.0
 30
0.0
 11
3395.027650213167
 21
1800.0
 31
0.0
  0
LINE
  5
D0F
330
1F
100
AcDbEntity
  8
SUNPO
 62
   144
100
AcDbLine
 10
3405.027650213167
 20
1776.0
 30
0.0
 11
3405.027650213167
 21
1762.0
 31
0.0
  0
LINE
  5
D10
330
1F
100
AcDbEntity
  8
SUNPO
 62
   144
100
AcDbLine
 10
3405.027650213167
 20
1814.0
 30
0.0
 11
3405.027650213167
 21
1828.0
 31
0.0
  0
LINE
  5
D12
330
1F
100
AcDbEntity
  8
SUNPO
 62
   144
100
AcDbLine
 10
3405.027650213167
 20
1790.0
 30
0.0
 11
3405.027650213167
 21
1800.0
 31
0.0
  0
SOLID
  5
D13
330
1F
100
AcDbEntity
  8
SUNPO
 62
   144
100
AcDbTrace
 10
3402.694316879834
 20
1776.0
 30
0.0
 11
3407.3609835465
 21
1776.0
 31
0.0
 12
3405.027650213167
 22
1790.0
 32
0.0
 13
3405.027650213167
 23
1790.0
 33
0.0
  0
SOLID
  5
D14
330
1F
100
AcDbEntity
  8
SUNPO
 62
   144
100
AcDbTrace
 10
3402.694316879834
 20
1814.0
 30
0.0
 11
3407.3609835465
 21
1814.0
 31
0.0
 12
3405.027650213167
 22
1800.0
 32
0.0
 13
3405.027650213167
 23
1800.0
 33
0.0
  0
LINE
  5
D15
330
1F
100
AcDbEntity
  8
SUNPO
 62
   144
100
AcDbLine
 10
3406.405196124735
 20
1670.0
 30
0.0
 11
3415.027650213167
 21
1670.0
 31
0.0
  0
LINE
  5
D16
330
1F
100
AcDbEntity
  8
SUNPO
 62
   144
100
AcDbLine
 10
3406.405196124735
 20
1790.0
 30
0.0
 11
3415.027650213167
 21
1790.0
 31
0.0
  0
LINE
  5
D17
330
1F
100
AcDbEntity
  8
SUNPO
 62
   144
100
AcDbLine
 10
3405.027650213167
 20
1656.0
 30
0.0
 11
3405.027650213167
 21
1642.0
 31
0.0
  0
LINE
  5
D18
330
1F
100
AcDbEntity
  8
SUNPO
 62
   144
100
AcDbLine
 10
3405.027650213167
 20
1804.0
 30
0.0
 11
3405.027650213167
 21
1818.0
 31
0.0
  0
LINE
  5
D19
330
1F
100
AcDbEntity
  8
SUNPO
 62
   144
100
AcDbLine
 10
3405.027650213167
 20
1670.0
 30
0.0
 11
3405.027650213167
 21
1790.0
 31
0.0
  0
SOLID
  5
D1A
330
1F
100
AcDbEntity
  8
SUNPO
 62
   144
100
AcDbTrace
 10
3402.694316879834
 20
1656.0
 30
0.0
 11
3407.3609835465
 21
1656.0
 31
0.0
 12
3405.027650213167
 22
1670.0
 32
0.0
 13
3405.027650213167
 23
1670.0
 33
0.0
  0
SOLID
  5
D1B
330
1F
100
AcDbEntity
  8
SUNPO
 62
   144
100
AcDbTrace
 10
3402.694316879834
 20
1804.0
 30
0.0
 11
3407.3609835465
 21
1804.0
 31
0.0
 12
3405.027650213167
 22
1790.0
 32
0.0
 13
3405.027650213167
 23
1790.0
 33
0.0
  0
LINE
  5
D1D
330
1F
100
AcDbEntity
  8
SUNPO
 62
   144
100
AcDbLine
 10
1633.439910537798
 20
2106.571396172506
 30
0.0
 11
1459.170553223503
 21
2001.350116804334
 31
0.0
  0
LINE
  5
D1F
330
1F
100
AcDbEntity
  8
SUNPO
 62
   144
100
AcDbLine
 10
1390.685753156131
 20
1960.0
 30
0.0
 11
1416.367553181396
 21
1975.506293801625
 31
0.0
  0
SOLID
  5
D20
330
1F
100
AcDbEntity
  8
SUNPO
 62
   144
100
AcDbTrace
 10
1454.863249389719
 20
2008.483950144685
 30
0.0
 11
1463.477857057288
 21
1994.216283463983
 31
0.0
 12
1416.367553181396
 22
1975.506293801625
 32
0.0
 13
1416.367553181396
 23
1975.506293801625
 33
0.0
  0
LINE
  5
D21
330
1F
100
AcDbEntity
  8
SUNPO
 62
   144
100
AcDbLine
 10
1440.0
 20
2296.279348660223
 30
0.0
 11
1440.0
 21
2459.415767736098
 31
0.0
  0
LINE
  5
D22
330
1F
100
AcDbEntity
  8
SUNPO
 62
   144
100
AcDbLine
 10
1940.0
 20
1926.056921267234
 30
0.0
 11
1940.0
 21
2459.415767736098
 31
0.0
  0
LINE
  5
D23
330
1F
100
AcDbEntity
  8
SUNPO
 62
   144
100
AcDbLine
 10
1454.0
 20
2449.415767736098
 30
0.0
 11
1926.0
 21
2449.415767736098
 31
0.0
  0
SOLID
  5
D24
330
1F
100
AcDbEntity
  8
SUNPO
 62
   144
100
AcDbTrace
 10
1454.0
 20
2451.749101069431
 30
0.0
 11
1454.0
 21
2447.082434402764
 31
0.0
 12
1440.0
 22
2449.415767736098
 32
0.0
 13
1440.0
 23
2449.415767736098
 33
0.0
  0
SOLID
  5
D25
330
1F
100
AcDbEntity
  8
SUNPO
 62
   144
100
AcDbTrace
 10
1926.0
 20
2451.749101069431
 30
0.0
 11
1926.0
 21
2447.082434402764
 31
0.0
 12
1940.0
 22
2449.415767736098
 32
0.0
 13
1940.0
 23
2449.415767736098
 33
0.0
  0
LINE
  5
D27
330
1F
100
AcDbEntity
  8
SUNPO
 62
   144
100
AcDbLine
 10
1240.0
 20
2298.675899204897
 30
0.0
 11
1240.0
 21
2459.415767736098
 31
0.0
  0
LINE
  5
D28
330
1F
100
AcDbEntity
  8
SUNPO
 62
   144
100
AcDbLine
 10
1440.0
 20
2296.279348660223
 30
0.0
 11
1440.0
 21
2459.415767736098
 31
0.0
  0
LINE
  5
D29
330
1F
100
AcDbEntity
  8
SUNPO
 62
   144
100
AcDbLine
 10
1254.0
 20
2449.415767736098
 30
0.0
 11
1426.0
 21
2449.415767736098
 31
0.0
  0
SOLID
  5
D2A
330
1F
100
AcDbEntity
  8
SUNPO
 62
   144
100
AcDbTrace
 10
1254.0
 20
2451.749101069431
 30
0.0
 11
1254.0
 21
2447.082434402764
 31
0.0
 12
1240.0
 22
2449.415767736098
 32
0.0
 13
1240.0
 23
2449.415767736098
 33
0.0
  0
SOLID
  5
D2B
330
1F
100
AcDbEntity
  8
SUNPO
 62
   144
100
AcDbTrace
 10
1426.0
 20
2451.749101069431
 30
0.0
 11
1426.0
 21
2447.082434402764
 31
0.0
 12
1440.0
 22
2449.415767736098
 32
0.0
 13
1440.0
 23
2449.415767736098
 33
0.0
  0
LINE
  5
D2D
330
1F
100
AcDbEntity
  8
SUNPO
 62
   144
100
AcDbLine
 10
1417.5
 20
2010.0
 30
0.0
 11
1417.5
 21
2288.675899204898
 31
0.0
  0
LINE
  5
D2E
330
1F
100
AcDbEntity
  8
SUNPO
 62
   144
100
AcDbLine
 10
1440.0
 20
2296.279348660223
 30
0.0
 11
1440.0
 21
2288.675899204898
 31
0.0
  0
LINE
  5
D2F
330
1F
100
AcDbEntity
  8
SUNPO
 62
   144
100
AcDbLine
 10
1403.5
 20
2278.675899204898
 30
0.0
 11
1389.499999999999
 21
2278.675899204898
 31
0.0
  0
LINE
  5
D30
330
1F
100
AcDbEntity
  8
SUNPO
 62
   144
100
AcDbLine
 10
1454.0
 20
2278.675899204898
 30
0.0
 11
1468.0
 21
2278.675899204898
 31
0.0
  0
LINE
  5
D32
330
1F
100
AcDbEntity
  8
SUNPO
 62
   144
100
AcDbLine
 10
1417.5
 20
2278.675899204898
 30
0.0
 11
1440.0
 21
2278.675899204898
 31
0.0
  0
SOLID
  5
D33
330
1F
100
AcDbEntity
  8
SUNPO
 62
   144
100
AcDbTrace
 10
1403.5
 20
2281.009232538231
 30
0.0
 11
1403.5
 21
2276.342565871564
 31
0.0
 12
1417.5
 22
2278.675899204898
 32
0.0
 13
1417.5
 23
2278.675899204898
 33
0.0
  0
SOLID
  5
D34
330
1F
100
AcDbEntity
  8
SUNPO
 62
   144
100
AcDbTrace
 10
1454.0
 20
2281.009232538231
 30
0.0
 11
1454.0
 21
2276.342565871564
 31
0.0
 12
1440.0
 22
2278.675899204898
 32
0.0
 13
1440.0
 23
2278.675899204898
 33
0.0
  0
LINE
  5
D35
330
1F
100
AcDbEntity
  8
SUNPO
 62
   144
100
AcDbLine
 10
1262.5
 20
2010.0
 30
0.0
 11
1262.5
 21
2288.675899204898
 31
0.0
  0
LINE
  5
D36
330
1F
100
AcDbEntity
  8
SUNPO
 62
   144
100
AcDbLine
 10
1417.5
 20
2010.0
 30
0.0
 11
1417.5
 21
2288.675899204898
 31
0.0
  0
LINE
  5
D37
330
1F
100
AcDbEntity
  8
SUNPO
 62
   144
100
AcDbLine
 10
1276.5
 20
2278.675899204898
 30
0.0
 11
1403.5
 21
2278.675899204898
 31
0.0
  0
SOLID
  5
D38
330
1F
100
AcDbEntity
  8
SUNPO
 62
   144
100
AcDbTrace
 10
1276.5
 20
2281.009232538231
 30
0.0
 11
1276.5
 21
2276.342565871564
 31
0.0
 12
1262.5
 22
2278.675899204898
 32
0.0
 13
1262.5
 23
2278.675899204898
 33
0.0
  0
SOLID
  5
D39
330
1F
100
AcDbEntity
  8
SUNPO
 62
   144
100
AcDbTrace
 10
1403.5
 20
2281.009232538231
 30
0.0
 11
1403.5
 21
2276.342565871564
 31
0.0
 12
1417.5
 22
2278.675899204898
 32
0.0
 13
1417.5
 23
2278.675899204898
 33
0.0
  0
LINE
  5
D3B
330
1F
100
AcDbEntity
  8
SUNPO
 62
   144
100
AcDbLine
 10
1240.0
 20
2010.0
 30
0.0
 11
1240.0
 21
2288.675899204898
 31
0.0
  0
LINE
  5
D3C
330
1F
100
AcDbEntity
  8
SUNPO
 62
   144
100
AcDbLine
 10
1262.5
 20
2010.0
 30
0.0
 11
1262.5
 21
2288.675899204898
 31
0.0
  0
LINE
  5
D3D
330
1F
100
AcDbEntity
  8
SUNPO
 62
   144
100
AcDbLine
 10
1226.0
 20
2278.675899204898
 30
0.0
 11
1212.0
 21
2278.675899204898
 31
0.0
  0
LINE
  5
D3E
330
1F
100
AcDbEntity
  8
SUNPO
 62
   144
100
AcDbLine
 10
1276.5
 20
2278.675899204898
 30
0.0
 11
1290.5
 21
2278.675899204898
 31
0.0
  0
LINE
  5
D40
330
1F
100
AcDbEntity
  8
SUNPO
 62
   144
100
AcDbLine
 10
1240.0
 20
2278.675899204898
 30
0.0
 11
1262.5
 21
2278.675899204898
 31
0.0
  0
SOLID
  5
D41
330
1F
100
AcDbEntity
  8
SUNPO
 62
   144
100
AcDbTrace
 10
1226.0
 20
2281.009232538231
 30
0.0
 11
1226.0
 21
2276.342565871564
 31
0.0
 12
1240.0
 22
2278.675899204898
 32
0.0
 13
1240.0
 23
2278.675899204898
 33
0.0
  0
SOLID
  5
D42
330
1F
100
AcDbEntity
  8
SUNPO
 62
   144
100
AcDbTrace
 10
1276.5
 20
2281.009232538231
 30
0.0
 11
1276.5
 21
2276.342565871564
 31
0.0
 12
1262.5
 22
2278.675899204898
 32
0.0
 13
1262.5
 23
2278.675899204898
 33
0.0
  0
LINE
  5
D43
330
1F
100
AcDbEntity
  8
SUNPO
 62
   144
100
AcDbLine
 10
900.2188601191628
 20
1670.0
 30
0.0
 11
727.0587219133139
 21
1670.0
 31
0.0
  0
LINE
  5
D44
330
1F
100
AcDbEntity
  8
SUNPO
 62
   144
100
AcDbLine
 10
900.2188601191626
 20
1990.0
 30
0.0
 11
727.0587219133139
 21
1990.0
 31
0.0
  0
LINE
  5
D45
330
1F
100
AcDbEntity
  8
SUNPO
 62
   144
100
AcDbLine
 10
737.0587219133138
 20
1684.0
 30
0.0
 11
737.058721913314
 21
1976.0
 31
0.0
  0
SOLID
  5
D46
330
1F
100
AcDbEntity
  8
SUNPO
 62
   144
100
AcDbTrace
 10
734.7253885799805
 20
1684.0
 30
0.0
 11
739.3920552466473
 21
1684.0
 31
0.0
 12
737.0587219133138
 22
1670.0
 32
0.0
 13
737.0587219133138
 23
1670.0
 33
0.0
  0
SOLID
  5
D47
330
1F
100
AcDbEntity
  8
SUNPO
 62
   144
100
AcDbTrace
 10
734.7253885799806
 20
1976.0
 30
0.0
 11
739.3920552466473
 21
1976.0
 31
0.0
 12
737.058721913314
 22
1990.0
 32
0.0
 13
737.058721913314
 23
1990.0
 33
0.0
  0
LINE
  5
D49
330
1F
100
AcDbEntity
  8
SUNPO
 62
   144
100
AcDbLine
 10
1220.0
 20
1790.0
 30
0.0
 11
910.2188601191627
 21
1790.0
 31
0.0
  0
LINE
  5
D4A
330
1F
100
AcDbEntity
  8
SUNPO
 62
   144
100
AcDbLine
 10
1242.5
 20
1990.0
 30
0.0
 11
910.2188601191627
 21
1990.0
 31
0.0
  0
LINE
  5
D4B
330
1F
100
AcDbEntity
  8
SUNPO
 62
   144
100
AcDbLine
 10
920.2188601191629
 20
1804.0
 30
0.0
 11
920.2188601191629
 21
1976.0
 31
0.0
  0
SOLID
  5
D4C
330
1F
100
AcDbEntity
  8
SUNPO
 62
   144
100
AcDbTrace
 10
917.8855267858294
 20
1804.0
 30
0.0
 11
922.5521934524962
 21
1804.0
 31
0.0
 12
920.2188601191627
 22
1790.0
 32
0.0
 13
920.2188601191627
 23
1790.0
 33
0.0
  0
SOLID
  5
D4D
330
1F
100
AcDbEntity
  8
SUNPO
 62
   144
100
AcDbTrace
 10
917.8855267858294
 20
1976.0
 30
0.0
 11
922.5521934524962
 21
1976.0
 31
0.0
 12
920.2188601191629
 22
1990.0
 32
0.0
 13
920.2188601191629
 23
1990.0
 33
0.0
  0
LINE
  5
D4F
330
1F
100
AcDbEntity
  8
SUNPO
 62
   144
100
AcDbLine
 10
1220.0
 20
1670.0
 30
0.0
 11
910.2188601191627
 21
1670.0
 31
0.0
  0
LINE
  5
D50
330
1F
100
AcDbEntity
  8
SUNPO
 62
   144
100
AcDbLine
 10
1220.0
 20
1790.0
 30
0.0
 11
910.2188601191627
 21
1790.0
 31
0.0
  0
LINE
  5
D51
330
1F
100
AcDbEntity
  8
SUNPO
 62
   144
100
AcDbLine
 10
920.2188601191627
 20
1656.0
 30
0.0
 11
920.2188601191627
 21
1642.0
 31
0.0
  0
LINE
  5
D52
330
1F
100
AcDbEntity
  8
SUNPO
 62
   144
100
AcDbLine
 10
920.2188601191629
 20
1804.0
 30
0.0
 11
920.2188601191629
 21
1818.0
 31
0.0
  0
LINE
  5
D53
330
1F
100
AcDbEntity
  8
SUNPO
 62
   144
100
AcDbLine
 10
920.2188601191627
 20
1670.0
 30
0.0
 11
920.2188601191627
 21
1790.0
 31
0.0
  0
SOLID
  5
D54
330
1F
100
AcDbEntity
  8
SUNPO
 62
   144
100
AcDbTrace
 10
917.8855267858294
 20
1656.0
 30
0.0
 11
922.5521934524961
 21
1656.0
 31
0.0
 12
920.2188601191627
 22
1670.0
 32
0.0
 13
920.2188601191627
 23
1670.0
 33
0.0
  0
SOLID
  5
D55
330
1F
100
AcDbEntity
  8
SUNPO
 62
   144
100
AcDbTrace
 10
917.8855267858294
 20
1804.0
 30
0.0
 11
922.5521934524962
 21
1804.0
 31
0.0
 12
920.2188601191627
 22
1790.0
 32
0.0
 13
920.2188601191627
 23
1790.0
 33
0.0
  0
LINE
  5
D57
330
1F
100
AcDbEntity
  8
SUNPO
 62
   144
100
AcDbLine
 10
3383.553692417005
 20
2010.0
 30
0.0
 11
3383.553692417005
 21
2288.675899204898
 31
0.0
  0
LINE
  5
D58
330
1F
100
AcDbEntity
  8
SUNPO
 62
   144
100
AcDbLine
 10
4783.553692417005
 20
2010.0
 30
0.0
 11
4783.553692417005
 21
2288.675899204898
 31
0.0
  0
LINE
  5
D59
330
1F
100
AcDbEntity
  8
SUNPO
 62
   144
100
AcDbLine
 10
3397.553692417004
 20
2278.675899204898
 30
0.0
 11
4769.553692417004
 21
2278.675899204898
 31
0.0
  0
SOLID
  5
D5A
330
1F
100
AcDbEntity
  8
SUNPO
 62
   144
100
AcDbTrace
 10
3397.553692417004
 20
2281.009232538231
 30
0.0
 11
3397.553692417004
 21
2276.342565871564
 31
0.0
 12
3383.553692417005
 22
2278.675899204898
 32
0.0
 13
3383.553692417005
 23
2278.675899204898
 33
0.0
  0
SOLID
  5
D5B
330
1F
100
AcDbEntity
  8
SUNPO
 62
   144
100
AcDbTrace
 10
4769.553692417004
 20
2281.009232538231
 30
0.0
 11
4769.553692417004
 21
2276.342565871564
 31
0.0
 12
4783.553692417005
 22
2278.675899204898
 32
0.0
 13
4783.553692417005
 23
2278.675899204898
 33
0.0
  0
LINE
  5
D5D
330
1F
100
AcDbEntity
  8
SUNPO
 62
   144
100
AcDbLine
 10
2783.553692417005
 20
2010.0
 30
0.0
 11
2783.553692417005
 21
2288.675899204898
 31
0.0
  0
LINE
  5
D5E
330
1F
100
AcDbEntity
  8
SUNPO
 62
   144
100
AcDbLine
 10
3383.553692417005
 20
2010.0
 30
0.0
 11
3383.553692417005
 21
2288.675899204898
 31
0.0
  0
LINE
  5
D5F
330
1F
100
AcDbEntity
  8
SUNPO
 62
   144
100
AcDbLine
 10
2797.553692417004
 20
2278.675899204898
 30
0.0
 11
3369.553692417005
 21
2278.675899204898
 31
0.0
  0
SOLID
  5
D60
330
1F
100
AcDbEntity
  8
SUNPO
 62
   144
100
AcDbTrace
 10
2797.553692417004
 20
2281.009232538231
 30
0.0
 11
2797.553692417004
 21
2276.342565871564
 31
0.0
 12
2783.553692417005
 22
2278.675899204898
 32
0.0
 13
2783.553692417005
 23
2278.675899204898
 33
0.0
  0
SOLID
  5
D61
330
1F
100
AcDbEntity
  8
SUNPO
 62
   144
100
AcDbTrace
 10
3369.553692417005
 20
2281.009232538231
 30
0.0
 11
3369.553692417005
 21
2276.342565871564
 31
0.0
 12
3383.553692417005
 22
2278.675899204898
 32
0.0
 13
3383.553692417005
 23
2278.675899204898
 33
0.0
  0
LINE
  5
D63
330
1F
100
AcDbEntity
  8
SUNPO
 62
   144
100
AcDbLine
 10
2783.553692417005
 20
1650.0
 30
0.0
 11
2783.553692417005
 21
1369.383240500529
 31
0.0
  0
LINE
  5
D64
330
1F
100
AcDbEntity
  8
SUNPO
 62
   144
100
AcDbLine
 10
4783.553692417005
 20
1650.0
 30
0.0
 11
4783.553692417005
 21
1369.383240500529
 31
0.0
  0
LINE
  5
D65
330
1F
100
AcDbEntity
  8
SUNPO
 62
   144
100
AcDbLine
 10
2797.553692417004
 20
1379.383240500529
 30
0.0
 11
4769.553692417004
 21
1379.383240500529
 31
0.0
  0
SOLID
  5
D66
330
1F
100
AcDbEntity
  8
SUNPO
 62
   144
100
AcDbTrace
 10
2797.553692417004
 20
1381.716573833863
 30
0.0
 11
2797.553692417004
 21
1377.049907167196
 31
0.0
 12
2783.553692417005
 22
1379.383240500529
 32
0.0
 13
2783.553692417005
 23
1379.383240500529
 33
0.0
  0
SOLID
  5
D67
330
1F
100
AcDbEntity
  8
SUNPO
 62
   144
100
AcDbTrace
 10
4769.553692417004
 20
1381.716573833863
 30
0.0
 11
4769.553692417004
 21
1377.049907167196
 31
0.0
 12
4783.553692417005
 22
1379.383240500529
 32
0.0
 13
4783.553692417005
 23
1379.383240500529
 33
0.0
  0
LINE
  5
D69
330
1F
100
AcDbEntity
  8
SUNPO
 62
   144
100
AcDbLine
 10
1240.0
 20
1650.0
 30
0.0
 11
1240.0
 21
1367.049907167196
 31
0.0
  0
LINE
  5
D6A
330
1F
100
AcDbEntity
  8
SUNPO
 62
   144
100
AcDbLine
 10
1940.0
 20
1650.0
 30
0.0
 11
1940.0
 21
1367.049907167196
 31
0.0
  0
LINE
  5
D6B
330
1F
100
AcDbEntity
  8
SUNPO
 62
   144
100
AcDbLine
 10
1254.0
 20
1377.049907167196
 30
0.0
 11
1926.0
 21
1377.049907167196
 31
0.0
  0
SOLID
  5
D6C
330
1F
100
AcDbEntity
  8
SUNPO
 62
   144
100
AcDbTrace
 10
1254.0
 20
1379.383240500529
 30
0.0
 11
1254.0
 21
1374.716573833863
 31
0.0
 12
1240.0
 22
1377.049907167196
 32
0.0
 13
1240.0
 23
1377.049907167196
 33
0.0
  0
SOLID
  5
D6D
330
1F
100
AcDbEntity
  8
SUNPO
 62
   144
100
AcDbTrace
 10
1926.0
 20
1379.383240500529
 30
0.0
 11
1926.0
 21
1374.716573833863
 31
0.0
 12
1940.0
 22
1377.049907167196
 32
0.0
 13
1940.0
 23
1377.049907167196
 33
0.0
  0
TEXT
  5
D6F
330
1F
100
AcDbEntity
  8
SUNPO
100
AcDbText
 10
2490.0
 20
390.0
 30
0.0
 40
60.0
  1
斜切下げ（一般）
  7
ADD
100
AcDbText
  0
TEXT
  5
D70
330
1F
100
AcDbEntity
  8
SUNPO
100
AcDbText
 10
588.8684195674832
 20
384.3964298009286
 30
0.0
 40
70.0
  1
千葉市型Ｌ型ブロック　ＣＢＬ2-Ｔ2
  7
ADD
100
AcDbText
  0
TEXT
  5
D71
330
1F
100
AcDbEntity
  8
SUNPO
100
AcDbText
 10
3246.680311730542
 20
359.2274732162223
 30
0.0
 40
70.0
  1
１／２０
  7
ADD
100
AcDbText
  0
TEXT
  5
D72
330
1F
100
AcDbEntity
  8
SUNPO
100
AcDbText
 10
381.8862574011546
 20
488.6918916770627
 30
0.0
 40
50.0
  1
製品名
  7
ADD
100
AcDbText
  0
TEXT
  5
D73
330
1F
100
AcDbEntity
  8
SUNPO
100
AcDbText
 10
2376.290169028722
 20
494.4531736811823
 30
0.0
 40
50.0
  1
型式
  7
ADD
100
AcDbText
  0
TEXT
  5
D74
330
1F
100
AcDbEntity
  8
SUNPO
100
AcDbText
 10
3177.510249231658
 20
488.6918916770627
 30
0.0
 40
50.0
  1
縮尺
  7
ADD
100
AcDbText
  0
TEXT
  5
D75
330
1F
100
AcDbEntity
  8
SUNPO
100
AcDbText
 10
3730.870883051572
 20
352.2726133092145
 30
0.0
 40
100.0
  1
千葉県コンクリート製品協同組合
  7
ADD
100
AcDbText
  0
LINE
  5
D76
330
1F
100
AcDbEntity
  8
HOJO
100
AcDbLine
 10
360.0
 20
260.0
 30
0.0
 11
5580.0
 21
260.0
 31
0.0
  0
LINE
  5
D77
330
1F
100
AcDbEntity
  8
HOJO
100
AcDbLine
 10
5580.0
 20
260.0
 30
0.0
 11
5580.0
 21
3940.0
 31
0.0
  0
LINE
  5
D78
330
1F
100
AcDbEntity
  8
HOJO
100
AcDbLine
 10
5580.0
 20
3940.0
 30
0.0
 11
360.0
 21
3940.0
 31
0.0
  0
LINE
  5
D79
330
1F
100
AcDbEntity
  8
HOJO
100
AcDbLine
 10
360.0
 20
3940.0
 30
0.0
 11
360.0
 21
260.0
 31
0.0
  0
LINE
  5
D7A
330
1F
100
AcDbEntity
  8
HOJO
100
AcDbLine
 10
0.0
 20
0.0
 30
0.0
 11
5940.0
 21
0.0
 31
0.0
  0
LINE
  5
D7B
330
1F
100
AcDbEntity
  8
HOJO
100
AcDbLine
 10
5940.0
 20
0.0
 30
0.0
 11
5940.0
 21
4200.0
 31
0.0
  0
LINE
  5
D7C
330
1F
100
AcDbEntity
  8
HOJO
100
AcDbLine
 10
5940.0
 20
4200.0
 30
0.0
 11
0.0
 21
4200.0
 31
0.0
  0
LINE
  5
D7D
330
1F
100
AcDbEntity
  8
HOJO
100
AcDbLine
 10
0.0
 20
4200.0
 30
0.0
 11
0.0
 21
0.0
 31
0.0
  0
TEXT
  5
D7E
330
1F
100
AcDbEntity
  8
SUNPO
 62
     7
100
AcDbText
 10
1518.571428571428
 20
1389.549907167196
 30
0.0
 40
50.0
  1
700
  7
ADD
100
AcDbText
  0
TEXT
  5
D7F
330
1F
100
AcDbEntity
  8
SUNPO
 62
     7
100
AcDbText
 10
3688.315597178909
 20
1391.883240500529
 30
0.0
 40
50.0
  1
2000
  7
ADD
100
AcDbText
  0
TEXT
  5
D80
330
1F
100
AcDbEntity
  8
SUNPO
 62
     7
100
AcDbText
 10
3010.934644797957
 20
2291.175899204898
 30
0.0
 40
50.0
  1
600
  7
ADD
100
AcDbText
  0
TEXT
  5
D81
330
1F
100
AcDbEntity
  8
SUNPO
 62
     7
100
AcDbText
 10
3984.74416860748
 20
2291.175899204898
 30
0.0
 40
50.0
  1
1400
  7
ADD
100
AcDbText
  0
TEXT
  5
D82
330
1F
100
AcDbEntity
  8
SUNPO
 62
     7
100
AcDbText
 10
907.7188601191625
 20
1655.0
 30
0.0
 40
50.0
  1
120
 50
90.0
  7
ADD
100
AcDbText
  0
TEXT
  5
D83
330
1F
100
AcDbEntity
  8
SUNPO
 62
     7
100
AcDbText
 10
907.7188601191625
 20
1818.571428571429
 30
0.0
 40
50.0
  1
200
 50
90.0
  7
ADD
100
AcDbText
  0
TEXT
  5
D84
330
1F
100
AcDbEntity
  8
SUNPO
 62
     7
100
AcDbText
 10
724.5587219133136
 20
1758.571428571428
 30
0.0
 40
50.0
  1
320
 50
90.0
  7
ADD
100
AcDbText
  0
TEXT
  5
D85
330
1F
100
AcDbEntity
  8
SUNPO
 62
     7
100
AcDbText
 10
1069.667007409564
 20
2291.175899204898
 30
0.0
 40
50.0
  1
22.5
  7
ADD
100
AcDbText
  0
TEXT
  5
D86
330
1F
100
AcDbEntity
  8
SUNPO
 62
     7
100
AcDbText
 10
1265.0
 20
2291.175899204898
 30
0.0
 40
50.0
  1
155
  7
ADD
100
AcDbText
  0
TEXT
  5
D87
330
1F
100
AcDbEntity
  8
SUNPO
 62
     7
100
AcDbText
 10
1445.967632596288
 20
2291.175899204898
 30
0.0
 40
50.0
  1
22.5
  7
ADD
100
AcDbText
  0
TEXT
  5
D88
330
1F
100
AcDbEntity
  8
SUNPO
 62
     7
100
AcDbText
 10
1268.571428571428
 20
2461.915767736098
 30
0.0
 40
50.0
  1
200
  7
ADD
100
AcDbText
  0
TEXT
  5
D89
330
1F
100
AcDbEntity
  8
SUNPO
 62
     7
100
AcDbText
 10
1618.571428571428
 20
2461.915767736098
 30
0.0
 40
50.0
  1
500
  7
ADD
100
AcDbText
  0
TEXT
  5
D8A
330
1F
100
AcDbEntity
  8
SUNPO
 62
     7
100
AcDbText
 10
1498.060395136488
 20
2039.43301261535
 30
0.0
 40
50.0
  1
R30
 50
31.12296286587904
  7
ADD
100
AcDbText
  0
TEXT
  5
D8B
330
1F
100
AcDbEntity
  8
SUNPO
 62
     7
100
AcDbText
 10
3392.527650213166
 20
1655.0
 30
0.0
 40
50.0
  1
120
 50
90.0
  7
ADD
100
AcDbText
  0
TEXT
  5
D8C
330
1F
100
AcDbEntity
  8
SUNPO
 62
     7
100
AcDbText
 10
3392.527650213166
 20
1799.745006885487
 30
0.0
 40
50.0
  1
10
 50
90.0
  7
ADD
100
AcDbText
  0
TEXT
  5
D8D
330
1F
100
AcDbEntity
  8
SUNPO
 62
     7
100
AcDbText
 10
2588.365340728301
 20
1655.0
 30
0.0
 40
50.0
  1
120
 50
90.0
  7
ADD
100
AcDbText
  0
TEXT
  5
D8E
330
1F
100
AcDbEntity
  8
SUNPO
 62
     7
100
AcDbText
 10
2680.339782933464
 20
1742.380952380952
 30
0.0
 40
50.0
  1
30
 50
90.0
  7
ADD
100
AcDbText
  0
TEXT
  5
D8F
330
1F
100
AcDbEntity
  8
SUNPO
 62
     7
100
AcDbText
 10
2588.365340728301
 20
1830.0
 30
0.0
 40
50.0
  1
170
 50
90.0
  7
ADD
100
AcDbText
  0
TEXT
  5
D90
330
1F
100
AcDbEntity
  8
SUNPO
 62
     7
100
AcDbText
 10
2377.496533675171
 20
1758.571428571429
 30
0.0
 40
50.0
  1
320
 50
90.0
  7
ADD
100
AcDbText
  0
TEXT
  5
D91
330
1F
100
AcDbEntity
  8
SUNPO
 62
     7
100
AcDbText
 10
1539.881804718493
 20
1873.964385111706
 30
0.0
 40
50.0
  1
R20
 50
32.13726906908785
  7
ADD
100
AcDbText
  0
TEXT
  5
D92
330
1F
100
AcDbEntity
  8
SUNPO
 62
     7
100
AcDbText
 10
1062.120210849383
 20
1757.380952380953
 30
0.0
 40
50.0
  1
30
 50
90.0
  7
ADD
100
AcDbText
  0
TEXT
  5
D93
330
1F
100
AcDbEntity
  8
SUNPO
 62
     7
100
AcDbText
 10
2131.077773744005
 20
1670.0
 30
0.0
 40
50.0
  1
150
 50
90.0
  7
ADD
100
AcDbText
  0
TEXT
  5
D94
330
1F
100
AcDbEntity
  8
SUNPO
 62
     7
100
AcDbText
 10
5033.842069857461
 20
1670.0
 30
0.0
 40
50.0
  1
150
 50
90.0
  7
ADD
100
AcDbText
  0
VIEWPORT
  5
72
330
1B
100
AcDbEntity
 67
     1
  8
0
100
AcDbViewport
 10
447.9528408344285
 20
277.0
 30
0.0
 40
985.207931668857
 41
628.4520000000001
 68
     1
 69
     1
1001
ACAD
1000
MVIEW
1002
{
1070
    16
1010
0.0
1020
0.0
1030
0.0
1010
0.0
1020
0.0
1030
1.0
1040
0.0
1040
628.4520000000001
1040
447.9528408344285
1040
277.0
1040
50.0
1040
0.0
1040
0.0
1070
     0
1070
   100
1070
     1
1070
     1
1070
     0
1070
     0
1070
     0
1070
     0
1040
0.0
1040
0.0
1040
0.0
1040
10.0
1040
10.0
1040
10.0
1040
10.0
1070
     0
1002
{
1002
}
1002
}
  0
VIEWPORT
  5
74
330
1B
100
AcDbEntity
 67
     1
  8
VIEWPORT
100
AcDbViewport
 10
414.3779638919211
 20
277.3177265058034
 30
0.0
 40
840.0353682728887
 41
567.2285469943826
 68
     2
 69
     2
1001
ACAD
1000
MVIEW
1002
{
1070
    16
1010
0.0
1020
0.0
1030
0.0
1010
0.0
1020
0.0
1030
1.0
1040
0.0
1040
579.5583043546323
1040
424.4938908624541
1040
286.1973242720074
1040
50.0
1040
0.0
1040
0.0
1070
     0
1070
   100
1070
     1
1070
     1
1070
     0
1070
     0
1070
     0
1070
     0
1040
0.0
1040
0.0
1040
0.0
1040
10.0
1040
10.0
1040
10.0
1040
10.0
1070
     0
1002
{
1002
}
1002
}
  0
ENDSEC
  0
SECTION
  2
OBJECTS
  0
DICTIONARY
  5
C
330
0
100
AcDbDictionary
  3
ACAD_GROUP
350
D
  3
ACAD_LAYOUT
350
1A
  3
ACAD_MLINESTYLE
350
17
  3
ACAD_PLOTSETTINGS
350
19
  3
DWGPROPS
350
4C7
1001
ACAD
1000
TREAT_AS_HARD
1070
     0
  0
DICTIONARY
  5
66F
330
1F
100
AcDbDictionary
  3
ACAD_LAYOUTSELFREF
350
D97
1001
ACAD
1000
TREAT_AS_HARD
1070
     1
  0
DICTIONARY
  5
671
330
1B
100
AcDbDictionary
  3
ACAD_LAYOUTSELFREF
350
D96
1001
ACAD
1000
TREAT_AS_HARD
1070
     1
  0
DICTIONARY
  5
D
102
{ACAD_REACTORS
330
C
102
}
330
C
100
AcDbDictionary
1001
ACAD
1000
TREAT_AS_HARD
1070
     0
  0
DICTIONARY
  5
1A
102
{ACAD_REACTORS
330
C
102
}
330
C
100
AcDbDictionary
1001
ACAD
1000
TREAT_AS_HARD
1070
     0
  0
DICTIONARY
  5
17
102
{ACAD_REACTORS
330
C
102
}
330
C
100
AcDbDictionary
  3
STANDARD
350
18
1001
ACAD
1000
TREAT_AS_HARD
1070
     0
  0
DICTIONARY
  5
19
102
{ACAD_REACTORS
330
C
102
}
330
C
100
AcDbDictionary
1001
ACAD
1000
TREAT_AS_HARD
1070
     0
  0
XRECORD
  5
4C7
102
{ACAD_REACTORS
330
C
102
}
330
C
100
AcDbXrecord
  1
DWGPROPS COOKIE
  2
印刷用テスト
  3
AutoCAD2000による建築設計
  4
鈴木 裕二
  6

  7

  8
U2
  9

300
=
301
=
302
=
303
=
304
=
305
=
306
=
307
=
308
=
309
=
 40
0.7653446875
 41
2451285.4846114
 42
2451333.689743032
  1

 90
        0
  0
XRECORD
  5
D97
102
{ACAD_REACTORS
330
66F
102
}
330
66F
100
AcDbXrecord
340
1F
  0
XRECORD
  5
D96
102
{ACAD_REACTORS
330
671
102
}
330
671
100
AcDbXrecord
340
1B
  0
MLINESTYLE
  5
18
102
{ACAD_REACTORS
330
17
102
}
330
17
100
AcDbMlineStyle
  2
STANDARD
 70
     0
  3

 62
   256
 51
90.0
 52
90.0
 71
     2
 49
0.5
 62
   256
  6
BYLAYER
 49
-0.5
 62
   256
  6
BYLAYER
  0
ENDSEC
  0
EOF
