  0
SECTION
  2
HEADER
  9
$ACADVER
  1
AC1012
  9
$DWGCODEPAGE
  3
dos932
  9
$INSBASE
 10
0.0
 20
0.0
 30
0.0
  9
$EXTMIN
 10
-0.0905735849501071
 20
-0.0640419287501573
 30
-0.0000000000112498
  9
$EXTMAX
 10
5940.09065657085
 20
4200.064100605652
 30
0.0000000000002956
  9
$LIMMIN
 10
0.0
 20
0.0
  9
$LIMMAX
 10
5940.0
 20
4200.0
  9
$ORTHOMODE
 70
     0
  9
$REGENMODE
 70
     1
  9
$FILLMODE
 70
     1
  9
$QTEXTMODE
 70
     0
  9
$MIRRTEXT
 70
     0
  9
$DRAGMODE
 70
     2
  9
$LTSCALE
 40
10.0
  9
$OSMODE
 70
  3071
  9
$ATTMODE
 70
     1
  9
$TEXTSIZE
 40
120.0
  9
$TRACEWID
 40
1.0
  9
$TEXTSTYLE
  7
ADD
  9
$CLAYER
  8
3C1
  9
$CELTYPE
  6
BYLAYER
  9
$CECOLOR
 62
     3
  9
$CELTSCALE
 40
1.0
  9
$DELOBJ
 70
     1
  9
$DISPSILH
 70
     0
  9
$DIMSCALE
 40
20.0
  9
$DIMASZ
 40
2.5
  9
$DIMEXO
 40
1.0
  9
$DIMDLI
 40
7.0
  9
$DIMRND
 40
0.0
  9
$DIMDLE
 40
0.0
  9
$DIMEXE
 40
0.5
  9
$DIMTP
 40
0.0
  9
$DIMTM
 40
0.0
  9
$DIMTXT
 40
2.5
  9
$DIMCEN
 40
2.5
  9
$DIMTSZ
 40
0.0
  9
$DIMTOL
 70
     0
  9
$DIMLIM
 70
     0
  9
$DIMTIH
 70
     0
  9
$DIMTOH
 70
     0
  9
$DIMSE1
 70
     0
  9
$DIMSE2
 70
     0
  9
$DIMTAD
 70
     1
  9
$DIMZIN
 70
     8
  9
$DIMBLK
  1

  9
$DIMASO
 70
     1
  9
$DIMSHO
 70
     1
  9
$DIMPOST
  1

  9
$DIMAPOST
  1

  9
$DIMALT
 70
     0
  9
$DIMALTD
 70
     3
  9
$DIMALTF
 40
0.03937007874016
  9
$DIMLFAC
 40
1.0
  9
$DIMTOFL
 70
     1
  9
$DIMTVP
 40
0.7
  9
$DIMTIX
 70
     1
  9
$DIMSOXD
 70
     0
  9
$DIMSAH
 70
     0
  9
$DIMBLK1
  1

  9
$DIMBLK2
  1

  9
$DIMSTYLE
  2
ADD
  9
$DIMCLRD
 70
   144
  9
$DIMCLRE
 70
   144
  9
$DIMCLRT
 70
     7
  9
$DIMTFAC
 40
1.0
  9
$DIMGAP
 40
0.625
  9
$DIMJUST
 70
     0
  9
$DIMSD1
 70
     0
  9
$DIMSD2
 70
     0
  9
$DIMTOLJ
 70
     2
  9
$DIMTZIN
 70
     8
  9
$DIMALTZ
 70
     0
  9
$DIMALTTZ
 70
     0
  9
$DIMFIT
 70
     5
  9
$DIMUPT
 70
     0
  9
$DIMUNIT
 70
     2
  9
$DIMDEC
 70
     1
  9
$DIMTDEC
 70
     1
  9
$DIMALTU
 70
     2
  9
$DIMALTTD
 70
     3
  9
$DIMTXSTY
  7
ADD
  9
$DIMAUNIT
 70
     0
  9
$LUNITS
 70
     2
  9
$LUPREC
 70
     4
  9
$SKETCHINC
 40
1.0
  9
$FILLETRAD
 40
10.0
  9
$AUNITS
 70
     0
  9
$AUPREC
 70
     1
  9
$MENU
  1
.
  9
$ELEVATION
 40
0.0
  9
$PELEVATION
 40
0.0
  9
$THICKNESS
 40
0.0
  9
$LIMCHECK
 70
     0
  9
$BLIPMODE
 70
     0
  9
$CHAMFERA
 40
10.0
  9
$CHAMFERB
 40
10.0
  9
$CHAMFERC
 40
20.0
  9
$CHAMFERD
 40
0.0
  9
$SKPOLY
 70
     0
  9
$TDCREATE
 40
2451801.142532870
  9
$TDUPDATE
 40
2452537.617903704
  9
$TDINDWG
 40
0.2709372569
  9
$TDUSRTIMER
 40
0.2709372569
  9
$USRTIMER
 70
     1
  9
$ANGBASE
 50
0.0
  9
$ANGDIR
 70
     0
  9
$PDMODE
 70
     0
  9
$PDSIZE
 40
0.0
  9
$PLINEWID
 40
0.0
  9
$COORDS
 70
     1
  9
$SPLFRAME
 70
     0
  9
$SPLINETYPE
 70
     6
  9
$SPLINESEGS
 70
     8
  9
$ATTDIA
 70
     0
  9
$ATTREQ
 70
     1
  9
$HANDLING
 70
 22529
  9
$HANDSEED
  5
11BE
  9
$SURFTAB1
 70
     6
  9
$SURFTAB2
 70
     6
  9
$SURFTYPE
 70
     6
  9
$SURFU
 70
     6
  9
$SURFV
 70
     6
  9
$UCSNAME
  2

  9
$UCSORG
 10
0.0
 20
0.0
 30
0.0
  9
$UCSXDIR
 10
1.0
 20
0.0
 30
0.0
  9
$UCSYDIR
 10
0.0
 20
1.0
 30
0.0
  9
$PUCSNAME
  2

  9
$PUCSORG
 10
0.0
 20
0.0
 30
0.0
  9
$PUCSXDIR
 10
1.0
 20
0.0
 30
0.0
  9
$PUCSYDIR
 10
0.0
 20
1.0
 30
0.0
  9
$USERI1
 70
     0
  9
$USERI2
 70
     0
  9
$USERI3
 70
     0
  9
$USERI4
 70
     0
  9
$USERI5
 70
     0
  9
$USERR1
 40
841.0
  9
$USERR2
 40
594.0
  9
$USERR3
 40
1.0
  9
$USERR4
 40
0.0
  9
$USERR5
 40
0.0
  9
$WORLDVIEW
 70
     1
  9
$SHADEDGE
 70
     3
  9
$SHADEDIF
 70
    70
  9
$TILEMODE
 70
     1
  9
$MAXACTVP
 70
    48
  9
$PINSBASE
 10
0.0
 20
0.0
 30
0.0
  9
$PLIMCHECK
 70
     0
  9
$PEXTMIN
 10
-5.639720244523232
 20
-6.296546991387913
 30
0.0
  9
$PEXTMAX
 10
834.3956480283654
 20
560.9320000029947
 30
0.0
  9
$PLIMMIN
 10
-7.500000000000001
 20
-20.0
  9
$PLIMMAX
 10
833.5000000000002
 20
574.0000000000001
  9
$UNITMODE
 70
     0
  9
$VISRETAIN
 70
     1
  9
$PLINEGEN
 70
     0
  9
$PSLTSCALE
 70
     1
  9
$TREEDEPTH
 70
  3020
  9
$PICKSTYLE
 70
     1
  9
$CMLSTYLE
  2
STANDARD
  9
$CMLJUST
 70
     0
  9
$CMLSCALE
 40
20.0
  9
$SAVEIMAGES
 70
     1
  0
ENDSEC
  0
SECTION
  2
CLASSES
  0
CLASS
  1
ACDBDICTIONARYWDFLT
  2
AcDbDictionaryWithDefault
  3
AutoCAD 2000
 90
    32768
280
     0
281
     0
  0
CLASS
  1
ACDBPLACEHOLDER
  2
AcDbPlaceHolder
  3
AutoCAD 2000
 90
    32768
280
     0
281
     0
  0
CLASS
  1
LAYOUT
  2
AcDbLayout
  3
AutoCAD 2000
 90
    32768
280
     0
281
     0
  0
CLASS
  1
RTEXT
  2
RText
  3
RText|AutoCAD Express Tool|expresstools@autodesk.com
 90
    32768
280
     0
281
     1
  0
CLASS
  1
DICTIONARYVAR
  2
AcDbDictionaryVar
  3
AutoCAD 2000
 90
    32768
280
     0
281
     0
  0
CLASS
  1
LONG_TRANSACTION
  2
AcDbLongTransaction
  3
AutoCAD 2000
 90
    32768
280
     0
281
     0
  0
CLASS
  1
LWPOLYLINE
  2
AcDbPolyline
  3
AutoCAD 2000
 90
    32768
280
     0
281
     1
  0
CLASS
  1
HATCH
  2
AcDbHatch
  3
AutoCAD 2000
 90
    32768
280
     0
281
     1
  0
CLASS
  1
XRECORD
  2
AcDbXrecord
  3
AutoCAD 2000
 90
    32768
280
     0
281
     0
  0
CLASS
  1
LONG_TRANSACTION
  2
AcDbLongTransaction
  3
AutoCAD 2000
 90
    32768
280
     0
281
     0
  0
CLASS
  1
LWPOLYLINE
  2
AcDbPolyline
  3
AutoCAD 2000
 90
    32768
280
     0
281
     1
  0
CLASS
  1
HATCH
  2
AcDbHatch
  3
AutoCAD 2000
 90
    32768
280
     0
281
     1
  0
CLASS
  1
XRECORD
  2
AcDbXrecord
  3
AutoCAD 2000
 90
    32768
280
     0
281
     0
  0
CLASS
  1
LONG_TRANSACTION
  2
AcDbLongTransaction
  3
AutoCAD 2000
 90
    32768
280
     0
281
     0
  0
CLASS
  1
LWPOLYLINE
  2
AcDbPolyline
  3
AutoCAD 2000
 90
    32768
280
     0
281
     1
  0
CLASS
  1
HATCH
  2
AcDbHatch
  3
AutoCAD 2000
 90
    32768
280
     0
281
     1
  0
CLASS
  1
XRECORD
  2
AcDbXrecord
  3
AutoCAD 2000
 90
    32768
280
     0
281
     0
  0
ENDSEC
  0
SECTION
  2
TABLES
  0
TABLE
  2
VPORT
  5
8
330
0
100
AcDbSymbolTable
 70
     3
  0
VPORT
  5
11AE
330
8
100
AcDbSymbolTableRecord
100
AcDbViewportTableRecord
  2
*ACTIVE
 70
     0
 10
0.0
 20
0.0
 11
1.0
 21
1.0
 12
2970.00004149295
 22
2100.00002933845
 13
0.0
 23
0.0
 14
50.0
 24
50.0
 15
50.0
 25
50.0
 16
0.0
 26
0.0
 36
1.0
 17
0.0
 27
0.0
 37
0.0
 40
4231.668529086601
 41
1.510025062656641
 42
50.0
 43
0.0
 44
0.0
 50
0.0
 51
0.0
 71
     0
 72
   100
 73
     1
 74
     1
 75
     0
 76
     0
 77
     0
 78
     0
  0
ENDTAB
  0
TABLE
  2
LTYPE
  5
5
330
0
100
AcDbSymbolTable
 70
     5
  0
LTYPE
  5
14
330
5
100
AcDbSymbolTableRecord
100
AcDbLinetypeTableRecord
  2
BYBLOCK
 70
     0
  3

 72
    65
 73
     0
 40
0.0
  0
LTYPE
  5
15
330
5
100
AcDbSymbolTableRecord
100
AcDbLinetypeTableRecord
  2
BYLAYER
 70
     0
  3

 72
    65
 73
     0
 40
0.0
  0
LTYPE
  5
16
330
5
100
AcDbSymbolTableRecord
100
AcDbLinetypeTableRecord
  2
CONTINUOUS
 70
     0
  3
Solid line
 72
    65
 73
     0
 40
0.0
  0
LTYPE
  5
555
330
5
100
AcDbSymbolTableRecord
100
AcDbLinetypeTableRecord
  2
CENTER
 70
     0
  3
Center ____ _ ____ _ ____ _ ____ _ ____ _ ____
 72
    65
 73
     4
 40
50.8
 49
31.75
 74
     0
 49
-6.349999999999999
 74
     0
 49
6.349999999999999
 74
     0
 49
-6.349999999999999
 74
     0
  0
LTYPE
  5
556
330
5
100
AcDbSymbolTableRecord
100
AcDbLinetypeTableRecord
  2
HIDDEN
 70
     0
  3
Hidden __ __ __ __ __ __ __ __ __ __ __ __ __ _
 72
    65
 73
     2
 40
9.524999999999998
 49
6.349999999999999
 74
     0
 49
-3.174999999999999
 74
     0
  0
LTYPE
  5
557
330
5
100
AcDbSymbolTableRecord
100
AcDbLinetypeTableRecord
  2
HIDDEN2
 70
     0
  3
Hidden (.5x) _ _ _ _ _ _ _ _ _ _ _ _ _ _ _ _ _
 72
    65
 73
     2
 40
4.762499999999999
 49
3.174999999999999
 74
     0
 49
-1.587499999999999
 74
     0
  0
LTYPE
  5
558
330
5
100
AcDbSymbolTableRecord
100
AcDbLinetypeTableRecord
  2
PHANTOM
 70
     0
  3
Phantom ______  __  __  ______  __  __  ______
 72
    65
 73
     6
 40
63.5
 49
31.75
 74
     0
 49
-6.349999999999999
 74
     0
 49
6.349999999999999
 74
     0
 49
-6.349999999999999
 74
     0
 49
6.349999999999999
 74
     0
 49
-6.349999999999999
 74
     0
  0
ENDTAB
  0
TABLE
  2
LAYER
  5
2
330
0
100
AcDbSymbolTable
 70
    22
  0
LAYER
  5
10
330
2
100
AcDbSymbolTableRecord
100
AcDbLayerTableRecord
  2
0
 70
     0
 62
     7
  6
CONTINUOUS
  0
LAYER
  5
75
330
2
100
AcDbSymbolTableRecord
100
AcDbLayerTableRecord
  2
VIEWPORT
 70
     0
 62
     1
  6
CONTINUOUS
  0
LAYER
  5
504
330
2
100
AcDbSymbolTableRecord
100
AcDbLayerTableRecord
  2
DEFPOINTS
 70
     0
 62
     7
  6
CONTINUOUS
  0
LAYER
  5
505
330
2
100
AcDbSymbolTableRecord
100
AcDbLayerTableRecord
  2
1C1
 70
     0
 62
   254
  6
CONTINUOUS
  0
LAYER
  5
506
330
2
100
AcDbSymbolTableRecord
100
AcDbLayerTableRecord
  2
1C2
 70
     0
 62
   254
  6
CONTINUOUS
  0
LAYER
  5
507
330
2
100
AcDbSymbolTableRecord
100
AcDbLayerTableRecord
  2
2C1
 70
     0
 62
   144
  6
CONTINUOUS
  0
LAYER
  5
508
330
2
100
AcDbSymbolTableRecord
100
AcDbLayerTableRecord
  2
2C2
 70
     0
 62
   144
  6
CONTINUOUS
  0
LAYER
  5
509
330
2
100
AcDbSymbolTableRecord
100
AcDbLayerTableRecord
  2
2H1
 70
     0
 62
   144
  6
HIDDEN
  0
LAYER
  5
50A
330
2
100
AcDbSymbolTableRecord
100
AcDbLayerTableRecord
  2
2H2
 70
     0
 62
   144
  6
HIDDEN2
  0
LAYER
  5
50B
330
2
100
AcDbSymbolTableRecord
100
AcDbLayerTableRecord
  2
2P1
 70
     0
 62
   144
  6
PHANTOM
  0
LAYER
  5
50C
330
2
100
AcDbSymbolTableRecord
100
AcDbLayerTableRecord
  2
3C1
 70
     0
 62
     7
  6
CONTINUOUS
  0
LAYER
  5
50D
330
2
100
AcDbSymbolTableRecord
100
AcDbLayerTableRecord
  2
3C2
 70
     0
 62
     7
  6
CONTINUOUS
  0
LAYER
  5
50E
330
2
100
AcDbSymbolTableRecord
100
AcDbLayerTableRecord
  2
3C3
 70
     0
 62
     7
  6
CONTINUOUS
  0
LAYER
  5
50F
330
2
100
AcDbSymbolTableRecord
100
AcDbLayerTableRecord
  2
4H1
 70
     0
 62
     6
  6
HIDDEN
  0
LAYER
  5
510
330
2
100
AcDbSymbolTableRecord
100
AcDbLayerTableRecord
  2
4H2
 70
     0
 62
     6
  6
HIDDEN2
  0
LAYER
  5
511
330
2
100
AcDbSymbolTableRecord
100
AcDbLayerTableRecord
  2
5C1
 70
     0
 62
    55
  6
CONTINUOUS
  0
LAYER
  5
512
330
2
100
AcDbSymbolTableRecord
100
AcDbLayerTableRecord
  2
5C2
 70
     0
 62
    55
  6
CONTINUOUS
  0
LAYER
  5
513
330
2
100
AcDbSymbolTableRecord
100
AcDbLayerTableRecord
  2
8C1
 70
     0
 62
    92
  6
CONTINUOUS
  0
LAYER
  5
514
330
2
100
AcDbSymbolTableRecord
100
AcDbLayerTableRecord
  2
HOJO
 70
     0
 62
     5
  6
CONTINUOUS
  0
LAYER
  5
515
330
2
100
AcDbSymbolTableRecord
100
AcDbLayerTableRecord
  2
KIJUN
 70
     0
 62
     1
  6
CENTER
  0
LAYER
  5
516
330
2
100
AcDbSymbolTableRecord
100
AcDbLayerTableRecord
  2
MOJI
 70
     0
 62
     7
  6
CONTINUOUS
  0
LAYER
  5
517
330
2
100
AcDbSymbolTableRecord
100
AcDbLayerTableRecord
  2
SUNPO
 70
     0
 62
   144
  6
CONTINUOUS
  0
ENDTAB
  0
TABLE
  2
STYLE
  5
3
330
0
100
AcDbSymbolTable
 70
     7
  0
STYLE
  5
11
330
3
100
AcDbSymbolTableRecord
100
AcDbTextStyleTableRecord
  2
STANDARD
 70
     0
 40
0.0
 41
1.0
 50
0.0
 71
     0
 42
2.5
  3
txt
  4

  0
STYLE
  5
2C
330
3
100
AcDbSymbolTableRecord
100
AcDbTextStyleTableRecord
  2

 70
     1
 40
0.0
 41
1.0
 50
0.0
 71
     0
 42
2.5
  3
ltypeshp.shx
  4

  0
STYLE
  5
18E
330
3
100
AcDbSymbolTableRecord
100
AcDbTextStyleTableRecord
  2
ADD
 70
     0
 40
0.0
 41
0.5
 50
0.0
 71
     0
 42
120.0
  3
romans.shx
  4
bigfont.shx
  0
STYLE
  5
191
330
3
100
AcDbSymbolTableRecord
100
AcDbTextStyleTableRecord
  2
MSG
 70
     0
 40
0.0
 41
1.0
 50
0.0
 71
     0
 42
2.5
  3
MS Gothic.ttf
  4

1001
ACAD
1000
MS Gothic
1071
    32817
  0
STYLE
  5
5C8
330
3
100
AcDbSymbolTableRecord
100
AcDbTextStyleTableRecord
  2
STANDARD15
 70
     0
 40
0.0
 41
1.0
 50
15.0
 71
     0
 42
2.5
  3
ROMANS
  4
bigfont
  0
STYLE
  5
5C9
330
3
100
AcDbSymbolTableRecord
100
AcDbTextStyleTableRecord
  2
ROMANS15
 70
     0
 40
0.0
 41
1.0
 50
15.0
 71
     0
 42
2.5
  3
romans
  4

  0
STYLE
  5
781
330
3
100
AcDbSymbolTableRecord
100
AcDbTextStyleTableRecord
  2
ｽﾀｲﾙ1
 70
     0
 40
0.0
 41
1.0
 50
0.0
 71
     0
 42
120.0
  3
romans.shx
  4
bigfont.shx
  0
ENDTAB
  0
TABLE
  2
VIEW
  5
6
330
0
100
AcDbSymbolTable
 70
     1
  0
VIEW
  5
54D
330
6
100
AcDbSymbolTableRecord
100
AcDbViewTableRecord
  2
ALL
 70
     0
 40
594.0
 10
420.5
 20
297.0
 41
865.125
 11
0.0
 21
0.0
 31
1.0
 12
0.0
 22
0.0
 32
0.0
 42
50.0
 43
0.0
 44
0.0
 50
0.0
 71
     0
  0
ENDTAB
  0
TABLE
  2
UCS
  5
7
330
0
100
AcDbSymbolTable
 70
     0
  0
ENDTAB
  0
TABLE
  2
APPID
  5
9
330
0
100
AcDbSymbolTable
 70
     4
  0
APPID
  5
12
330
9
100
AcDbSymbolTableRecord
100
AcDbRegAppTableRecord
  2
ACAD
 70
     0
  0
APPID
  5
5CB
330
9
100
AcDbSymbolTableRecord
100
AcDbRegAppTableRecord
  2
ARAIGUMI_YOHEKI
 70
     0
  0
APPID
  5
5CC
330
9
100
AcDbSymbolTableRecord
100
AcDbRegAppTableRecord
  2
CONTENTTABDATA
 70
     0
  0
APPID
  5
5CD
330
9
100
AcDbSymbolTableRecord
100
AcDbRegAppTableRecord
  2
CONTENTCURRENTTAB
 70
     0
  0
ENDTAB
  0
TABLE
  2
DIMSTYLE
  5
A
330
0
100
AcDbSymbolTable
 70
    10
  0
DIMSTYLE
105
27
330
A
100
AcDbSymbolTableRecord
100
AcDbDimStyleTableRecord
  2
ISO-25
 70
     0
  3

  4

  5

  6

  7

 40
1.0
 41
2.5
 42
0.625
 43
3.75
 44
1.25
 45
0.0
 46
0.0
 47
0.0
 48
0.0
140
2.5
141
2.5
142
0.0
143
0.03937007874016
144
1.0
145
0.0
146
1.0
147
0.625
 71
     0
 72
     0
 73
     0
 74
     0
 75
     0
 76
     0
 77
     1
 78
     8
170
     0
171
     3
172
     1
173
     0
174
     0
175
     0
176
     0
177
     0
178
     0
270
     2
271
     2
272
     2
273
     2
274
     3
340
11
275
     0
280
     0
281
     0
282
     0
283
     0
284
     8
285
     0
286
     0
287
     3
288
     0
  0
DIMSTYLE
105
197
330
A
100
AcDbSymbolTableRecord
100
AcDbDimStyleTableRecord
  2
ADD
 70
     0
  3

  4

  5

  6

  7

 40
1.0
 41
2.5
 42
1.0
 43
7.0
 44
0.5
 45
0.0
 46
0.0
 47
0.0
 48
0.0
140
2.5
141
2.5
142
0.0
143
0.03937007874016
144
1.0
145
0.7
146
1.0
147
0.625
 71
     0
 72
     0
 73
     0
 74
     0
 75
     0
 76
     0
 77
     1
 78
     8
170
     0
171
     3
172
     1
173
     0
174
     1
175
     0
176
   144
177
   144
178
     7
270
     2
271
     1
272
     1
273
     2
274
     3
340
18E
275
     0
280
     0
281
     0
282
     0
283
     2
284
     8
285
     0
286
     0
287
     5
288
     0
  0
DIMSTYLE
105
3E6
330
A
100
AcDbSymbolTableRecord
100
AcDbDimStyleTableRecord
  2
ADD$2
 70
     0
  3

  4

  5

  6

  7

 40
1.0
 41
3.0
 42
1.0
 43
7.0
 44
0.5
 45
0.0
 46
0.0
 47
0.0
 48
0.0
140
2.5
141
2.5
142
0.0
143
0.03937007874016
144
1.0
145
0.7
146
1.0
147
0.625
 71
     0
 72
     0
 73
     0
 74
     0
 75
     0
 76
     0
 77
     1
 78
     8
170
     0
171
     3
172
     1
173
     0
174
     1
175
     0
176
   144
177
   144
178
     7
270
     2
271
     1
272
     1
273
     2
274
     3
340
18E
275
     0
280
     0
281
     0
282
     0
283
     2
284
     8
285
     0
286
     0
287
     5
288
     0
  0
DIMSTYLE
105
3E7
330
A
100
AcDbSymbolTableRecord
100
AcDbDimStyleTableRecord
  2
ADD$4
 70
     0
  3

  4

  5

  6

  7

 40
1.0
 41
2.0
 42
1.0
 43
7.0
 44
0.5
 45
0.0
 46
0.0
 47
0.0
 48
0.0
140
2.5
141
2.0
142
0.0
143
0.03937007874016
144
1.0
145
0.0
146
1.0
147
0.625
 71
     0
 72
     0
 73
     0
 74
     0
 75
     0
 76
     0
 77
     1
 78
     8
170
     0
171
     3
172
     1
173
     0
174
     1
175
     0
176
   144
177
   144
178
     7
270
     2
271
     1
272
     1
273
     2
274
     3
340
18E
275
     0
280
     0
281
     0
282
     0
283
     2
284
     8
285
     0
286
     0
287
     5
288
     0
  0
DIMSTYLE
105
3E8
330
A
100
AcDbSymbolTableRecord
100
AcDbDimStyleTableRecord
  2
ADD$3
 70
     0
  3

  4

  5

  6

  7

 40
1.0
 41
3.0
 42
1.0
 43
7.0
 44
0.5
 45
0.0
 46
0.0
 47
0.0
 48
0.0
140
2.5
141
2.5
142
0.0
143
0.03937007874016
144
1.0
145
0.0
146
1.0
147
0.625
 71
     0
 72
     0
 73
     0
 74
     0
 75
     0
 76
     0
 77
     1
 78
     8
170
     0
171
     3
172
     1
173
     0
174
     1
175
     0
176
   144
177
   144
178
     7
270
     2
271
     1
272
     1
273
     2
274
     3
340
18E
275
     0
280
     0
281
     0
282
     0
283
     2
284
     8
285
     0
286
     0
287
     5
288
     0
  0
DIMSTYLE
105
3E9
330
A
100
AcDbSymbolTableRecord
100
AcDbDimStyleTableRecord
  2
ADD$6
 70
     0
  3

  4

  5

  6

  7

 40
1.0
 41
2.5
 42
1.0
 43
7.0
 44
0.5
 45
0.0
 46
0.0
 47
0.0
 48
0.0
140
2.5
141
2.5
142
0.0
143
0.03937007874016
144
1.0
145
0.0
146
1.0
147
0.625
 71
     0
 72
     0
 73
     0
 74
     0
 75
     0
 76
     0
 77
     1
 78
     8
170
     0
171
     3
172
     1
173
     0
174
     1
175
     0
176
   144
177
   144
178
     7
270
     2
271
     1
272
     1
273
     2
274
     3
340
18E
275
     0
280
     0
281
     0
282
     0
283
     2
284
     8
285
     0
286
     0
287
     5
288
     0
  0
DIMSTYLE
105
3EA
330
A
100
AcDbSymbolTableRecord
100
AcDbDimStyleTableRecord
  2
ADD$7
 70
     0
  3

  4

  5

  6

  7

 40
1.0
 41
3.0
 42
1.0
 43
7.0
 44
0.5
 45
0.0
 46
0.0
 47
0.0
 48
0.0
140
2.5
141
2.5
142
0.0
143
0.03937007874016
144
1.0
145
0.0
146
1.0
147
0.625
 71
     0
 72
     0
 73
     0
 74
     0
 75
     0
 76
     0
 77
     0
 78
     8
170
     0
171
     3
172
     1
173
     0
174
     1
175
     0
176
   144
177
   144
178
     7
270
     2
271
     1
272
     1
273
     2
274
     3
340
18E
275
     0
280
     0
281
     0
282
     0
283
     2
284
     8
285
     0
286
     0
287
     5
288
     0
  0
DIMSTYLE
105
518
330
A
100
AcDbSymbolTableRecord
100
AcDbDimStyleTableRecord
  2
STANDARD
 70
     0
  3

  4

  5

  6

  7

 40
1.0
 41
0.18
 42
0.0625
 43
0.38
 44
0.18
 45
0.0
 46
0.0
 47
0.0
 48
0.0
140
0.18
141
0.09
142
0.0
143
25.4
144
1.0
145
0.0
146
1.0
147
0.09
 71
     0
 72
     0
 73
     1
 74
     1
 75
     0
 76
     0
 77
     0
 78
     0
170
     0
171
     2
172
     0
173
     0
174
     0
175
     0
176
     0
177
     0
178
     0
270
     2
271
     4
272
     4
273
     2
274
     2
340
11
275
     0
280
     0
281
     0
282
     0
283
     1
284
     0
285
     0
286
     0
287
     3
288
     0
  0
DIMSTYLE
105
550
330
A
100
AcDbSymbolTableRecord
100
AcDbDimStyleTableRecord
  2
ADD$0
 70
     0
  3

  4

  5

  6

  7

 40
1.0
 41
0.7
 42
1.0
 43
7.0
 44
0.5
 45
0.0
 46
0.0
 47
0.0
 48
0.0
140
2.5
141
2.5
142
0.0
143
0.03937007874016
144
1.0
145
0.7
146
1.0
147
0.625
 71
     0
 72
     0
 73
     0
 74
     0
 75
     0
 76
     0
 77
     1
 78
     8
170
     0
171
     3
172
     1
173
     0
174
     1
175
     0
176
   144
177
   144
178
     7
270
     2
271
     1
272
     1
273
     2
274
     3
340
18E
275
     0
280
     0
281
     0
282
     0
283
     2
284
     8
285
     0
286
     0
287
     5
288
     0
  0
DIMSTYLE
105
59B
330
A
100
AcDbSymbolTableRecord
100
AcDbDimStyleTableRecord
  2
ADD_M
 70
     0
  3

  4

  5

  6

  7

 40
1.0
 41
2.5
 42
1.0
 43
7.0
 44
0.5
 45
0.0
 46
0.0
 47
0.0
 48
0.0
140
2.5
141
2.5
142
0.0
143
0.03937007874016
144
1.0
145
0.7
146
1.0
147
0.625
 71
     0
 72
     0
 73
     0
 74
     0
 75
     0
 76
     0
 77
     1
 78
     8
170
     0
171
     3
172
     1
173
     0
174
     1
175
     0
176
   144
177
   144
178
     7
270
     2
271
     1
272
     1
273
     2
274
     3
340
18E
275
     0
280
     0
281
     0
282
     0
283
     2
284
     8
285
     0
286
     0
287
     5
288
     0
  0
ENDTAB
  0
TABLE
  2
BLOCK_RECORD
  5
1
330
0
100
AcDbSymbolTable
 70
     2
  0
BLOCK_RECORD
  5
1F
102
{ACAD_XDICTIONARY
360
6A1
102
}
330
1
100
AcDbSymbolTableRecord
100
AcDbBlockTableRecord
  2
*MODEL_SPACE
  0
BLOCK_RECORD
  5
1B
102
{ACAD_XDICTIONARY
360
6A3
102
}
330
1
100
AcDbSymbolTableRecord
100
AcDbBlockTableRecord
  2
*PAPER_SPACE
  0
BLOCK_RECORD
  5
192
330
1
100
AcDbSymbolTableRecord
100
AcDbBlockTableRecord
  2
_DOT
  0
BLOCK_RECORD
  5
5CE
330
1
100
AcDbSymbolTableRecord
100
AcDbBlockTableRecord
  2
A4
  0
ENDTAB
  0
ENDSEC
  0
SECTION
  2
BLOCKS
  0
BLOCK
  5
20
330
1F
100
AcDbEntity
  8
0
100
AcDbBlockBegin
  2
*MODEL_SPACE
 70
     0
 10
0.0
 20
0.0
 30
0.0
  3
*MODEL_SPACE
  1

  0
ENDBLK
  5
21
330
1F
100
AcDbEntity
  8
0
100
AcDbBlockEnd
  0
BLOCK
  5
1C
330
1B
100
AcDbEntity
 67
     1
  8
0
100
AcDbBlockBegin
  2
*PAPER_SPACE
 70
     0
 10
0.0
 20
0.0
 30
0.0
  3
*PAPER_SPACE
  1

  0
ENDBLK
  5
1D
330
1B
100
AcDbEntity
 67
     1
  8
0
100
AcDbBlockEnd
  0
BLOCK
  5
195
330
192
100
AcDbEntity
  8
0
100
AcDbBlockBegin
  2
_DOT
 70
     0
 10
0.0
 20
0.0
 30
0.0
  3
_DOT
  1

  0
POLYLINE
  5
193
330
192
100
AcDbEntity
  8
0
 62
     0
100
AcDb2dPolyline
 66
     1
 10
0.0
 20
0.0
 30
0.0
 70
     1
 40
0.5
 41
0.5
  0
VERTEX
  5
11B1
330
193
100
AcDbEntity
  8
0
 62
     0
100
AcDbVertex
100
AcDb2dVertex
 10
-0.25
 20
0.0
 30
0.0
 42
1.0
  0
VERTEX
  5
11B2
330
193
100
AcDbEntity
  8
0
 62
     0
100
AcDbVertex
100
AcDb2dVertex
 10
0.25
 20
0.0
 30
0.0
 42
1.0
  0
SEQEND
  5
11B3
330
193
100
AcDbEntity
  8
0
 62
     0
  0
LINE
  5
194
330
192
100
AcDbEntity
  8
0
 62
     0
100
AcDbLine
 10
-0.5
 20
0.0
 30
0.0
 11
-1.0
 21
0.0
 31
0.0
  0
ENDBLK
  5
196
330
192
100
AcDbEntity
  8
0
100
AcDbBlockEnd
  0
BLOCK
  5
5D1
330
5CE
100
AcDbEntity
  8
0
100
AcDbBlockBegin
  2
A4
 70
     0
 10
0.0
 20
0.0
 30
0.0
  3
A4
  1

  0
POLYLINE
  5
5CF
330
5CE
100
AcDbEntity
  8
HOJO
100
AcDb2dPolyline
 66
     1
 10
0.0
 20
0.0
 30
0.0
 70
     1
  0
VERTEX
  5
11B4
330
5CF
100
AcDbEntity
  8
HOJO
100
AcDbVertex
100
AcDb2dVertex
 10
0.0
 20
0.0
 30
0.0
  0
VERTEX
  5
11B5
330
5CF
100
AcDbEntity
  8
HOJO
100
AcDbVertex
100
AcDb2dVertex
 10
297.0
 20
0.0
 30
0.0
  0
VERTEX
  5
11B6
330
5CF
100
AcDbEntity
  8
HOJO
100
AcDbVertex
100
AcDb2dVertex
 10
297.0
 20
210.0
 30
0.0
  0
VERTEX
  5
11B7
330
5CF
100
AcDbEntity
  8
HOJO
100
AcDbVertex
100
AcDb2dVertex
 10
0.0
 20
210.0
 30
0.0
  0
SEQEND
  5
11B8
330
5CF
100
AcDbEntity
  8
HOJO
  0
POLYLINE
  5
5D0
330
5CE
100
AcDbEntity
  8
HOJO
100
AcDb2dPolyline
 66
     1
 10
0.0
 20
0.0
 30
0.0
 70
     1
  0
VERTEX
  5
11B9
330
5D0
100
AcDbEntity
  8
HOJO
100
AcDbVertex
100
AcDb2dVertex
 10
18.0
 20
13.0
 30
0.0
  0
VERTEX
  5
11BA
330
5D0
100
AcDbEntity
  8
HOJO
100
AcDbVertex
100
AcDb2dVertex
 10
279.0
 20
13.0
 30
0.0
  0
VERTEX
  5
11BB
330
5D0
100
AcDbEntity
  8
HOJO
100
AcDbVertex
100
AcDb2dVertex
 10
279.0
 20
197.0
 30
0.0
  0
VERTEX
  5
11BC
330
5D0
100
AcDbEntity
  8
HOJO
100
AcDbVertex
100
AcDb2dVertex
 10
18.0
 20
197.0
 30
0.0
  0
SEQEND
  5
11BD
330
5D0
100
AcDbEntity
  8
HOJO
  0
ENDBLK
  5
5D2
330
5CE
100
AcDbEntity
  8
0
100
AcDbBlockEnd
  0
ENDSEC
  0
SECTION
  2
ENTITIES
  0
LINE
  5
60A
330
1F
100
AcDbEntity
  8
HOJO
100
AcDbLine
 10
360.0
 20
260.0
 30
0.0
 11
5580.0
 21
260.0
 31
0.0
  0
LINE
  5
60B
330
1F
100
AcDbEntity
  8
HOJO
100
AcDbLine
 10
360.0
 20
560.0
 30
0.0
 11
5580.0
 21
560.0
 31
0.0
  0
LINE
  5
60C
330
1F
100
AcDbEntity
  8
HOJO
100
AcDbLine
 10
360.0
 20
260.0
 30
0.0
 11
360.0
 21
560.0
 31
0.0
  0
LINE
  5
60D
330
1F
100
AcDbEntity
  8
HOJO
100
AcDbLine
 10
2360.0
 20
260.0
 30
0.0
 11
2360.0
 21
560.0
 31
0.0
  0
LINE
  5
60F
330
1F
100
AcDbEntity
  8
HOJO
100
AcDbLine
 10
3160.0
 20
260.0
 30
0.0
 11
3160.0
 21
560.0
 31
0.0
  0
LINE
  5
610
330
1F
100
AcDbEntity
  8
HOJO
100
AcDbLine
 10
3660.0
 20
260.0
 30
0.0
 11
3660.0
 21
560.0
 31
0.0
  0
LINE
  5
64F
330
1F
100
AcDbEntity
  8
3C1
100
AcDbLine
 10
2165.138467459388
 20
1941.192370598382
 30
0.0
 11
2735.138467459388
 21
1941.192370598382
 31
0.0
  0
LINE
  5
654
330
1F
100
AcDbEntity
  8
3C1
100
AcDbLine
 10
2735.138467459388
 20
1941.192370598382
 30
0.0
 11
2735.138467459388
 21
2084.192370598382
 31
0.0
  0
LINE
  5
667
330
1F
100
AcDbEntity
  8
3C1
100
AcDbLine
 10
2735.138467459388
 20
1941.192370598382
 30
0.0
 11
2645.138467459388
 21
1941.192370598382
 31
0.0
  0
LINE
  5
677
330
1F
100
AcDbEntity
  8
3C1
100
AcDbLine
 10
2165.138467459388
 20
2061.192370598382
 30
0.0
 11
2165.138467459388
 21
1941.192370598382
 31
0.0
  0
LINE
  5
69B
330
1F
100
AcDbEntity
  8
3C1
100
AcDbLine
 10
2365.138467459388
 20
2002.876764669873
 30
0.0
 11
2365.138467459388
 21
1941.192370598382
 31
0.0
  0
LINE
  5
69C
330
1F
100
AcDbEntity
  8
3C1
100
AcDbLine
 10
2615.138467459388
 20
2016.913381932297
 30
0.0
 11
2615.138467459388
 21
1941.192370598382
 31
0.0
  0
LINE
  5
69E
330
1F
100
AcDbEntity
  8
3C1
100
AcDbLine
 10
2365.138467459388
 20
2002.876764669873
 30
0.0
 11
2645.138467459388
 21
2018.597776003788
 31
0.0
  0
LINE
  5
9D9
330
1F
100
AcDbEntity
  8
3C1
100
AcDbLine
 10
2645.138467459388
 20
2018.597776003788
 30
0.0
 11
2645.138467459388
 21
2078.597776003788
 31
0.0
  0
LINE
  5
9DA
330
1F
100
AcDbEntity
  8
3C1
100
AcDbLine
 10
2645.138467459388
 20
2078.597776003788
 30
0.0
 11
2365.138467459388
 21
2062.876764669872
 31
0.0
  0
LINE
  5
9DC
330
1F
100
AcDbEntity
  8
3C1
100
AcDbLine
 10
2645.138467459388
 20
2078.597776003788
 30
0.0
 11
2735.138467459388
 21
2084.192370598382
 31
0.0
  0
LINE
  5
D7A
330
1F
100
AcDbEntity
  8
3C1
100
AcDbLine
 10
2365.138467459388
 20
2002.876764669873
 30
0.0
 11
2365.138467459388
 21
2062.876764669872
 31
0.0
  0
LINE
  5
DD3
330
1F
100
AcDbEntity
  8
3C1
100
AcDbLine
 10
2168.513467459388
 20
2091.192370598383
 30
0.0
 11
2165.138467459388
 21
2061.192370598382
 31
0.0
  0
LINE
  5
DD4
330
1F
100
AcDbEntity
  8
3C1
100
AcDbLine
 10
2165.138467459388
 20
1941.192370598382
 30
0.0
 11
2165.138467459388
 21
2061.192370598382
 31
0.0
  0
LINE
  5
E40
330
1F
100
AcDbEntity
  8
3C1
100
AcDbLine
 10
2365.698167736187
 20
2062.908189864141
 30
0.0
 11
2365.621194615154
 21
2064.279124178216
 31
0.0
  0
LINE
  5
E41
330
1F
100
AcDbEntity
  8
3C1
100
AcDbLine
 10
2356.564403766321
 20
2073.675438143786
 30
0.0
 11
2168.513467459388
 21
2091.192370598383
 31
0.0
  0
LINE
  5
E7B
330
1F
100
AcDbEntity
  8
3C1
  6
HIDDEN2
100
AcDbLine
 10
3241.919119209514
 20
2061.192370598381
 30
0.0
 11
3941.919119209515
 21
2061.192370598381
 31
0.0
  0
LINE
  5
E82
330
1F
100
AcDbEntity
  8
3C1
100
AcDbLine
 10
3941.919119209515
 20
1941.192370598382
 30
0.0
 11
3241.919119209514
 21
1941.192370598382
 31
0.0
  0
ARC
  5
E86
330
1F
100
AcDbEntity
  8
3C1
100
AcDbCircle
 10
2355.636919576007
 20
2063.718542388747
 30
0.0
 40
10.0
100
AcDbArc
 50
3.213581685705443
 51
84.67825851184661
  0
LINE
  5
FB3
330
1F
100
AcDbEntity
  8
3C1
100
AcDbLine
 10
3241.919119209514
 20
1941.192370598382
 30
0.0
 11
3241.919119209514
 21
2091.192370598382
 31
0.0
  0
LINE
  5
FB4
330
1F
100
AcDbEntity
  8
3C1
100
AcDbLine
 10
3241.919119209514
 20
2091.192370598382
 30
0.0
 11
3941.919119209515
 21
2091.192370598382
 31
0.0
  0
LINE
  5
FB5
330
1F
100
AcDbEntity
  8
3C1
100
AcDbLine
 10
3941.919119209515
 20
2091.192370598382
 30
0.0
 11
3941.919119209515
 21
1941.192370598382
 31
0.0
  0
LINE
  5
FB6
330
1F
100
AcDbEntity
  8
3C1
100
AcDbLine
 10
2970.0
 20
1802.920227398455
 30
0.0
 11
2970.0
 21
1802.920227398455
 31
0.0
  0
LINE
  5
FF1
330
1F
100
AcDbEntity
  8
SUNPO
 62
   144
100
AcDbLine
 10
2365.138467459388
 20
2301.192370598382
 30
0.0
 11
2365.138467459388
 21
2425.295369425132
 31
0.0
  0
LINE
  5
FF2
330
1F
100
AcDbEntity
  8
SUNPO
 62
   144
100
AcDbLine
 10
2735.138467459388
 20
2301.192370598382
 30
0.0
 11
2735.138467459388
 21
2425.295369425132
 31
0.0
  0
LINE
  5
FF3
330
1F
100
AcDbEntity
  8
SUNPO
 62
   144
100
AcDbLine
 10
2379.138467459388
 20
2415.295369425132
 30
0.0
 11
2721.138467459388
 21
2415.295369425132
 31
0.0
  0
SOLID
  5
FF4
330
1F
100
AcDbEntity
  8
SUNPO
 62
   144
100
AcDbTrace
 10
2379.138467459388
 20
2417.628702758465
 30
0.0
 11
2379.138467459388
 21
2412.962036091798
 31
0.0
 12
2365.138467459388
 22
2415.295369425132
 32
0.0
 13
2365.138467459388
 23
2415.295369425132
 33
0.0
  0
SOLID
  5
FF5
330
1F
100
AcDbEntity
  8
SUNPO
 62
   144
100
AcDbTrace
 10
2721.138467459388
 20
2417.628702758465
 30
0.0
 11
2721.138467459388
 21
2412.962036091798
 31
0.0
 12
2735.138467459388
 22
2415.295369425132
 32
0.0
 13
2735.138467459388
 23
2415.295369425132
 33
0.0
  0
LINE
  5
FF7
330
1F
100
AcDbEntity
  8
SUNPO
 62
   144
100
AcDbLine
 10
2165.138467459388
 20
2301.192370598382
 30
0.0
 11
2165.138467459388
 21
2425.295369425132
 31
0.0
  0
LINE
  5
FF8
330
1F
100
AcDbEntity
  8
SUNPO
 62
   144
100
AcDbLine
 10
2365.138467459388
 20
2301.192370598382
 30
0.0
 11
2365.138467459388
 21
2425.295369425132
 31
0.0
  0
LINE
  5
FF9
330
1F
100
AcDbEntity
  8
SUNPO
 62
   144
100
AcDbLine
 10
2179.138467459388
 20
2415.295369425132
 30
0.0
 11
2351.138467459388
 21
2415.295369425132
 31
0.0
  0
SOLID
  5
FFA
330
1F
100
AcDbEntity
  8
SUNPO
 62
   144
100
AcDbTrace
 10
2179.138467459388
 20
2417.628702758465
 30
0.0
 11
2179.138467459388
 21
2412.962036091798
 31
0.0
 12
2165.138467459388
 22
2415.295369425132
 32
0.0
 13
2165.138467459388
 23
2415.295369425132
 33
0.0
  0
SOLID
  5
FFB
330
1F
100
AcDbEntity
  8
SUNPO
 62
   144
100
AcDbTrace
 10
2351.138467459388
 20
2417.628702758465
 30
0.0
 11
2351.138467459388
 21
2412.962036091798
 31
0.0
 12
2365.138467459388
 22
2415.295369425132
 32
0.0
 13
2365.138467459388
 23
2415.295369425132
 33
0.0
  0
LINE
  5
FFD
330
1F
100
AcDbEntity
  8
SUNPO
 62
   144
100
AcDbLine
 10
3167.351658101846
 20
1941.192370598382
 30
0.0
 11
3079.316398077071
 21
1941.192370598382
 31
0.0
  0
LINE
  5
FFE
330
1F
100
AcDbEntity
  8
SUNPO
 62
   144
100
AcDbLine
 10
3167.351658101839
 20
2091.192370598383
 30
0.0
 11
3079.316398077071
 21
2091.192370598383
 31
0.0
  0
LINE
  5
FFF
330
1F
100
AcDbEntity
  8
SUNPO
 62
   144
100
AcDbLine
 10
3089.316398077071
 20
1955.192370598382
 30
0.0
 11
3089.316398077071
 21
2077.192370598382
 31
0.0
  0
SOLID
  5
1000
330
1F
100
AcDbEntity
  8
SUNPO
 62
   144
100
AcDbTrace
 10
3086.983064743737
 20
1955.192370598382
 30
0.0
 11
3091.649731410404
 21
1955.192370598382
 31
0.0
 12
3089.316398077071
 22
1941.192370598382
 32
0.0
 13
3089.316398077071
 23
1941.192370598382
 33
0.0
  0
SOLID
  5
1001
330
1F
100
AcDbEntity
  8
SUNPO
 62
   144
100
AcDbTrace
 10
3086.983064743737
 20
2077.192370598382
 30
0.0
 11
3091.649731410404
 21
2077.192370598382
 31
0.0
 12
3089.316398077071
 22
2091.192370598383
 32
0.0
 13
3089.316398077071
 23
2091.192370598383
 33
0.0
  0
LINE
  5
1003
330
1F
100
AcDbEntity
  8
SUNPO
 62
   144
100
AcDbLine
 10
3221.919119209514
 20
2061.192370598381
 30
0.0
 11
3177.351658101846
 21
2061.192370598381
 31
0.0
  0
LINE
  5
1004
330
1F
100
AcDbEntity
  8
SUNPO
 62
   144
100
AcDbLine
 10
3221.919119209514
 20
2091.192370598427
 30
0.0
 11
3177.351658101846
 21
2091.192370598427
 31
0.0
  0
LINE
  5
1005
330
1F
100
AcDbEntity
  8
SUNPO
 62
   144
100
AcDbLine
 10
3187.351658101846
 20
2047.192370598382
 30
0.0
 11
3187.351658101846
 21
2033.192370598382
 31
0.0
  0
LINE
  5
1006
330
1F
100
AcDbEntity
  8
SUNPO
 62
   144
100
AcDbLine
 10
3187.351658101846
 20
2105.192370598427
 30
0.0
 11
3187.351658101846
 21
2119.192370598427
 31
0.0
  0
LINE
  5
1007
330
1F
100
AcDbEntity
  8
SUNPO
 62
   144
100
AcDbLine
 10
3187.351658101846
 20
2061.192370598381
 30
0.0
 11
3187.351658101846
 21
2091.192370598427
 31
0.0
  0
SOLID
  5
1008
330
1F
100
AcDbEntity
  8
SUNPO
 62
   144
100
AcDbTrace
 10
3185.018324768513
 20
2047.192370598382
 30
0.0
 11
3189.68499143518
 21
2047.192370598382
 31
0.0
 12
3187.351658101846
 22
2061.192370598381
 32
0.0
 13
3187.351658101846
 23
2061.192370598381
 33
0.0
  0
SOLID
  5
1009
330
1F
100
AcDbEntity
  8
SUNPO
 62
   144
100
AcDbTrace
 10
3185.018324768513
 20
2105.192370598427
 30
0.0
 11
3189.68499143518
 21
2105.192370598427
 31
0.0
 12
3187.351658101846
 22
2091.192370598427
 32
0.0
 13
3187.351658101846
 23
2091.192370598427
 33
0.0
  0
LINE
  5
100B
330
1F
100
AcDbEntity
  8
SUNPO
 62
   144
100
AcDbLine
 10
2345.698167736187
 20
2062.908189864141
 30
0.0
 11
2330.42485006901
 21
2062.908189864141
 31
0.0
  0
LINE
  5
100C
330
1F
100
AcDbEntity
  8
SUNPO
 62
   144
100
AcDbLine
 10
2345.698167736187
 20
2072.876764669873
 30
0.0
 11
2330.42485006901
 21
2072.876764669873
 31
0.0
  0
LINE
  5
100D
330
1F
100
AcDbEntity
  8
SUNPO
 62
   144
100
AcDbLine
 10
2340.42485006901
 20
2048.908189864141
 30
0.0
 11
2340.42485006901
 21
2034.908189864141
 31
0.0
  0
LINE
  5
100E
330
1F
100
AcDbEntity
  8
SUNPO
 62
   144
100
AcDbLine
 10
2340.42485006901
 20
2086.876764669872
 30
0.0
 11
2340.42485006901
 21
2100.876764669873
 31
0.0
  0
LINE
  5
100F
330
1F
100
AcDbEntity
  8
SUNPO
 62
   144
100
AcDbLine
 10
2340.42485006901
 20
2062.908189864141
 30
0.0
 11
2340.42485006901
 21
2072.876764669873
 31
0.0
  0
SOLID
  5
1010
330
1F
100
AcDbEntity
  8
SUNPO
 62
   144
100
AcDbTrace
 10
2338.091516735676
 20
2048.908189864141
 30
0.0
 11
2342.758183402343
 21
2048.908189864141
 31
0.0
 12
2340.42485006901
 22
2062.908189864141
 32
0.0
 13
2340.42485006901
 23
2062.908189864141
 33
0.0
  0
SOLID
  5
1011
330
1F
100
AcDbEntity
  8
SUNPO
 62
   144
100
AcDbTrace
 10
2338.091516735676
 20
2086.876764669872
 30
0.0
 11
2342.758183402343
 21
2086.876764669872
 31
0.0
 12
2340.42485006901
 22
2072.876764669873
 32
0.0
 13
2340.42485006901
 23
2072.876764669873
 33
0.0
  0
LINE
  5
1013
330
1F
100
AcDbEntity
  8
SUNPO
 62
   144
100
AcDbLine
 10
2145.138467459388
 20
2061.192370598382
 30
0.0
 11
2072.109500855909
 21
2061.192370598382
 31
0.0
  0
LINE
  5
1014
330
1F
100
AcDbEntity
  8
SUNPO
 62
   144
100
AcDbLine
 10
2145.138467459388
 20
2091.192370598383
 30
0.0
 11
2072.109500855909
 21
2091.192370598383
 31
0.0
  0
LINE
  5
1015
330
1F
100
AcDbEntity
  8
SUNPO
 62
   144
100
AcDbLine
 10
2082.109500855909
 20
2047.192370598382
 30
0.0
 11
2082.109500855909
 21
2033.192370598382
 31
0.0
  0
LINE
  5
1016
330
1F
100
AcDbEntity
  8
SUNPO
 62
   144
100
AcDbLine
 10
2082.109500855909
 20
2105.192370598382
 30
0.0
 11
2082.109500855909
 21
2119.192370598383
 31
0.0
  0
LINE
  5
1017
330
1F
100
AcDbEntity
  8
SUNPO
 62
   144
100
AcDbLine
 10
2082.109500855909
 20
2061.192370598382
 30
0.0
 11
2082.109500855909
 21
2091.192370598383
 31
0.0
  0
SOLID
  5
1018
330
1F
100
AcDbEntity
  8
SUNPO
 62
   144
100
AcDbTrace
 10
2079.776167522576
 20
2047.192370598382
 30
0.0
 11
2084.442834189243
 21
2047.192370598382
 31
0.0
 12
2082.109500855909
 22
2061.192370598382
 32
0.0
 13
2082.109500855909
 23
2061.192370598382
 33
0.0
  0
SOLID
  5
1019
330
1F
100
AcDbEntity
  8
SUNPO
 62
   144
100
AcDbTrace
 10
2079.776167522576
 20
2105.192370598382
 30
0.0
 11
2084.442834189243
 21
2105.192370598382
 31
0.0
 12
2082.109500855909
 22
2091.192370598383
 32
0.0
 13
2082.109500855909
 23
2091.192370598383
 33
0.0
  0
LINE
  5
101B
330
1F
100
AcDbEntity
  8
SUNPO
 62
   144
100
AcDbLine
 10
2165.138467459388
 20
1921.192370598382
 30
0.0
 11
2165.138467459388
 21
1822.392106654488
 31
0.0
  0
LINE
  5
101C
330
1F
100
AcDbEntity
  8
SUNPO
 62
   144
100
AcDbLine
 10
2365.138467459388
 20
1921.192370598382
 30
0.0
 11
2365.138467459388
 21
1822.392106654488
 31
0.0
  0
LINE
  5
101D
330
1F
100
AcDbEntity
  8
SUNPO
 62
   144
100
AcDbLine
 10
2179.138467459388
 20
1832.392106654488
 30
0.0
 11
2351.138467459388
 21
1832.392106654488
 31
0.0
  0
SOLID
  5
101E
330
1F
100
AcDbEntity
  8
SUNPO
 62
   144
100
AcDbTrace
 10
2179.138467459388
 20
1834.725439987821
 30
0.0
 11
2179.138467459388
 21
1830.058773321155
 31
0.0
 12
2165.138467459388
 22
1832.392106654488
 32
0.0
 13
2165.138467459388
 23
1832.392106654488
 33
0.0
  0
SOLID
  5
101F
330
1F
100
AcDbEntity
  8
SUNPO
 62
   144
100
AcDbTrace
 10
2351.138467459388
 20
1834.725439987821
 30
0.0
 11
2351.138467459388
 21
1830.058773321155
 31
0.0
 12
2365.138467459388
 22
1832.392106654488
 32
0.0
 13
2365.138467459388
 23
1832.392106654488
 33
0.0
  0
LINE
  5
1021
330
1F
100
AcDbEntity
  8
SUNPO
 62
   144
100
AcDbLine
 10
3961.919119209515
 20
1941.192370598382
 30
0.0
 11
4055.332309969247
 21
1941.192370598382
 31
0.0
  0
LINE
  5
1022
330
1F
100
AcDbEntity
  8
SUNPO
 62
   144
100
AcDbLine
 10
3961.919119209515
 20
2084.192370598382
 30
0.0
 11
4055.332309969247
 21
2084.192370598382
 31
0.0
  0
LINE
  5
1023
330
1F
100
AcDbEntity
  8
SUNPO
 62
   144
100
AcDbLine
 10
4045.332309969248
 20
1955.192370598382
 30
0.0
 11
4045.332309969248
 21
2070.192370598382
 31
0.0
  0
SOLID
  5
1024
330
1F
100
AcDbEntity
  8
SUNPO
 62
   144
100
AcDbTrace
 10
4042.998976635914
 20
1955.192370598382
 30
0.0
 11
4047.665643302582
 21
1955.192370598382
 31
0.0
 12
4045.332309969248
 22
1941.192370598382
 32
0.0
 13
4045.332309969248
 23
1941.192370598382
 33
0.0
  0
SOLID
  5
1025
330
1F
100
AcDbEntity
  8
SUNPO
 62
   144
100
AcDbTrace
 10
4042.998976635914
 20
2070.192370598382
 30
0.0
 11
4047.665643302582
 21
2070.192370598382
 31
0.0
 12
4045.332309969248
 22
2084.192370598382
 32
0.0
 13
4045.332309969248
 23
2084.192370598382
 33
0.0
  0
LINE
  5
1027
330
1F
100
AcDbEntity
  8
SUNPO
 62
   144
100
AcDbLine
 10
3221.919119209515
 20
1941.192370598382
 30
0.0
 11
3177.351658101846
 21
1941.192370598382
 31
0.0
  0
LINE
  5
1028
330
1F
100
AcDbEntity
  8
SUNPO
 62
   144
100
AcDbLine
 10
3221.919119209515
 20
2061.192370598381
 30
0.0
 11
3177.351658101846
 21
2061.192370598381
 31
0.0
  0
LINE
  5
1029
330
1F
100
AcDbEntity
  8
SUNPO
 62
   144
100
AcDbLine
 10
3187.351658101846
 20
1955.192370598382
 30
0.0
 11
3187.351658101846
 21
2047.192370598382
 31
0.0
  0
SOLID
  5
102A
330
1F
100
AcDbEntity
  8
SUNPO
 62
   144
100
AcDbTrace
 10
3185.018324768513
 20
1955.192370598382
 30
0.0
 11
3189.68499143518
 21
1955.192370598382
 31
0.0
 12
3187.351658101846
 22
1941.192370598382
 32
0.0
 13
3187.351658101846
 23
1941.192370598382
 33
0.0
  0
SOLID
  5
102B
330
1F
100
AcDbEntity
  8
SUNPO
 62
   144
100
AcDbTrace
 10
3185.018324768513
 20
2047.192370598382
 30
0.0
 11
3189.68499143518
 21
2047.192370598382
 31
0.0
 12
3187.351658101846
 22
2061.192370598381
 32
0.0
 13
3187.351658101846
 23
2061.192370598381
 33
0.0
  0
LINE
  5
102D
330
1F
100
AcDbEntity
  8
SUNPO
 62
   144
100
AcDbLine
 10
3826.919119209515
 20
2301.192370598382
 30
0.0
 11
3826.919119209515
 21
2425.295369425132
 31
0.0
  0
LINE
  5
102E
330
1F
100
AcDbEntity
  8
SUNPO
 62
   144
100
AcDbLine
 10
3941.919119209515
 20
2301.192370598382
 30
0.0
 11
3941.919119209515
 21
2425.295369425132
 31
0.0
  0
LINE
  5
102F
330
1F
100
AcDbEntity
  8
SUNPO
 62
   144
100
AcDbLine
 10
3840.919119209515
 20
2415.295369425132
 30
0.0
 11
3927.919119209514
 21
2415.295369425132
 31
0.0
  0
SOLID
  5
1030
330
1F
100
AcDbEntity
  8
SUNPO
 62
   144
100
AcDbTrace
 10
3840.919119209515
 20
2417.628702758465
 30
0.0
 11
3840.919119209515
 21
2412.962036091798
 31
0.0
 12
3826.919119209515
 22
2415.295369425132
 32
0.0
 13
3826.919119209515
 23
2415.295369425132
 33
0.0
  0
SOLID
  5
1031
330
1F
100
AcDbEntity
  8
SUNPO
 62
   144
100
AcDbTrace
 10
3927.919119209514
 20
2417.628702758465
 30
0.0
 11
3927.919119209514
 21
2412.962036091798
 31
0.0
 12
3941.919119209515
 22
2415.295369425132
 32
0.0
 13
3941.919119209515
 23
2415.295369425132
 33
0.0
  0
LINE
  5
1033
330
1F
100
AcDbEntity
  8
SUNPO
 62
   144
100
AcDbLine
 10
3356.919119209514
 20
2301.192370598382
 30
0.0
 11
3356.919119209514
 21
2425.295369425132
 31
0.0
  0
LINE
  5
1034
330
1F
100
AcDbEntity
  8
SUNPO
 62
   144
100
AcDbLine
 10
3826.919119209515
 20
2301.192370598382
 30
0.0
 11
3826.919119209515
 21
2425.295369425132
 31
0.0
  0
LINE
  5
1035
330
1F
100
AcDbEntity
  8
SUNPO
 62
   144
100
AcDbLine
 10
3370.919119209514
 20
2415.295369425132
 30
0.0
 11
3812.919119209515
 21
2415.295369425132
 31
0.0
  0
SOLID
  5
1036
330
1F
100
AcDbEntity
  8
SUNPO
 62
   144
100
AcDbTrace
 10
3370.919119209514
 20
2417.628702758465
 30
0.0
 11
3370.919119209514
 21
2412.962036091798
 31
0.0
 12
3356.919119209514
 22
2415.295369425132
 32
0.0
 13
3356.919119209514
 23
2415.295369425132
 33
0.0
  0
SOLID
  5
1037
330
1F
100
AcDbEntity
  8
SUNPO
 62
   144
100
AcDbTrace
 10
3812.919119209515
 20
2417.628702758465
 30
0.0
 11
3812.919119209515
 21
2412.962036091798
 31
0.0
 12
3826.919119209515
 22
2415.295369425132
 32
0.0
 13
3826.919119209515
 23
2415.295369425132
 33
0.0
  0
LINE
  5
1039
330
1F
100
AcDbEntity
  8
SUNPO
 62
   144
100
AcDbLine
 10
3241.919119209514
 20
2301.192370598382
 30
0.0
 11
3241.919119209514
 21
2425.295369425132
 31
0.0
  0
LINE
  5
103A
330
1F
100
AcDbEntity
  8
SUNPO
 62
   144
100
AcDbLine
 10
3356.919119209514
 20
2301.192370598382
 30
0.0
 11
3356.919119209514
 21
2425.295369425132
 31
0.0
  0
LINE
  5
103B
330
1F
100
AcDbEntity
  8
SUNPO
 62
   144
100
AcDbLine
 10
3255.919119209515
 20
2415.295369425132
 30
0.0
 11
3342.919119209515
 21
2415.295369425132
 31
0.0
  0
SOLID
  5
103C
330
1F
100
AcDbEntity
  8
SUNPO
 62
   144
100
AcDbTrace
 10
3255.919119209515
 20
2417.628702758465
 30
0.0
 11
3255.919119209515
 21
2412.962036091798
 31
0.0
 12
3241.919119209514
 22
2415.295369425132
 32
0.0
 13
3241.919119209514
 23
2415.295369425132
 33
0.0
  0
SOLID
  5
103D
330
1F
100
AcDbEntity
  8
SUNPO
 62
   144
100
AcDbTrace
 10
3342.919119209515
 20
2417.628702758465
 30
0.0
 11
3342.919119209515
 21
2412.962036091798
 31
0.0
 12
3356.919119209514
 22
2415.295369425132
 32
0.0
 13
3356.919119209514
 23
2415.295369425132
 33
0.0
  0
LINE
  5
103F
330
1F
100
AcDbEntity
  8
SUNPO
 62
   144
100
AcDbLine
 10
3241.919119209514
 20
1821.192370598383
 30
0.0
 11
3241.919119209514
 21
1715.015193945743
 31
0.0
  0
LINE
  5
1040
330
1F
100
AcDbEntity
  8
SUNPO
 62
   144
100
AcDbLine
 10
3941.919119209515
 20
1821.192370598383
 30
0.0
 11
3941.919119209515
 21
1715.015193945743
 31
0.0
  0
LINE
  5
1041
330
1F
100
AcDbEntity
  8
SUNPO
 62
   144
100
AcDbLine
 10
3255.919119209515
 20
1725.015193945743
 30
0.0
 11
3927.919119209514
 21
1725.015193945743
 31
0.0
  0
SOLID
  5
1042
330
1F
100
AcDbEntity
  8
SUNPO
 62
   144
100
AcDbTrace
 10
3255.919119209515
 20
1727.348527279076
 30
0.0
 11
3255.919119209515
 21
1722.68186061241
 31
0.0
 12
3241.919119209514
 22
1725.015193945743
 32
0.0
 13
3241.919119209514
 23
1725.015193945743
 33
0.0
  0
SOLID
  5
1043
330
1F
100
AcDbEntity
  8
SUNPO
 62
   144
100
AcDbTrace
 10
3927.919119209514
 20
1727.348527279076
 30
0.0
 11
3927.919119209514
 21
1722.68186061241
 31
0.0
 12
3941.919119209515
 22
1725.015193945743
 32
0.0
 13
3941.919119209515
 23
1725.015193945743
 33
0.0
  0
LINE
  5
1045
330
1F
100
AcDbEntity
  8
SUNPO
 62
   144
100
AcDbLine
 10
3791.919119209515
 20
1861.192370598382
 30
0.0
 11
3791.919119209515
 21
1851.192370598383
 31
0.0
  0
LINE
  5
1046
330
1F
100
AcDbEntity
  8
SUNPO
 62
   144
100
AcDbLine
 10
3941.919119209515
 20
1921.02273840565
 30
0.0
 11
3943.540740831137
 21
1841.462640868653
 31
0.0
  0
LINE
  5
1047
330
1F
100
AcDbEntity
  8
SUNPO
 62
   144
100
AcDbLine
 10
3805.919119209514
 20
1841.192370598382
 30
0.0
 11
3927.919119209514
 21
1841.192370598382
 31
0.0
  0
SOLID
  5
1048
330
1F
100
AcDbEntity
  8
SUNPO
 62
   144
100
AcDbTrace
 10
3805.919119209514
 20
1843.525703931716
 30
0.0
 11
3805.919119209514
 21
1838.859037265049
 31
0.0
 12
3791.919119209515
 22
1841.192370598382
 32
0.0
 13
3791.919119209515
 23
1841.192370598382
 33
0.0
  0
SOLID
  5
1049
330
1F
100
AcDbEntity
  8
SUNPO
 62
   144
100
AcDbTrace
 10
3927.919119209514
 20
1843.525703931716
 30
0.0
 11
3927.919119209514
 21
1838.859037265049
 31
0.0
 12
3941.919119209515
 22
1841.192370598382
 32
0.0
 13
3941.919119209515
 23
1841.192370598382
 33
0.0
  0
LINE
  5
104B
330
1F
100
AcDbEntity
  8
SUNPO
 62
   144
100
AcDbLine
 10
3391.919119209514
 20
1921.192370598382
 30
0.0
 11
3391.919119209514
 21
1831.192370598382
 31
0.0
  0
LINE
  5
104C
330
1F
100
AcDbEntity
  8
SUNPO
 62
   144
100
AcDbLine
 10
3791.919119209515
 20
1922.48101871099
 30
0.0
 11
3793.540740831137
 21
1841.462640868653
 31
0.0
  0
LINE
  5
104D
330
1F
100
AcDbEntity
  8
SUNPO
 62
   144
100
AcDbLine
 10
3405.919119209515
 20
1841.192370598382
 30
0.0
 11
3777.919119209514
 21
1841.192370598382
 31
0.0
  0
SOLID
  5
104E
330
1F
100
AcDbEntity
  8
SUNPO
 62
   144
100
AcDbTrace
 10
3405.919119209515
 20
1843.525703931716
 30
0.0
 11
3405.919119209515
 21
1838.859037265049
 31
0.0
 12
3391.919119209514
 22
1841.192370598382
 32
0.0
 13
3391.919119209514
 23
1841.192370598382
 33
0.0
  0
SOLID
  5
104F
330
1F
100
AcDbEntity
  8
SUNPO
 62
   144
100
AcDbTrace
 10
3777.919119209514
 20
1843.525703931716
 30
0.0
 11
3777.919119209514
 21
1838.859037265049
 31
0.0
 12
3791.919119209515
 22
1841.192370598382
 32
0.0
 13
3791.919119209515
 23
1841.192370598382
 33
0.0
  0
LINE
  5
1051
330
1F
100
AcDbEntity
  8
SUNPO
 62
   144
100
AcDbLine
 10
3241.919119209514
 20
1921.192370598382
 30
0.0
 11
3241.919119209514
 21
1831.192370598382
 31
0.0
  0
LINE
  5
1052
330
1F
100
AcDbEntity
  8
SUNPO
 62
   144
100
AcDbLine
 10
3391.919119209514
 20
1921.192370598382
 30
0.0
 11
3391.919119209514
 21
1831.192370598382
 31
0.0
  0
LINE
  5
1053
330
1F
100
AcDbEntity
  8
SUNPO
 62
   144
100
AcDbLine
 10
3255.919119209515
 20
1841.192370598382
 30
0.0
 11
3377.919119209515
 21
1841.192370598382
 31
0.0
  0
SOLID
  5
1054
330
1F
100
AcDbEntity
  8
SUNPO
 62
   144
100
AcDbTrace
 10
3255.919119209515
 20
1843.525703931716
 30
0.0
 11
3255.919119209515
 21
1838.859037265049
 31
0.0
 12
3241.919119209514
 22
1841.192370598382
 32
0.0
 13
3241.919119209514
 23
1841.192370598382
 33
0.0
  0
SOLID
  5
1055
330
1F
100
AcDbEntity
  8
SUNPO
 62
   144
100
AcDbTrace
 10
3377.919119209515
 20
1843.525703931716
 30
0.0
 11
3377.919119209515
 21
1838.859037265049
 31
0.0
 12
3391.919119209514
 22
1841.192370598382
 32
0.0
 13
3391.919119209514
 23
1841.192370598382
 33
0.0
  0
LINE
  5
1057
330
1F
100
AcDbEntity
  8
SUNPO
 62
   144
100
AcDbLine
 10
3241.919119209514
 20
2435.295369425132
 30
0.0
 11
3241.919119209514
 21
2602.397555841504
 31
0.0
  0
LINE
  5
1058
330
1F
100
AcDbEntity
  8
SUNPO
 62
   144
100
AcDbLine
 10
3941.919119209515
 20
2435.295369425132
 30
0.0
 11
3941.919119209515
 21
2602.397555841504
 31
0.0
  0
LINE
  5
1059
330
1F
100
AcDbEntity
  8
SUNPO
 62
   144
100
AcDbLine
 10
3255.919119209515
 20
2592.397555841504
 30
0.0
 11
3927.919119209514
 21
2592.397555841504
 31
0.0
  0
SOLID
  5
105A
330
1F
100
AcDbEntity
  8
SUNPO
 62
   144
100
AcDbTrace
 10
3255.919119209515
 20
2594.730889174838
 30
0.0
 11
3255.919119209515
 21
2590.064222508171
 31
0.0
 12
3241.919119209514
 22
2592.397555841504
 32
0.0
 13
3241.919119209514
 23
2592.397555841504
 33
0.0
  0
SOLID
  5
105B
330
1F
100
AcDbEntity
  8
SUNPO
 62
   144
100
AcDbTrace
 10
3927.919119209514
 20
2594.730889174838
 30
0.0
 11
3927.919119209514
 21
2590.064222508171
 31
0.0
 12
3941.919119209515
 22
2592.397555841504
 32
0.0
 13
3941.919119209515
 23
2592.397555841504
 33
0.0
  0
LINE
  5
105D
330
1F
100
AcDbEntity
  8
3C1
100
AcDbLine
 10
3241.919119209514
 20
2084.192370598382
 30
0.0
 11
3941.919119209515
 21
2084.192370598382
 31
0.0
  0
LINE
  5
105E
330
1F
100
AcDbEntity
  8
3C1
  6
HIDDEN2
100
AcDbLine
 10
3826.919119209515
 20
2084.192370598382
 30
0.0
 11
3826.919119209515
 21
2024.192370598382
 31
0.0
  0
LINE
  5
105F
330
1F
100
AcDbEntity
  8
3C1
  6
HIDDEN2
100
AcDbLine
 10
3826.919119209515
 20
2024.192370598382
 30
0.0
 11
3356.919119209514
 21
2024.192370598382
 31
0.0
  0
LINE
  5
1060
330
1F
100
AcDbEntity
  8
3C1
  6
HIDDEN2
100
AcDbLine
 10
3356.919119209514
 20
2024.192370598382
 30
0.0
 11
3356.919119209514
 21
2084.192370598382
 31
0.0
  0
LINE
  5
1061
330
1F
100
AcDbEntity
  8
SUNPO
 62
   144
100
AcDbLine
 10
2523.452532320431
 20
2070.642611031731
 30
0.0
 11
2561.324404262422
 21
2070.642611031731
 31
0.0
  0
LINE
  5
1062
330
1F
100
AcDbEntity
  8
SUNPO
 62
   144
100
AcDbLine
 10
2523.452532320431
 20
2010.642611031731
 30
0.0
 11
2561.324404262422
 21
2010.642611031731
 31
0.0
  0
LINE
  5
1063
330
1F
100
AcDbEntity
  8
SUNPO
 62
   144
100
AcDbLine
 10
2551.324404262421
 20
2084.642611031731
 30
0.0
 11
2551.324404262421
 21
2098.642611031731
 31
0.0
  0
LINE
  5
1064
330
1F
100
AcDbEntity
  8
SUNPO
 62
   144
100
AcDbLine
 10
2551.324404262421
 20
1996.642611031731
 30
0.0
 11
2551.324404262421
 21
1982.642611031731
 31
0.0
  0
LINE
  5
1065
330
1F
100
AcDbEntity
  8
SUNPO
 62
   144
100
AcDbLine
 10
2551.324404262421
 20
2070.642611031731
 30
0.0
 11
2551.324404262421
 21
2010.642611031731
 31
0.0
  0
SOLID
  5
1066
330
1F
100
AcDbEntity
  8
SUNPO
 62
   144
100
AcDbTrace
 10
2548.991070929088
 20
2084.642611031731
 30
0.0
 11
2553.657737595755
 21
2084.642611031731
 31
0.0
 12
2551.324404262421
 22
2070.642611031731
 32
0.0
 13
2551.324404262421
 23
2070.642611031731
 33
0.0
  0
SOLID
  5
1067
330
1F
100
AcDbEntity
  8
SUNPO
 62
   144
100
AcDbTrace
 10
2548.991070929088
 20
1996.642611031731
 30
0.0
 11
2553.657737595755
 21
1996.642611031731
 31
0.0
 12
2551.324404262421
 22
2010.642611031731
 32
0.0
 13
2551.324404262421
 23
2010.642611031731
 33
0.0
  0
LINE
  5
1069
330
1F
100
AcDbEntity
  8
SUNPO
 62
   144
100
AcDbLine
 10
2753.656527104909
 20
1941.192370598382
 30
0.0
 11
2844.109170979527
 21
1941.192370598382
 31
0.0
  0
LINE
  5
106A
330
1F
100
AcDbEntity
  8
SUNPO
 62
   144
100
AcDbLine
 10
2753.656527104909
 20
2084.192370598382
 30
0.0
 11
2844.109170979527
 21
2084.192370598382
 31
0.0
  0
LINE
  5
106B
330
1F
100
AcDbEntity
  8
SUNPO
 62
   144
100
AcDbLine
 10
2834.109170979527
 20
1955.192370598382
 30
0.0
 11
2834.109170979527
 21
2070.192370598382
 31
0.0
  0
SOLID
  5
106C
330
1F
100
AcDbEntity
  8
SUNPO
 62
   144
100
AcDbTrace
 10
2831.775837646194
 20
1955.192370598382
 30
0.0
 11
2836.442504312861
 21
1955.192370598382
 31
0.0
 12
2834.109170979527
 22
1941.192370598382
 32
0.0
 13
2834.109170979527
 23
1941.192370598382
 33
0.0
  0
SOLID
  5
106D
330
1F
100
AcDbEntity
  8
SUNPO
 62
   144
100
AcDbTrace
 10
2831.775837646194
 20
2070.192370598382
 30
0.0
 11
2836.442504312861
 21
2070.192370598382
 31
0.0
 12
2834.109170979527
 22
2084.192370598382
 32
0.0
 13
2834.109170979527
 23
2084.192370598382
 33
0.0
  0
LINE
  5
106F
330
1F
100
AcDbEntity
  8
SUNPO
 62
   144
100
AcDbLine
 10
2165.138467459388
 20
2281.192370598382
 30
0.0
 11
2165.138467459388
 21
2602.397555841504
 31
0.0
  0
LINE
  5
1070
330
1F
100
AcDbEntity
  8
SUNPO
 62
   144
100
AcDbLine
 10
2735.138467459388
 20
2281.192370598382
 30
0.0
 11
2735.138467459388
 21
2602.397555841504
 31
0.0
  0
LINE
  5
1071
330
1F
100
AcDbEntity
  8
SUNPO
 62
   144
100
AcDbLine
 10
2179.138467459388
 20
2592.397555841504
 30
0.0
 11
2721.138467459388
 21
2592.397555841504
 31
0.0
  0
SOLID
  5
1072
330
1F
100
AcDbEntity
  8
SUNPO
 62
   144
100
AcDbTrace
 10
2179.138467459388
 20
2594.730889174837
 30
0.0
 11
2179.138467459388
 21
2590.06422250817
 31
0.0
 12
2165.138467459388
 22
2592.397555841504
 32
0.0
 13
2165.138467459388
 23
2592.397555841504
 33
0.0
  0
SOLID
  5
1073
330
1F
100
AcDbEntity
  8
SUNPO
 62
   144
100
AcDbTrace
 10
2721.138467459388
 20
2594.730889174837
 30
0.0
 11
2721.138467459388
 21
2590.06422250817
 31
0.0
 12
2735.138467459388
 22
2592.397555841504
 32
0.0
 13
2735.138467459388
 23
2592.397555841504
 33
0.0
  0
LINE
  5
1075
330
1F
100
AcDbEntity
  8
SUNPO
 62
   144
100
AcDbLine
 10
2145.138467459388
 20
2061.192370598382
 30
0.0
 11
2072.109500855909
 21
2061.192370598382
 31
0.0
  0
LINE
  5
1076
330
1F
100
AcDbEntity
  8
SUNPO
 62
   144
100
AcDbLine
 10
2145.138467459388
 20
1941.192370598382
 30
0.0
 11
2072.109500855909
 21
1941.192370598382
 31
0.0
  0
LINE
  5
1077
330
1F
100
AcDbEntity
  8
SUNPO
 62
   144
100
AcDbLine
 10
2082.109500855909
 20
2047.192370598382
 30
0.0
 11
2082.109500855909
 21
1955.192370598382
 31
0.0
  0
SOLID
  5
1078
330
1F
100
AcDbEntity
  8
SUNPO
 62
   144
100
AcDbTrace
 10
2079.776167522576
 20
2047.192370598382
 30
0.0
 11
2084.442834189243
 21
2047.192370598382
 31
0.0
 12
2082.109500855909
 22
2061.192370598382
 32
0.0
 13
2082.109500855909
 23
2061.192370598382
 33
0.0
  0
SOLID
  5
1079
330
1F
100
AcDbEntity
  8
SUNPO
 62
   144
100
AcDbTrace
 10
2079.776167522576
 20
1955.192370598382
 30
0.0
 11
2084.442834189243
 21
1955.192370598382
 31
0.0
 12
2082.109500855909
 22
1941.192370598382
 32
0.0
 13
2082.109500855909
 23
1941.192370598382
 33
0.0
  0
LINE
  5
107B
330
1F
100
AcDbEntity
  8
SUNPO
 62
   144
100
AcDbLine
 10
2165.138467459388
 20
1921.192370598382
 30
0.0
 11
2165.138467459388
 21
1715.015193945743
 31
0.0
  0
LINE
  5
107C
330
1F
100
AcDbEntity
  8
SUNPO
 62
   144
100
AcDbLine
 10
2735.138467459388
 20
1921.192370598382
 30
0.0
 11
2735.138467459388
 21
1715.015193945743
 31
0.0
  0
LINE
  5
107D
330
1F
100
AcDbEntity
  8
SUNPO
 62
   144
100
AcDbLine
 10
2179.138467459388
 20
1725.015193945743
 30
0.0
 11
2721.138467459388
 21
1725.015193945743
 31
0.0
  0
SOLID
  5
107E
330
1F
100
AcDbEntity
  8
SUNPO
 62
   144
100
AcDbTrace
 10
2179.138467459388
 20
1727.348527279076
 30
0.0
 11
2179.138467459388
 21
1722.68186061241
 31
0.0
 12
2165.138467459388
 22
1725.015193945743
 32
0.0
 13
2165.138467459388
 23
1725.015193945743
 33
0.0
  0
SOLID
  5
107F
330
1F
100
AcDbEntity
  8
SUNPO
 62
   144
100
AcDbTrace
 10
2721.138467459388
 20
1727.348527279076
 30
0.0
 11
2721.138467459388
 21
1722.68186061241
 31
0.0
 12
2735.138467459388
 22
1725.015193945743
 32
0.0
 13
2735.138467459388
 23
1725.015193945743
 33
0.0
  0
LINE
  5
1081
330
1F
100
AcDbEntity
  8
SUNPO
 62
   144
100
AcDbLine
 10
2645.138467459388
 20
1921.192370598382
 30
0.0
 11
2645.138467459388
 21
1822.392106654488
 31
0.0
  0
LINE
  5
1082
330
1F
100
AcDbEntity
  8
SUNPO
 62
   144
100
AcDbLine
 10
2735.138467459388
 20
1921.192370598382
 30
0.0
 11
2735.138467459388
 21
1822.392106654488
 31
0.0
  0
LINE
  5
1083
330
1F
100
AcDbEntity
  8
SUNPO
 62
   144
100
AcDbLine
 10
2659.138467459388
 20
1832.392106654488
 30
0.0
 11
2721.138467459388
 21
1832.392106654488
 31
0.0
  0
SOLID
  5
1084
330
1F
100
AcDbEntity
  8
SUNPO
 62
   144
100
AcDbTrace
 10
2659.138467459388
 20
1834.725439987821
 30
0.0
 11
2659.138467459388
 21
1830.058773321155
 31
0.0
 12
2645.138467459388
 22
1832.392106654488
 32
0.0
 13
2645.138467459388
 23
1832.392106654488
 33
0.0
  0
SOLID
  5
1085
330
1F
100
AcDbEntity
  8
SUNPO
 62
   144
100
AcDbTrace
 10
2721.138467459388
 20
1834.725439987821
 30
0.0
 11
2721.138467459388
 21
1830.058773321155
 31
0.0
 12
2735.138467459388
 22
1832.392106654488
 32
0.0
 13
2735.138467459388
 23
1832.392106654488
 33
0.0
  0
LINE
  5
1087
330
1F
100
AcDbEntity
  8
SUNPO
 62
   144
100
AcDbLine
 10
2615.138467459388
 20
1921.192370598382
 30
0.0
 11
2615.138467459388
 21
1822.392106654488
 31
0.0
  0
LINE
  5
1088
330
1F
100
AcDbEntity
  8
SUNPO
 62
   144
100
AcDbLine
 10
2645.138467459388
 20
1921.192370598382
 30
0.0
 11
2645.138467459388
 21
1822.392106654488
 31
0.0
  0
LINE
  5
1089
330
1F
100
AcDbEntity
  8
SUNPO
 62
   144
100
AcDbLine
 10
2601.138467459388
 20
1832.392106654488
 30
0.0
 11
2587.138467459388
 21
1832.392106654488
 31
0.0
  0
LINE
  5
108A
330
1F
100
AcDbEntity
  8
SUNPO
 62
   144
100
AcDbLine
 10
2659.138467459388
 20
1832.392106654488
 30
0.0
 11
2673.138467459388
 21
1832.392106654488
 31
0.0
  0
LINE
  5
108B
330
1F
100
AcDbEntity
  8
SUNPO
 62
   144
100
AcDbLine
 10
2615.138467459388
 20
1832.392106654488
 30
0.0
 11
2645.138467459388
 21
1832.392106654488
 31
0.0
  0
SOLID
  5
108C
330
1F
100
AcDbEntity
  8
SUNPO
 62
   144
100
AcDbTrace
 10
2601.138467459388
 20
1834.725439987821
 30
0.0
 11
2601.138467459388
 21
1830.058773321155
 31
0.0
 12
2615.138467459388
 22
1832.392106654488
 32
0.0
 13
2615.138467459388
 23
1832.392106654488
 33
0.0
  0
SOLID
  5
108D
330
1F
100
AcDbEntity
  8
SUNPO
 62
   144
100
AcDbTrace
 10
2659.138467459388
 20
1834.725439987821
 30
0.0
 11
2659.138467459388
 21
1830.058773321155
 31
0.0
 12
2645.138467459388
 22
1832.392106654488
 32
0.0
 13
2645.138467459388
 23
1832.392106654488
 33
0.0
  0
LINE
  5
108F
330
1F
100
AcDbEntity
  8
SUNPO
 62
   144
100
AcDbLine
 10
2365.138467459388
 20
1921.192370598382
 30
0.0
 11
2365.138467459388
 21
1822.392106654488
 31
0.0
  0
LINE
  5
1090
330
1F
100
AcDbEntity
  8
SUNPO
 62
   144
100
AcDbLine
 10
2615.138467459388
 20
1921.192370598382
 30
0.0
 11
2615.138467459388
 21
1822.392106654488
 31
0.0
  0
LINE
  5
1091
330
1F
100
AcDbEntity
  8
SUNPO
 62
   144
100
AcDbLine
 10
2379.138467459388
 20
1832.392106654488
 30
0.0
 11
2601.138467459388
 21
1832.392106654488
 31
0.0
  0
SOLID
  5
1092
330
1F
100
AcDbEntity
  8
SUNPO
 62
   144
100
AcDbTrace
 10
2379.138467459388
 20
1834.725439987821
 30
0.0
 11
2379.138467459388
 21
1830.058773321155
 31
0.0
 12
2365.138467459388
 22
1832.392106654488
 32
0.0
 13
2365.138467459388
 23
1832.392106654488
 33
0.0
  0
SOLID
  5
1093
330
1F
100
AcDbEntity
  8
SUNPO
 62
   144
100
AcDbTrace
 10
2601.138467459388
 20
1834.725439987821
 30
0.0
 11
2601.138467459388
 21
1830.058773321155
 31
0.0
 12
2615.138467459388
 22
1832.392106654488
 32
0.0
 13
2615.138467459388
 23
1832.392106654488
 33
0.0
  0
TEXT
  5
1095
330
1F
100
AcDbEntity
  8
MOJI
100
AcDbText
 10
2449.732511453944
 20
337.6447175562516
 30
0.0
 40
80.0
  1
CBL 1＿Ｄ２ＥＮ
 41
0.5
  7
ADD
100
AcDbText
  0
TEXT
  5
1096
330
1F
100
AcDbEntity
  8
MOJI
100
AcDbText
 10
677.5419319143402
 20
355.1053653779636
 30
0.0
 40
100.0
  1
千葉市型 L型 ﾌﾞﾛｯｸ　ＣＢＬ縁塊　平切り下げ（一般）
 41
0.5
  7
ADD
100
AcDbText
  0
TEXT
  5
1097
330
1F
100
AcDbEntity
  8
MOJI
100
AcDbText
 10
3246.680311730542
 20
359.2274732162223
 30
0.0
 40
70.0
  1
１／２０
 41
0.5
  7
ADD
100
AcDbText
  0
TEXT
  5
1098
330
1F
100
AcDbEntity
  8
MOJI
100
AcDbText
 10
381.8862574011546
 20
488.6918916770627
 30
0.0
 40
50.0
  1
製品名
 41
0.5
  7
ADD
100
AcDbText
  0
TEXT
  5
1099
330
1F
100
AcDbEntity
  8
MOJI
100
AcDbText
 10
2376.290169028722
 20
494.4531736811823
 30
0.0
 40
50.0
  1
型式
 41
0.5
  7
ADD
100
AcDbText
  0
TEXT
  5
109A
330
1F
100
AcDbEntity
  8
MOJI
100
AcDbText
 10
3177.510249231658
 20
488.6918916770627
 30
0.0
 40
50.0
  1
縮尺
 41
0.5
  7
ADD
100
AcDbText
  0
TEXT
  5
109B
330
1F
100
AcDbEntity
  8
MOJI
100
AcDbText
 10
3730.870883051572
 20
352.2726133092145
 30
0.0
 40
100.0
  1
千葉県コンクリート製品協同組合
 41
0.5
  7
ADD
100
AcDbText
  0
LINE
  5
109C
330
1F
100
AcDbEntity
  8
HOJO
100
AcDbLine
 10
360.0
 20
260.0
 30
0.0
 11
5580.0
 21
260.0
 31
0.0
  0
LINE
  5
109D
330
1F
100
AcDbEntity
  8
HOJO
100
AcDbLine
 10
5580.0
 20
260.0
 30
0.0
 11
5580.0
 21
3940.0
 31
0.0
  0
LINE
  5
109E
330
1F
100
AcDbEntity
  8
HOJO
100
AcDbLine
 10
5580.0
 20
3940.0
 30
0.0
 11
360.0
 21
3940.0
 31
0.0
  0
LINE
  5
109F
330
1F
100
AcDbEntity
  8
HOJO
100
AcDbLine
 10
360.0
 20
3940.0
 30
0.0
 11
360.0
 21
260.0
 31
0.0
  0
LINE
  5
10A0
330
1F
100
AcDbEntity
  8
HOJO
100
AcDbLine
 10
0.0
 20
0.0
 30
0.0
 11
5940.0
 21
0.0
 31
0.0
  0
LINE
  5
10A1
330
1F
100
AcDbEntity
  8
HOJO
100
AcDbLine
 10
5940.0
 20
0.0
 30
0.0
 11
5940.0
 21
4200.0
 31
0.0
  0
LINE
  5
10A2
330
1F
100
AcDbEntity
  8
HOJO
100
AcDbLine
 10
5940.0
 20
4200.0
 30
0.0
 11
0.0
 21
4200.0
 31
0.0
  0
LINE
  5
10A3
330
1F
100
AcDbEntity
  8
HOJO
100
AcDbLine
 10
0.0
 20
4200.0
 30
0.0
 11
0.0
 21
0.0
 31
0.0
  0
LINE
  5
112A
330
1F
100
AcDbEntity
  8
3C1
  6
HIDDEN2
100
AcDbLine
 10
3241.919119209514
 20
2071.192370598381
 30
0.0
 11
3941.919119209515
 21
2071.192370598381
 31
0.0
  0
LINE
  5
112C
330
1F
100
AcDbEntity
  8
3C1
  6
HIDDEN2
100
AcDbLine
 10
3391.919119209514
 20
1941.192370598382
 30
0.0
 11
3391.919119209515
 21
2024.192370598382
 31
0.0
  0
LINE
  5
112D
330
1F
100
AcDbEntity
  8
3C1
  6
HIDDEN2
100
AcDbLine
 10
3791.919119209515
 20
1941.192370598382
 30
0.0
 11
3791.919119209515
 21
2024.192370598382
 31
0.0
  0
TEXT
  5
1195
330
1F
100
AcDbEntity
  8
3C1
 62
     7
100
AcDbText
 10
2454.424181745102
 20
1844.892106654488
 30
0.0
 40
50.0
  1
250
 41
0.5
  7
ADD
100
AcDbText
  0
TEXT
  5
1196
330
1F
100
AcDbEntity
  8
3C1
 62
     7
100
AcDbText
 10
2606.328943649864
 20
1844.892106654488
 30
0.0
 40
50.0
  1
30
 41
0.5
  7
ADD
100
AcDbText
  0
TEXT
  5
1197
330
1F
100
AcDbEntity
  8
3C1
 62
     7
100
AcDbText
 10
2666.328943649864
 20
1844.892106654488
 30
0.0
 40
50.0
  1
90
 41
0.5
  7
ADD
100
AcDbText
  0
TEXT
  5
1198
330
1F
100
AcDbEntity
  8
3C1
 62
     7
100
AcDbText
 10
2414.424181745102
 20
1737.515193945743
 30
0.0
 40
50.0
  1
570
 41
0.5
  7
ADD
100
AcDbText
  0
TEXT
  5
1199
330
1F
100
AcDbEntity
  8
3C1
 62
     7
100
AcDbText
 10
2069.609500855909
 20
1963.692370598383
 30
0.0
 40
50.0
  1
120
 50
90.0
 41
0.5
  7
ADD
100
AcDbText
  0
TEXT
  5
119A
330
1F
100
AcDbEntity
  8
3C1
 62
     7
100
AcDbText
 10
2414.424181745102
 20
2604.897555841504
 30
0.0
 40
50.0
  1
570
 41
0.5
  7
ADD
100
AcDbText
  0
TEXT
  5
119B
330
1F
100
AcDbEntity
  8
3C1
 62
     7
100
AcDbText
 10
2821.609170979527
 20
1975.192370598383
 30
0.0
 40
50.0
  1
143
 50
90.0
 41
0.5
  7
ADD
100
AcDbText
  0
TEXT
  5
119C
330
1F
100
AcDbEntity
  8
3C1
 62
     7
100
AcDbText
 10
2538.824404262421
 20
2016.237849126969
 30
0.0
 40
50.0
  1
60
 50
90.0
 41
0.5
  7
ADD
100
AcDbText
  0
TEXT
  5
119D
330
1F
100
AcDbEntity
  8
3C1
 62
     7
100
AcDbText
 10
3556.204833495229
 20
2604.897555841504
 30
0.0
 40
50.0
  1
700
 41
0.5
  7
ADD
100
AcDbText
  0
TEXT
  5
119E
330
1F
100
AcDbEntity
  8
3C1
 62
     7
100
AcDbText
 10
3279.419119209515
 20
1853.692370598382
 30
0.0
 40
50.0
  1
150
 41
0.5
  7
ADD
100
AcDbText
  0
TEXT
  5
119F
330
1F
100
AcDbEntity
  8
3C1
 62
     7
100
AcDbText
 10
3556.204833495229
 20
1853.692370598382
 30
0.0
 40
50.0
  1
400
 41
0.5
  7
ADD
100
AcDbText
  0
TEXT
  5
11A0
330
1F
100
AcDbEntity
  8
3C1
 62
     7
100
AcDbText
 10
3829.419119209514
 20
1853.692370598382
 30
0.0
 40
50.0
  1
150
 41
0.5
  7
ADD
100
AcDbText
  0
TEXT
  5
11A1
330
1F
100
AcDbEntity
  8
3C1
 62
     7
100
AcDbText
 10
3556.204833495229
 20
1737.515193945743
 30
0.0
 40
50.0
  1
700
 41
0.5
  7
ADD
100
AcDbText
  0
TEXT
  5
11A2
330
1F
100
AcDbEntity
  8
3C1
 62
     7
100
AcDbText
 10
3261.919119209515
 20
2427.795369425131
 30
0.0
 40
50.0
  1
115
 41
0.5
  7
ADD
100
AcDbText
  0
TEXT
  5
11A3
330
1F
100
AcDbEntity
  8
3C1
 62
     7
100
AcDbText
 10
3556.204833495229
 20
2427.795369425131
 30
0.0
 40
50.0
  1
470
 41
0.5
  7
ADD
100
AcDbText
  0
TEXT
  5
11A4
330
1F
100
AcDbEntity
  8
3C1
 62
     7
100
AcDbText
 10
3846.919119209515
 20
2427.795369425131
 30
0.0
 40
50.0
  1
115
 41
0.5
  7
ADD
100
AcDbText
  0
TEXT
  5
11A5
330
1F
100
AcDbEntity
  8
3C1
 62
     7
100
AcDbText
 10
3174.851658101846
 20
1963.692370598383
 30
0.0
 40
50.0
  1
120
 50
90.0
 41
0.5
  7
ADD
100
AcDbText
  0
TEXT
  5
11A6
330
1F
100
AcDbEntity
  8
3C1
 62
     7
100
AcDbText
 10
4032.832309969247
 20
1975.192370598383
 30
0.0
 40
50.0
  1
143
 50
90.0
 41
0.5
  7
ADD
100
AcDbText
  0
TEXT
  5
11A7
330
1F
100
AcDbEntity
  8
3C1
 62
     7
100
AcDbText
 10
2229.424181745102
 20
1844.892106654488
 30
0.0
 40
50.0
  1
200
 41
0.5
  7
ADD
100
AcDbText
  0
TEXT
  5
11A8
330
1F
100
AcDbEntity
  8
3C1
 62
     7
100
AcDbText
 10
2069.609500855909
 20
2052.382846788859
 30
0.0
 40
50.0
  1
30
 50
90.0
 41
0.5
  7
ADD
100
AcDbText
  0
TEXT
  5
11A9
330
1F
100
AcDbEntity
  8
3C1
 62
     7
100
AcDbText
 10
2327.924850069009
 20
2042.29723917177
 30
0.0
 40
50.0
  1
10
 50
90.0
 41
0.5
  7
ADD
100
AcDbText
  0
TEXT
  5
11AA
330
1F
100
AcDbEntity
  8
3C1
 62
     7
100
AcDbText
 10
3174.851658101846
 20
2052.382846788881
 30
0.0
 40
50.0
  1
30
 50
90.0
 41
0.5
  7
ADD
100
AcDbText
  0
TEXT
  5
11AB
330
1F
100
AcDbEntity
  8
3C1
 62
     7
100
AcDbText
 10
3076.816398077071
 20
1978.692370598383
 30
0.0
 40
50.0
  1
150
 50
90.0
 41
0.5
  7
ADD
100
AcDbText
  0
TEXT
  5
11AC
330
1F
100
AcDbEntity
  8
3C1
 62
     7
100
AcDbText
 10
2229.424181745102
 20
2427.795369425131
 30
0.0
 40
50.0
  1
200
 41
0.5
  7
ADD
100
AcDbText
  0
TEXT
  5
11AD
330
1F
100
AcDbEntity
  8
3C1
 62
     7
100
AcDbText
 10
2514.424181745102
 20
2427.795369425131
 30
0.0
 40
50.0
  1
370
 41
0.5
  7
ADD
100
AcDbText
  0
VIEWPORT
  5
72
330
1B
100
AcDbEntity
 67
     1
  8
0
100
AcDbViewport
 10
449.2508750000001
 20
277.0
 30
0.0
 40
987.8040000000002
 41
628.4520000000001
 68
     1
 69
     1
1001
ACAD
1000
MVIEW
1002
{
1070
    16
1010
0.0
1020
0.0
1030
0.0
1010
0.0
1020
0.0
1030
1.0
1040
0.0
1040
628.4520000000001
1040
449.2508750000001
1040
277.0
1040
50.0
1040
0.0
1040
0.0
1070
     0
1070
   100
1070
     1
1070
     1
1070
     0
1070
     0
1070
     0
1070
     0
1040
0.0
1040
0.0
1040
0.0
1040
10.0
1040
10.0
1040
10.0
1040
10.0
1070
     0
1002
{
1002
}
1002
}
  0
VIEWPORT
  5
74
330
1B
100
AcDbEntity
 67
     1
  8
VIEWPORT
100
AcDbViewport
 10
414.3779638919211
 20
277.3177265058034
 30
0.0
 40
840.0353682728887
 41
567.2285469943826
 68
     2
 69
     2
1001
ACAD
1000
MVIEW
1002
{
1070
    16
1010
0.0
1020
0.0
1030
0.0
1010
0.0
1020
0.0
1030
1.0
1040
0.0
1040
579.5583043546323
1040
424.4938908624541
1040
286.1973242720074
1040
50.0
1040
0.0
1040
0.0
1070
     0
1070
   100
1070
     1
1070
     1
1070
     0
1070
     0
1070
     0
1070
     0
1040
0.0
1040
0.0
1040
0.0
1040
10.0
1040
10.0
1040
10.0
1040
10.0
1070
     0
1002
{
1002
}
1002
}
  0
ENDSEC
  0
SECTION
  2
OBJECTS
  0
DICTIONARY
  5
C
330
0
100
AcDbDictionary
  3
ACAD_GROUP
350
D
  3
ACAD_LAYOUT
350
1A
  3
ACAD_MLINESTYLE
350
17
  3
ACAD_PLOTSETTINGS
350
19
  3
DWGPROPS
350
4C7
1001
ACAD
1000
TREAT_AS_HARD
1070
     0
  0
DICTIONARY
  5
6A1
330
1F
100
AcDbDictionary
  3
ACAD_LAYOUTSELFREF
350
11B0
1001
ACAD
1000
TREAT_AS_HARD
1070
     1
  0
DICTIONARY
  5
6A3
330
1B
100
AcDbDictionary
  3
ACAD_LAYOUTSELFREF
350
11AF
1001
ACAD
1000
TREAT_AS_HARD
1070
     1
  0
DICTIONARY
  5
D
102
{ACAD_REACTORS
330
C
102
}
330
C
100
AcDbDictionary
1001
ACAD
1000
TREAT_AS_HARD
1070
     0
  0
DICTIONARY
  5
1A
102
{ACAD_REACTORS
330
C
102
}
330
C
100
AcDbDictionary
1001
ACAD
1000
TREAT_AS_HARD
1070
     0
  0
DICTIONARY
  5
17
102
{ACAD_REACTORS
330
C
102
}
330
C
100
AcDbDictionary
  3
STANDARD
350
18
1001
ACAD
1000
TREAT_AS_HARD
1070
     0
  0
DICTIONARY
  5
19
102
{ACAD_REACTORS
330
C
102
}
330
C
100
AcDbDictionary
1001
ACAD
1000
TREAT_AS_HARD
1070
     0
  0
XRECORD
  5
4C7
102
{ACAD_REACTORS
330
C
102
}
330
C
100
AcDbXrecord
  1
DWGPROPS COOKIE
  2
印刷用テスト
  3
AutoCAD2000による建築設計
  4
鈴木 裕二
  6

  7

  8
U2
  9

300
=
301
=
302
=
303
=
304
=
305
=
306
=
307
=
308
=
309
=
 40
0.7653446875
 41
2451285.4846114
 42
2451333.689743032
  1

 90
        0
  0
XRECORD
  5
11B0
102
{ACAD_REACTORS
330
6A1
102
}
330
6A1
100
AcDbXrecord
340
1F
  0
XRECORD
  5
11AF
102
{ACAD_REACTORS
330
6A3
102
}
330
6A3
100
AcDbXrecord
340
1B
  0
MLINESTYLE
  5
18
102
{ACAD_REACTORS
330
17
102
}
330
17
100
AcDbMlineStyle
  2
STANDARD
 70
     0
  3

 62
   256
 51
90.0
 52
90.0
 71
     2
 49
0.5
 62
   256
  6
BYLAYER
 49
-0.5
 62
   256
  6
BYLAYER
  0
ENDSEC
  0
EOF
