  0
SECTION
  2
HEADER
  9
$ACADVER
  1
AC1012
  9
$DWGCODEPAGE
  3
dos932
  9
$INSBASE
 10
0.0
 20
0.0
 30
0.0
  9
$EXTMIN
 10
-0.3625322315383528
 20
-0.2563359212872456
 30
-0.0000000349181948
  9
$EXTMAX
 10
5940.362587553781
 20
4200.256375038029
 30
0.0000000814935746
  9
$LIMMIN
 10
0.0
 20
0.0
  9
$LIMMAX
 10
5940.0
 20
4200.0
  9
$ORTHOMODE
 70
     0
  9
$REGENMODE
 70
     1
  9
$FILLMODE
 70
     1
  9
$QTEXTMODE
 70
     0
  9
$MIRRTEXT
 70
     0
  9
$DRAGMODE
 70
     2
  9
$LTSCALE
 40
10.0
  9
$OSMODE
 70
  3071
  9
$ATTMODE
 70
     1
  9
$TEXTSIZE
 40
120.0
  9
$TRACEWID
 40
1.0
  9
$TEXTSTYLE
  7
ADD
  9
$CLAYER
  8
3C1
  9
$CELTYPE
  6
BYLAYER
  9
$CECOLOR
 62
   256
  9
$CELTSCALE
 40
1.0
  9
$DELOBJ
 70
     1
  9
$DISPSILH
 70
     0
  9
$DIMSCALE
 40
20.0
  9
$DIMASZ
 40
2.5
  9
$DIMEXO
 40
1.0
  9
$DIMDLI
 40
7.0
  9
$DIMRND
 40
0.0
  9
$DIMDLE
 40
0.0
  9
$DIMEXE
 40
0.5
  9
$DIMTP
 40
0.0
  9
$DIMTM
 40
0.0
  9
$DIMTXT
 40
2.5
  9
$DIMCEN
 40
2.5
  9
$DIMTSZ
 40
0.0
  9
$DIMTOL
 70
     0
  9
$DIMLIM
 70
     0
  9
$DIMTIH
 70
     0
  9
$DIMTOH
 70
     0
  9
$DIMSE1
 70
     0
  9
$DIMSE2
 70
     0
  9
$DIMTAD
 70
     1
  9
$DIMZIN
 70
     8
  9
$DIMBLK
  1

  9
$DIMASO
 70
     1
  9
$DIMSHO
 70
     1
  9
$DIMPOST
  1

  9
$DIMAPOST
  1

  9
$DIMALT
 70
     0
  9
$DIMALTD
 70
     3
  9
$DIMALTF
 40
0.03937007874016
  9
$DIMLFAC
 40
1.0
  9
$DIMTOFL
 70
     1
  9
$DIMTVP
 40
0.7
  9
$DIMTIX
 70
     1
  9
$DIMSOXD
 70
     0
  9
$DIMSAH
 70
     0
  9
$DIMBLK1
  1

  9
$DIMBLK2
  1

  9
$DIMSTYLE
  2
ADD
  9
$DIMCLRD
 70
   144
  9
$DIMCLRE
 70
   144
  9
$DIMCLRT
 70
     7
  9
$DIMTFAC
 40
1.0
  9
$DIMGAP
 40
0.625
  9
$DIMJUST
 70
     0
  9
$DIMSD1
 70
     0
  9
$DIMSD2
 70
     0
  9
$DIMTOLJ
 70
     2
  9
$DIMTZIN
 70
     8
  9
$DIMALTZ
 70
     0
  9
$DIMALTTZ
 70
     0
  9
$DIMFIT
 70
     5
  9
$DIMUPT
 70
     0
  9
$DIMUNIT
 70
     2
  9
$DIMDEC
 70
     1
  9
$DIMTDEC
 70
     1
  9
$DIMALTU
 70
     2
  9
$DIMALTTD
 70
     3
  9
$DIMTXSTY
  7
ADD
  9
$DIMAUNIT
 70
     0
  9
$LUNITS
 70
     2
  9
$LUPREC
 70
     4
  9
$SKETCHINC
 40
1.0
  9
$FILLETRAD
 40
20.0
  9
$AUNITS
 70
     0
  9
$AUPREC
 70
     1
  9
$MENU
  1
.
  9
$ELEVATION
 40
0.0
  9
$PELEVATION
 40
0.0
  9
$THICKNESS
 40
0.0
  9
$LIMCHECK
 70
     0
  9
$BLIPMODE
 70
     0
  9
$CHAMFERA
 40
10.0
  9
$CHAMFERB
 40
10.0
  9
$CHAMFERC
 40
20.0
  9
$CHAMFERD
 40
0.0
  9
$SKPOLY
 70
     0
  9
$TDCREATE
 40
2451801.142532870
  9
$TDUPDATE
 40
2452537.608487233
  9
$TDINDWG
 40
0.2391476852
  9
$TDUSRTIMER
 40
0.2391476852
  9
$USRTIMER
 70
     1
  9
$ANGBASE
 50
0.0
  9
$ANGDIR
 70
     0
  9
$PDMODE
 70
     0
  9
$PDSIZE
 40
0.0
  9
$PLINEWID
 40
0.0
  9
$COORDS
 70
     1
  9
$SPLFRAME
 70
     0
  9
$SPLINETYPE
 70
     6
  9
$SPLINESEGS
 70
     8
  9
$ATTDIA
 70
     0
  9
$ATTREQ
 70
     1
  9
$HANDLING
 70
 22529
  9
$HANDSEED
  5
11C8
  9
$SURFTAB1
 70
     6
  9
$SURFTAB2
 70
     6
  9
$SURFTYPE
 70
     6
  9
$SURFU
 70
     6
  9
$SURFV
 70
     6
  9
$UCSNAME
  2

  9
$UCSORG
 10
0.0
 20
0.0
 30
0.0
  9
$UCSXDIR
 10
1.0
 20
0.0
 30
0.0
  9
$UCSYDIR
 10
0.0
 20
1.0
 30
0.0
  9
$PUCSNAME
  2

  9
$PUCSORG
 10
0.0
 20
0.0
 30
0.0
  9
$PUCSXDIR
 10
1.0
 20
0.0
 30
0.0
  9
$PUCSYDIR
 10
0.0
 20
1.0
 30
0.0
  9
$USERI1
 70
     0
  9
$USERI2
 70
     0
  9
$USERI3
 70
     0
  9
$USERI4
 70
     0
  9
$USERI5
 70
     0
  9
$USERR1
 40
841.0
  9
$USERR2
 40
594.0
  9
$USERR3
 40
1.0
  9
$USERR4
 40
0.0
  9
$USERR5
 40
0.0
  9
$WORLDVIEW
 70
     1
  9
$SHADEDGE
 70
     3
  9
$SHADEDIF
 70
    70
  9
$TILEMODE
 70
     1
  9
$MAXACTVP
 70
    48
  9
$PINSBASE
 10
0.0
 20
0.0
 30
0.0
  9
$PLIMCHECK
 70
     0
  9
$PEXTMIN
 10
-5.639720244523232
 20
-6.296546991387913
 30
0.0
  9
$PEXTMAX
 10
834.3956480283654
 20
560.9320000029947
 30
0.0
  9
$PLIMMIN
 10
-7.500000000000001
 20
-20.0
  9
$PLIMMAX
 10
833.5000000000002
 20
574.0000000000001
  9
$UNITMODE
 70
     0
  9
$VISRETAIN
 70
     1
  9
$PLINEGEN
 70
     0
  9
$PSLTSCALE
 70
     1
  9
$TREEDEPTH
 70
  3020
  9
$PICKSTYLE
 70
     1
  9
$CMLSTYLE
  2
STANDARD
  9
$CMLJUST
 70
     0
  9
$CMLSCALE
 40
20.0
  9
$SAVEIMAGES
 70
     1
  0
ENDSEC
  0
SECTION
  2
CLASSES
  0
CLASS
  1
ACDBDICTIONARYWDFLT
  2
AcDbDictionaryWithDefault
  3
AutoCAD 2000
 90
    32768
280
     0
281
     0
  0
CLASS
  1
ACDBPLACEHOLDER
  2
AcDbPlaceHolder
  3
AutoCAD 2000
 90
    32768
280
     0
281
     0
  0
CLASS
  1
LAYOUT
  2
AcDbLayout
  3
AutoCAD 2000
 90
    32768
280
     0
281
     0
  0
CLASS
  1
RTEXT
  2
RText
  3
RText|AutoCAD Express Tool|expresstools@autodesk.com
 90
    32768
280
     0
281
     1
  0
CLASS
  1
DICTIONARYVAR
  2
AcDbDictionaryVar
  3
AutoCAD 2000
 90
    32768
280
     0
281
     0
  0
CLASS
  1
LONG_TRANSACTION
  2
AcDbLongTransaction
  3
AutoCAD 2000
 90
    32768
280
     0
281
     0
  0
CLASS
  1
LWPOLYLINE
  2
AcDbPolyline
  3
AutoCAD 2000
 90
    32768
280
     0
281
     1
  0
CLASS
  1
HATCH
  2
AcDbHatch
  3
AutoCAD 2000
 90
    32768
280
     0
281
     1
  0
CLASS
  1
XRECORD
  2
AcDbXrecord
  3
AutoCAD 2000
 90
    32768
280
     0
281
     0
  0
CLASS
  1
LONG_TRANSACTION
  2
AcDbLongTransaction
  3
AutoCAD 2000
 90
    32768
280
     0
281
     0
  0
CLASS
  1
LWPOLYLINE
  2
AcDbPolyline
  3
AutoCAD 2000
 90
    32768
280
     0
281
     1
  0
CLASS
  1
HATCH
  2
AcDbHatch
  3
AutoCAD 2000
 90
    32768
280
     0
281
     1
  0
CLASS
  1
XRECORD
  2
AcDbXrecord
  3
AutoCAD 2000
 90
    32768
280
     0
281
     0
  0
CLASS
  1
LONG_TRANSACTION
  2
AcDbLongTransaction
  3
AutoCAD 2000
 90
    32768
280
     0
281
     0
  0
CLASS
  1
LWPOLYLINE
  2
AcDbPolyline
  3
AutoCAD 2000
 90
    32768
280
     0
281
     1
  0
CLASS
  1
HATCH
  2
AcDbHatch
  3
AutoCAD 2000
 90
    32768
280
     0
281
     1
  0
CLASS
  1
XRECORD
  2
AcDbXrecord
  3
AutoCAD 2000
 90
    32768
280
     0
281
     0
  0
CLASS
  1
LONG_TRANSACTION
  2
AcDbLongTransaction
  3
AutoCAD 2000
 90
    32768
280
     0
281
     0
  0
CLASS
  1
LWPOLYLINE
  2
AcDbPolyline
  3
AutoCAD 2000
 90
    32768
280
     0
281
     1
  0
CLASS
  1
HATCH
  2
AcDbHatch
  3
AutoCAD 2000
 90
    32768
280
     0
281
     1
  0
CLASS
  1
XRECORD
  2
AcDbXrecord
  3
AutoCAD 2000
 90
    32768
280
     0
281
     0
  0
ENDSEC
  0
SECTION
  2
TABLES
  0
TABLE
  2
VPORT
  5
8
330
0
100
AcDbSymbolTable
 70
     4
  0
VPORT
  5
11B8
330
8
100
AcDbSymbolTableRecord
100
AcDbViewportTableRecord
  2
*ACTIVE
 70
     0
 10
0.0
 20
0.0
 11
1.0
 21
1.0
 12
2970.000027661122
 22
2100.00001955837
 13
0.0
 23
0.0
 14
50.0
 24
50.0
 15
50.0
 25
50.0
 16
0.0
 26
0.0
 36
1.0
 17
0.0
 27
0.0
 37
0.0
 40
4232.055985384542
 41
1.510025062656641
 42
50.0
 43
0.0
 44
0.0
 50
0.0
 51
0.0
 71
     0
 72
   100
 73
     1
 74
     1
 75
     0
 76
     0
 77
     0
 78
     0
  0
ENDTAB
  0
TABLE
  2
LTYPE
  5
5
330
0
100
AcDbSymbolTable
 70
     5
  0
LTYPE
  5
14
330
5
100
AcDbSymbolTableRecord
100
AcDbLinetypeTableRecord
  2
BYBLOCK
 70
     0
  3

 72
    65
 73
     0
 40
0.0
  0
LTYPE
  5
15
330
5
100
AcDbSymbolTableRecord
100
AcDbLinetypeTableRecord
  2
BYLAYER
 70
     0
  3

 72
    65
 73
     0
 40
0.0
  0
LTYPE
  5
16
330
5
100
AcDbSymbolTableRecord
100
AcDbLinetypeTableRecord
  2
CONTINUOUS
 70
     0
  3
Solid line
 72
    65
 73
     0
 40
0.0
  0
LTYPE
  5
555
330
5
100
AcDbSymbolTableRecord
100
AcDbLinetypeTableRecord
  2
CENTER
 70
     0
  3
Center ____ _ ____ _ ____ _ ____ _ ____ _ ____
 72
    65
 73
     4
 40
50.8
 49
31.75
 74
     0
 49
-6.349999999999999
 74
     0
 49
6.349999999999999
 74
     0
 49
-6.349999999999999
 74
     0
  0
LTYPE
  5
556
330
5
100
AcDbSymbolTableRecord
100
AcDbLinetypeTableRecord
  2
HIDDEN
 70
     0
  3
Hidden __ __ __ __ __ __ __ __ __ __ __ __ __ _
 72
    65
 73
     2
 40
9.524999999999998
 49
6.349999999999999
 74
     0
 49
-3.174999999999999
 74
     0
  0
LTYPE
  5
557
330
5
100
AcDbSymbolTableRecord
100
AcDbLinetypeTableRecord
  2
HIDDEN2
 70
     0
  3
Hidden (.5x) _ _ _ _ _ _ _ _ _ _ _ _ _ _ _ _ _
 72
    65
 73
     2
 40
4.762499999999999
 49
3.174999999999999
 74
     0
 49
-1.587499999999999
 74
     0
  0
LTYPE
  5
558
330
5
100
AcDbSymbolTableRecord
100
AcDbLinetypeTableRecord
  2
PHANTOM
 70
     0
  3
Phantom ______  __  __  ______  __  __  ______
 72
    65
 73
     6
 40
63.5
 49
31.75
 74
     0
 49
-6.349999999999999
 74
     0
 49
6.349999999999999
 74
     0
 49
-6.349999999999999
 74
     0
 49
6.349999999999999
 74
     0
 49
-6.349999999999999
 74
     0
  0
ENDTAB
  0
TABLE
  2
LAYER
  5
2
330
0
100
AcDbSymbolTable
 70
    22
  0
LAYER
  5
10
330
2
100
AcDbSymbolTableRecord
100
AcDbLayerTableRecord
  2
0
 70
     0
 62
     7
  6
CONTINUOUS
  0
LAYER
  5
75
330
2
100
AcDbSymbolTableRecord
100
AcDbLayerTableRecord
  2
VIEWPORT
 70
     0
 62
     1
  6
CONTINUOUS
  0
LAYER
  5
504
330
2
100
AcDbSymbolTableRecord
100
AcDbLayerTableRecord
  2
DEFPOINTS
 70
     0
 62
     7
  6
CONTINUOUS
  0
LAYER
  5
505
330
2
100
AcDbSymbolTableRecord
100
AcDbLayerTableRecord
  2
1C1
 70
     0
 62
   254
  6
CONTINUOUS
  0
LAYER
  5
506
330
2
100
AcDbSymbolTableRecord
100
AcDbLayerTableRecord
  2
1C2
 70
     0
 62
   254
  6
CONTINUOUS
  0
LAYER
  5
507
330
2
100
AcDbSymbolTableRecord
100
AcDbLayerTableRecord
  2
2C1
 70
     0
 62
   144
  6
CONTINUOUS
  0
LAYER
  5
508
330
2
100
AcDbSymbolTableRecord
100
AcDbLayerTableRecord
  2
2C2
 70
     0
 62
   144
  6
CONTINUOUS
  0
LAYER
  5
509
330
2
100
AcDbSymbolTableRecord
100
AcDbLayerTableRecord
  2
2H1
 70
     0
 62
   144
  6
HIDDEN
  0
LAYER
  5
50A
330
2
100
AcDbSymbolTableRecord
100
AcDbLayerTableRecord
  2
2H2
 70
     0
 62
   144
  6
HIDDEN2
  0
LAYER
  5
50B
330
2
100
AcDbSymbolTableRecord
100
AcDbLayerTableRecord
  2
2P1
 70
     0
 62
   144
  6
PHANTOM
  0
LAYER
  5
50C
330
2
100
AcDbSymbolTableRecord
100
AcDbLayerTableRecord
  2
3C1
 70
     0
 62
     7
  6
CONTINUOUS
  0
LAYER
  5
50D
330
2
100
AcDbSymbolTableRecord
100
AcDbLayerTableRecord
  2
3C2
 70
     0
 62
     7
  6
CONTINUOUS
  0
LAYER
  5
50E
330
2
100
AcDbSymbolTableRecord
100
AcDbLayerTableRecord
  2
3C3
 70
     0
 62
     7
  6
CONTINUOUS
  0
LAYER
  5
50F
330
2
100
AcDbSymbolTableRecord
100
AcDbLayerTableRecord
  2
4H1
 70
     0
 62
     6
  6
HIDDEN
  0
LAYER
  5
510
330
2
100
AcDbSymbolTableRecord
100
AcDbLayerTableRecord
  2
4H2
 70
     0
 62
     6
  6
HIDDEN2
  0
LAYER
  5
511
330
2
100
AcDbSymbolTableRecord
100
AcDbLayerTableRecord
  2
5C1
 70
     0
 62
    55
  6
CONTINUOUS
  0
LAYER
  5
512
330
2
100
AcDbSymbolTableRecord
100
AcDbLayerTableRecord
  2
5C2
 70
     0
 62
    55
  6
CONTINUOUS
  0
LAYER
  5
513
330
2
100
AcDbSymbolTableRecord
100
AcDbLayerTableRecord
  2
8C1
 70
     0
 62
    92
  6
CONTINUOUS
  0
LAYER
  5
514
330
2
100
AcDbSymbolTableRecord
100
AcDbLayerTableRecord
  2
HOJO
 70
     0
 62
     5
  6
CONTINUOUS
  0
LAYER
  5
515
330
2
100
AcDbSymbolTableRecord
100
AcDbLayerTableRecord
  2
KIJUN
 70
     0
 62
     1
  6
CENTER
  0
LAYER
  5
516
330
2
100
AcDbSymbolTableRecord
100
AcDbLayerTableRecord
  2
MOJI
 70
     0
 62
     7
  6
CONTINUOUS
  0
LAYER
  5
517
330
2
100
AcDbSymbolTableRecord
100
AcDbLayerTableRecord
  2
SUNPO
 70
     0
 62
   144
  6
CONTINUOUS
  0
ENDTAB
  0
TABLE
  2
STYLE
  5
3
330
0
100
AcDbSymbolTable
 70
     7
  0
STYLE
  5
11
330
3
100
AcDbSymbolTableRecord
100
AcDbTextStyleTableRecord
  2
STANDARD
 70
     0
 40
0.0
 41
1.0
 50
0.0
 71
     0
 42
2.5
  3
txt
  4

  0
STYLE
  5
2C
330
3
100
AcDbSymbolTableRecord
100
AcDbTextStyleTableRecord
  2

 70
     1
 40
0.0
 41
1.0
 50
0.0
 71
     0
 42
2.5
  3
ltypeshp.shx
  4

  0
STYLE
  5
18E
330
3
100
AcDbSymbolTableRecord
100
AcDbTextStyleTableRecord
  2
ADD
 70
     0
 40
0.0
 41
0.5
 50
0.0
 71
     0
 42
120.0
  3
romans.shx
  4
bigfont.shx
  0
STYLE
  5
191
330
3
100
AcDbSymbolTableRecord
100
AcDbTextStyleTableRecord
  2
MSG
 70
     0
 40
0.0
 41
1.0
 50
0.0
 71
     0
 42
2.5
  3
MS Gothic.ttf
  4

1001
ACAD
1000
MS Gothic
1071
    32817
  0
STYLE
  5
5C8
330
3
100
AcDbSymbolTableRecord
100
AcDbTextStyleTableRecord
  2
STANDARD15
 70
     0
 40
0.0
 41
1.0
 50
15.0
 71
     0
 42
2.5
  3
ROMANS
  4
bigfont
  0
STYLE
  5
5C9
330
3
100
AcDbSymbolTableRecord
100
AcDbTextStyleTableRecord
  2
ROMANS15
 70
     0
 40
0.0
 41
1.0
 50
15.0
 71
     0
 42
2.5
  3
romans
  4

  0
STYLE
  5
781
330
3
100
AcDbSymbolTableRecord
100
AcDbTextStyleTableRecord
  2
ｽﾀｲﾙ1
 70
     0
 40
0.0
 41
1.0
 50
0.0
 71
     0
 42
120.0
  3
romans.shx
  4
bigfont.shx
  0
ENDTAB
  0
TABLE
  2
VIEW
  5
6
330
0
100
AcDbSymbolTable
 70
     1
  0
VIEW
  5
54D
330
6
100
AcDbSymbolTableRecord
100
AcDbViewTableRecord
  2
ALL
 70
     0
 40
594.0
 10
420.5
 20
297.0
 41
865.125
 11
0.0
 21
0.0
 31
1.0
 12
0.0
 22
0.0
 32
0.0
 42
50.0
 43
0.0
 44
0.0
 50
0.0
 71
     0
  0
ENDTAB
  0
TABLE
  2
UCS
  5
7
330
0
100
AcDbSymbolTable
 70
     0
  0
ENDTAB
  0
TABLE
  2
APPID
  5
9
330
0
100
AcDbSymbolTable
 70
     4
  0
APPID
  5
12
330
9
100
AcDbSymbolTableRecord
100
AcDbRegAppTableRecord
  2
ACAD
 70
     0
  0
APPID
  5
5CB
330
9
100
AcDbSymbolTableRecord
100
AcDbRegAppTableRecord
  2
ARAIGUMI_YOHEKI
 70
     0
  0
APPID
  5
5CC
330
9
100
AcDbSymbolTableRecord
100
AcDbRegAppTableRecord
  2
CONTENTTABDATA
 70
     0
  0
APPID
  5
5CD
330
9
100
AcDbSymbolTableRecord
100
AcDbRegAppTableRecord
  2
CONTENTCURRENTTAB
 70
     0
  0
ENDTAB
  0
TABLE
  2
DIMSTYLE
  5
A
330
0
100
AcDbSymbolTable
 70
    10
  0
DIMSTYLE
105
27
330
A
100
AcDbSymbolTableRecord
100
AcDbDimStyleTableRecord
  2
ISO-25
 70
     0
  3

  4

  5

  6

  7

 40
1.0
 41
2.5
 42
0.625
 43
3.75
 44
1.25
 45
0.0
 46
0.0
 47
0.0
 48
0.0
140
2.5
141
2.5
142
0.0
143
0.03937007874016
144
1.0
145
0.0
146
1.0
147
0.625
 71
     0
 72
     0
 73
     0
 74
     0
 75
     0
 76
     0
 77
     1
 78
     8
170
     0
171
     3
172
     1
173
     0
174
     0
175
     0
176
     0
177
     0
178
     0
270
     2
271
     2
272
     2
273
     2
274
     3
340
11
275
     0
280
     0
281
     0
282
     0
283
     0
284
     8
285
     0
286
     0
287
     3
288
     0
  0
DIMSTYLE
105
197
330
A
100
AcDbSymbolTableRecord
100
AcDbDimStyleTableRecord
  2
ADD
 70
     0
  3

  4

  5

  6

  7

 40
1.0
 41
2.5
 42
1.0
 43
7.0
 44
0.5
 45
0.0
 46
0.0
 47
0.0
 48
0.0
140
2.5
141
2.5
142
0.0
143
0.03937007874016
144
1.0
145
0.7
146
1.0
147
0.625
 71
     0
 72
     0
 73
     0
 74
     0
 75
     0
 76
     0
 77
     1
 78
     8
170
     0
171
     3
172
     1
173
     0
174
     1
175
     0
176
   144
177
   144
178
     7
270
     2
271
     1
272
     1
273
     2
274
     3
340
18E
275
     0
280
     0
281
     0
282
     0
283
     2
284
     8
285
     0
286
     0
287
     5
288
     0
  0
DIMSTYLE
105
3E6
330
A
100
AcDbSymbolTableRecord
100
AcDbDimStyleTableRecord
  2
ADD$2
 70
     0
  3

  4

  5

  6

  7

 40
1.0
 41
3.0
 42
1.0
 43
7.0
 44
0.5
 45
0.0
 46
0.0
 47
0.0
 48
0.0
140
2.5
141
2.5
142
0.0
143
0.03937007874016
144
1.0
145
0.7
146
1.0
147
0.625
 71
     0
 72
     0
 73
     0
 74
     0
 75
     0
 76
     0
 77
     1
 78
     8
170
     0
171
     3
172
     1
173
     0
174
     1
175
     0
176
   144
177
   144
178
     7
270
     2
271
     1
272
     1
273
     2
274
     3
340
18E
275
     0
280
     0
281
     0
282
     0
283
     2
284
     8
285
     0
286
     0
287
     5
288
     0
  0
DIMSTYLE
105
3E7
330
A
100
AcDbSymbolTableRecord
100
AcDbDimStyleTableRecord
  2
ADD$4
 70
     0
  3

  4

  5

  6

  7

 40
1.0
 41
2.0
 42
1.0
 43
7.0
 44
0.5
 45
0.0
 46
0.0
 47
0.0
 48
0.0
140
2.5
141
2.0
142
0.0
143
0.03937007874016
144
1.0
145
0.0
146
1.0
147
0.625
 71
     0
 72
     0
 73
     0
 74
     0
 75
     0
 76
     0
 77
     1
 78
     8
170
     0
171
     3
172
     1
173
     0
174
     1
175
     0
176
   144
177
   144
178
     7
270
     2
271
     1
272
     1
273
     2
274
     3
340
18E
275
     0
280
     0
281
     0
282
     0
283
     2
284
     8
285
     0
286
     0
287
     5
288
     0
  0
DIMSTYLE
105
3E8
330
A
100
AcDbSymbolTableRecord
100
AcDbDimStyleTableRecord
  2
ADD$3
 70
     0
  3

  4

  5

  6

  7

 40
1.0
 41
3.0
 42
1.0
 43
7.0
 44
0.5
 45
0.0
 46
0.0
 47
0.0
 48
0.0
140
2.5
141
2.5
142
0.0
143
0.03937007874016
144
1.0
145
0.0
146
1.0
147
0.625
 71
     0
 72
     0
 73
     0
 74
     0
 75
     0
 76
     0
 77
     1
 78
     8
170
     0
171
     3
172
     1
173
     0
174
     1
175
     0
176
   144
177
   144
178
     7
270
     2
271
     1
272
     1
273
     2
274
     3
340
18E
275
     0
280
     0
281
     0
282
     0
283
     2
284
     8
285
     0
286
     0
287
     5
288
     0
  0
DIMSTYLE
105
3E9
330
A
100
AcDbSymbolTableRecord
100
AcDbDimStyleTableRecord
  2
ADD$6
 70
     0
  3

  4

  5

  6

  7

 40
1.0
 41
2.5
 42
1.0
 43
7.0
 44
0.5
 45
0.0
 46
0.0
 47
0.0
 48
0.0
140
2.5
141
2.5
142
0.0
143
0.03937007874016
144
1.0
145
0.0
146
1.0
147
0.625
 71
     0
 72
     0
 73
     0
 74
     0
 75
     0
 76
     0
 77
     1
 78
     8
170
     0
171
     3
172
     1
173
     0
174
     1
175
     0
176
   144
177
   144
178
     7
270
     2
271
     1
272
     1
273
     2
274
     3
340
18E
275
     0
280
     0
281
     0
282
     0
283
     2
284
     8
285
     0
286
     0
287
     5
288
     0
  0
DIMSTYLE
105
3EA
330
A
100
AcDbSymbolTableRecord
100
AcDbDimStyleTableRecord
  2
ADD$7
 70
     0
  3

  4

  5

  6

  7

 40
1.0
 41
3.0
 42
1.0
 43
7.0
 44
0.5
 45
0.0
 46
0.0
 47
0.0
 48
0.0
140
2.5
141
2.5
142
0.0
143
0.03937007874016
144
1.0
145
0.0
146
1.0
147
0.625
 71
     0
 72
     0
 73
     0
 74
     0
 75
     0
 76
     0
 77
     0
 78
     8
170
     0
171
     3
172
     1
173
     0
174
     1
175
     0
176
   144
177
   144
178
     7
270
     2
271
     1
272
     1
273
     2
274
     3
340
18E
275
     0
280
     0
281
     0
282
     0
283
     2
284
     8
285
     0
286
     0
287
     5
288
     0
  0
DIMSTYLE
105
518
330
A
100
AcDbSymbolTableRecord
100
AcDbDimStyleTableRecord
  2
STANDARD
 70
     0
  3

  4

  5

  6

  7

 40
1.0
 41
0.18
 42
0.0625
 43
0.38
 44
0.18
 45
0.0
 46
0.0
 47
0.0
 48
0.0
140
0.18
141
0.09
142
0.0
143
25.4
144
1.0
145
0.0
146
1.0
147
0.09
 71
     0
 72
     0
 73
     1
 74
     1
 75
     0
 76
     0
 77
     0
 78
     0
170
     0
171
     2
172
     0
173
     0
174
     0
175
     0
176
     0
177
     0
178
     0
270
     2
271
     4
272
     4
273
     2
274
     2
340
11
275
     0
280
     0
281
     0
282
     0
283
     1
284
     0
285
     0
286
     0
287
     3
288
     0
  0
DIMSTYLE
105
550
330
A
100
AcDbSymbolTableRecord
100
AcDbDimStyleTableRecord
  2
ADD$0
 70
     0
  3

  4

  5

  6

  7

 40
1.0
 41
0.7
 42
1.0
 43
7.0
 44
0.5
 45
0.0
 46
0.0
 47
0.0
 48
0.0
140
2.5
141
2.5
142
0.0
143
0.03937007874016
144
1.0
145
0.7
146
1.0
147
0.625
 71
     0
 72
     0
 73
     0
 74
     0
 75
     0
 76
     0
 77
     1
 78
     8
170
     0
171
     3
172
     1
173
     0
174
     1
175
     0
176
   144
177
   144
178
     7
270
     2
271
     1
272
     1
273
     2
274
     3
340
18E
275
     0
280
     0
281
     0
282
     0
283
     2
284
     8
285
     0
286
     0
287
     5
288
     0
  0
DIMSTYLE
105
59B
330
A
100
AcDbSymbolTableRecord
100
AcDbDimStyleTableRecord
  2
ADD_M
 70
     0
  3

  4

  5

  6

  7

 40
1.0
 41
2.5
 42
1.0
 43
7.0
 44
0.5
 45
0.0
 46
0.0
 47
0.0
 48
0.0
140
2.5
141
2.5
142
0.0
143
0.03937007874016
144
1.0
145
0.7
146
1.0
147
0.625
 71
     0
 72
     0
 73
     0
 74
     0
 75
     0
 76
     0
 77
     1
 78
     8
170
     0
171
     3
172
     1
173
     0
174
     1
175
     0
176
   144
177
   144
178
     7
270
     2
271
     1
272
     1
273
     2
274
     3
340
18E
275
     0
280
     0
281
     0
282
     0
283
     2
284
     8
285
     0
286
     0
287
     5
288
     0
  0
ENDTAB
  0
TABLE
  2
BLOCK_RECORD
  5
1
330
0
100
AcDbSymbolTable
 70
     2
  0
BLOCK_RECORD
  5
1F
102
{ACAD_XDICTIONARY
360
6A1
102
}
330
1
100
AcDbSymbolTableRecord
100
AcDbBlockTableRecord
  2
*MODEL_SPACE
  0
BLOCK_RECORD
  5
1B
102
{ACAD_XDICTIONARY
360
6A3
102
}
330
1
100
AcDbSymbolTableRecord
100
AcDbBlockTableRecord
  2
*PAPER_SPACE
  0
BLOCK_RECORD
  5
192
330
1
100
AcDbSymbolTableRecord
100
AcDbBlockTableRecord
  2
_DOT
  0
BLOCK_RECORD
  5
5CE
330
1
100
AcDbSymbolTableRecord
100
AcDbBlockTableRecord
  2
A4
  0
ENDTAB
  0
ENDSEC
  0
SECTION
  2
BLOCKS
  0
BLOCK
  5
20
330
1F
100
AcDbEntity
  8
0
100
AcDbBlockBegin
  2
*MODEL_SPACE
 70
     0
 10
0.0
 20
0.0
 30
0.0
  3
*MODEL_SPACE
  1

  0
ENDBLK
  5
21
330
1F
100
AcDbEntity
  8
0
100
AcDbBlockEnd
  0
BLOCK
  5
1C
330
1B
100
AcDbEntity
 67
     1
  8
0
100
AcDbBlockBegin
  2
*PAPER_SPACE
 70
     0
 10
0.0
 20
0.0
 30
0.0
  3
*PAPER_SPACE
  1

  0
ENDBLK
  5
1D
330
1B
100
AcDbEntity
 67
     1
  8
0
100
AcDbBlockEnd
  0
BLOCK
  5
195
330
192
100
AcDbEntity
  8
0
100
AcDbBlockBegin
  2
_DOT
 70
     0
 10
0.0
 20
0.0
 30
0.0
  3
_DOT
  1

  0
POLYLINE
  5
193
330
192
100
AcDbEntity
  8
0
 62
     0
100
AcDb2dPolyline
 66
     1
 10
0.0
 20
0.0
 30
0.0
 70
     1
 40
0.5
 41
0.5
  0
VERTEX
  5
11BB
330
193
100
AcDbEntity
  8
0
 62
     0
100
AcDbVertex
100
AcDb2dVertex
 10
-0.25
 20
0.0
 30
0.0
 42
1.0
  0
VERTEX
  5
11BC
330
193
100
AcDbEntity
  8
0
 62
     0
100
AcDbVertex
100
AcDb2dVertex
 10
0.25
 20
0.0
 30
0.0
 42
1.0
  0
SEQEND
  5
11BD
330
193
100
AcDbEntity
  8
0
 62
     0
  0
LINE
  5
194
330
192
100
AcDbEntity
  8
0
 62
     0
100
AcDbLine
 10
-0.5
 20
0.0
 30
0.0
 11
-1.0
 21
0.0
 31
0.0
  0
ENDBLK
  5
196
330
192
100
AcDbEntity
  8
0
100
AcDbBlockEnd
  0
BLOCK
  5
5D1
330
5CE
100
AcDbEntity
  8
0
100
AcDbBlockBegin
  2
A4
 70
     0
 10
0.0
 20
0.0
 30
0.0
  3
A4
  1

  0
POLYLINE
  5
5CF
330
5CE
100
AcDbEntity
  8
HOJO
100
AcDb2dPolyline
 66
     1
 10
0.0
 20
0.0
 30
0.0
 70
     1
  0
VERTEX
  5
11BE
330
5CF
100
AcDbEntity
  8
HOJO
100
AcDbVertex
100
AcDb2dVertex
 10
0.0
 20
0.0
 30
0.0
  0
VERTEX
  5
11BF
330
5CF
100
AcDbEntity
  8
HOJO
100
AcDbVertex
100
AcDb2dVertex
 10
297.0
 20
0.0
 30
0.0
  0
VERTEX
  5
11C0
330
5CF
100
AcDbEntity
  8
HOJO
100
AcDbVertex
100
AcDb2dVertex
 10
297.0
 20
210.0
 30
0.0
  0
VERTEX
  5
11C1
330
5CF
100
AcDbEntity
  8
HOJO
100
AcDbVertex
100
AcDb2dVertex
 10
0.0
 20
210.0
 30
0.0
  0
SEQEND
  5
11C2
330
5CF
100
AcDbEntity
  8
HOJO
  0
POLYLINE
  5
5D0
330
5CE
100
AcDbEntity
  8
HOJO
100
AcDb2dPolyline
 66
     1
 10
0.0
 20
0.0
 30
0.0
 70
     1
  0
VERTEX
  5
11C3
330
5D0
100
AcDbEntity
  8
HOJO
100
AcDbVertex
100
AcDb2dVertex
 10
18.0
 20
13.0
 30
0.0
  0
VERTEX
  5
11C4
330
5D0
100
AcDbEntity
  8
HOJO
100
AcDbVertex
100
AcDb2dVertex
 10
279.0
 20
13.0
 30
0.0
  0
VERTEX
  5
11C5
330
5D0
100
AcDbEntity
  8
HOJO
100
AcDbVertex
100
AcDb2dVertex
 10
279.0
 20
197.0
 30
0.0
  0
VERTEX
  5
11C6
330
5D0
100
AcDbEntity
  8
HOJO
100
AcDbVertex
100
AcDb2dVertex
 10
18.0
 20
197.0
 30
0.0
  0
SEQEND
  5
11C7
330
5D0
100
AcDbEntity
  8
HOJO
  0
ENDBLK
  5
5D2
330
5CE
100
AcDbEntity
  8
0
100
AcDbBlockEnd
  0
ENDSEC
  0
SECTION
  2
ENTITIES
  0
LINE
  5
60A
330
1F
100
AcDbEntity
  8
HOJO
100
AcDbLine
 10
360.0
 20
260.0
 30
0.0
 11
5580.0
 21
260.0
 31
0.0
  0
LINE
  5
60B
330
1F
100
AcDbEntity
  8
HOJO
100
AcDbLine
 10
360.0
 20
560.0
 30
0.0
 11
5580.0
 21
560.0
 31
0.0
  0
LINE
  5
60C
330
1F
100
AcDbEntity
  8
HOJO
100
AcDbLine
 10
360.0
 20
260.0
 30
0.0
 11
360.0
 21
560.0
 31
0.0
  0
LINE
  5
60D
330
1F
100
AcDbEntity
  8
HOJO
100
AcDbLine
 10
2360.0
 20
260.0
 30
0.0
 11
2360.0
 21
560.0
 31
0.0
  0
LINE
  5
60F
330
1F
100
AcDbEntity
  8
HOJO
100
AcDbLine
 10
3160.0
 20
260.0
 30
0.0
 11
3160.0
 21
560.0
 31
0.0
  0
LINE
  5
610
330
1F
100
AcDbEntity
  8
HOJO
100
AcDbLine
 10
3660.0
 20
260.0
 30
0.0
 11
3660.0
 21
560.0
 31
0.0
  0
LINE
  5
64F
330
1F
100
AcDbEntity
  8
3C1
100
AcDbLine
 10
2150.400212236658
 20
2230.0
 30
0.0
 11
2720.400212236658
 21
2230.0
 31
0.0
  0
LINE
  5
654
330
1F
100
AcDbEntity
  8
3C1
100
AcDbLine
 10
2720.400212236658
 20
2230.0
 30
0.0
 11
2720.400212236658
 21
2373.0
 31
0.0
  0
LINE
  5
656
330
1F
100
AcDbEntity
  8
3C1
100
AcDbLine
 10
2200.650900829141
 20
2550.0
 30
0.0
 11
2302.217130388529
 21
2549.999999999999
 31
0.0
  0
LINE
  5
665
330
1F
100
AcDbEntity
  8
3C1
100
AcDbLine
 10
2150.400212236658
 20
2350.0
 30
0.0
 11
2170.85725615969
 21
2523.512653884234
 31
0.0
  0
LINE
  5
666
330
1F
100
AcDbEntity
  8
3C1
100
AcDbLine
 10
2332.050087561408
 20
2523.161434219014
 30
0.0
 11
2348.382322915817
 21
2369.041865658999
 31
0.0
  0
LINE
  5
667
330
1F
100
AcDbEntity
  8
3C1
100
AcDbLine
 10
2720.400212236658
 20
2230.0
 30
0.0
 11
2630.400212236658
 21
2230.0
 31
0.0
  0
ARC
  5
66C
330
1F
100
AcDbEntity
  8
3C1
100
AcDbCircle
 10
2200.650900829141
 20
2520.0
 30
0.0
 40
30.0
100
AcDbArc
 50
90.0
 51
173.2759009067476
  0
ARC
  5
66D
330
1F
100
AcDbEntity
  8
3C1
100
AcDbCircle
 10
2302.217130388529
 20
2519.999999999999
 30
0.0
 40
30.0
100
AcDbArc
 50
6.049126139931516
 51
90.0
  0
ARC
  5
66E
330
1F
100
AcDbEntity
  8
3C1
100
AcDbCircle
 10
2368.27096103107
 20
2371.149488471675
 30
0.0
 40
20.0
100
AcDbArc
 50
186.0491261399313
 51
250.3797538660286
  0
LINE
  5
677
330
1F
100
AcDbEntity
  8
3C1
100
AcDbLine
 10
2150.400212236658
 20
2350.0
 30
0.0
 11
2150.400212236658
 21
2230.0
 31
0.0
  0
LINE
  5
69B
330
1F
100
AcDbEntity
  8
3C1
100
AcDbLine
 10
2350.400212236658
 20
2291.684394071491
 30
0.0
 11
2350.400212236658
 21
2230.0
 31
0.0
  0
LINE
  5
69C
330
1F
100
AcDbEntity
  8
3C1
100
AcDbLine
 10
2600.400212236658
 20
2305.721011333914
 30
0.0
 11
2600.400212236658
 21
2230.0
 31
0.0
  0
LINE
  5
69E
330
1F
100
AcDbEntity
  8
3C1
100
AcDbLine
 10
2350.400212236658
 20
2291.684394071491
 30
0.0
 11
2630.400212236658
 21
2307.405405405405
 31
0.0
  0
LINE
  5
9D9
330
1F
100
AcDbEntity
  8
3C1
100
AcDbLine
 10
2630.400212236658
 20
2307.405405405405
 30
0.0
 11
2630.400212236658
 21
2367.405405405405
 31
0.0
  0
LINE
  5
9DA
330
1F
100
AcDbEntity
  8
3C1
100
AcDbLine
 10
2630.400212236658
 20
2367.405405405405
 30
0.0
 11
2350.400212236658
 21
2351.68439407149
 31
0.0
  0
LINE
  5
9DC
330
1F
100
AcDbEntity
  8
3C1
100
AcDbLine
 10
2630.400212236658
 20
2367.405405405405
 30
0.0
 11
2720.400212236658
 21
2373.0
 31
0.0
  0
LINE
  5
B35
330
1F
100
AcDbEntity
  8
3C1
100
AcDbLine
 10
3227.180863986784
 20
2230.0
 30
0.0
 11
3227.180863986784
 21
2549.999999999999
 31
0.0
  0
LINE
  5
B36
330
1F
100
AcDbEntity
  8
3C1
100
AcDbLine
 10
3227.180863986784
 20
2549.999999999999
 30
0.0
 11
3227.180863986784
 21
2349.999999999999
 31
0.0
  0
LINE
  5
B37
330
1F
100
AcDbEntity
  8
3C1
100
AcDbLine
 10
3227.180863986784
 20
2549.999999999999
 30
0.0
 11
3227.180863986784
 21
2349.999999999999
 31
0.0
  0
LINE
  5
D7A
330
1F
100
AcDbEntity
  8
3C1
100
AcDbLine
 10
2350.400212236658
 20
2291.684394071491
 30
0.0
 11
2350.400212236658
 21
2351.68439407149
 31
0.0
  0
LINE
  5
E9F
330
1F
100
AcDbEntity
  8
3C1
  6
HIDDEN2
100
AcDbLine
 10
3227.180863986784
 20
2349.999999999999
 30
0.0
 11
3927.180863986785
 21
2349.999999999999
 31
0.0
  0
LINE
  5
F12
330
1F
100
AcDbEntity
  8
SUNPO
 62
   144
100
AcDbLine
 10
2630.400212236658
 20
2589.999999999999
 30
0.0
 11
2630.400212236658
 21
2734.102998826749
 31
0.0
  0
LINE
  5
F13
330
1F
100
AcDbEntity
  8
SUNPO
 62
   144
100
AcDbLine
 10
2720.400212236658
 20
2589.999999999999
 30
0.0
 11
2720.400212236658
 21
2734.102998826749
 31
0.0
  0
LINE
  5
F14
330
1F
100
AcDbEntity
  8
SUNPO
 62
   144
100
AcDbLine
 10
2644.400212236658
 20
2724.102998826749
 30
0.0
 11
2706.400212236658
 21
2724.102998826749
 31
0.0
  0
SOLID
  5
F15
330
1F
100
AcDbEntity
  8
SUNPO
 62
   144
100
AcDbTrace
 10
2644.400212236658
 20
2726.436332160082
 30
0.0
 11
2644.400212236658
 21
2721.769665493416
 31
0.0
 12
2630.400212236658
 22
2724.102998826749
 32
0.0
 13
2630.400212236658
 23
2724.102998826749
 33
0.0
  0
SOLID
  5
F16
330
1F
100
AcDbEntity
  8
SUNPO
 62
   144
100
AcDbTrace
 10
2706.400212236658
 20
2726.436332160082
 30
0.0
 11
2706.400212236658
 21
2721.769665493416
 31
0.0
 12
2720.400212236658
 22
2724.102998826749
 32
0.0
 13
2720.400212236658
 23
2724.102998826749
 33
0.0
  0
LINE
  5
F18
330
1F
100
AcDbEntity
  8
SUNPO
 62
   144
100
AcDbLine
 10
2350.400212236658
 20
2744.102998826749
 30
0.0
 11
2350.400212236658
 21
2734.102998826749
 31
0.0
  0
LINE
  5
F19
330
1F
100
AcDbEntity
  8
SUNPO
 62
   144
100
AcDbLine
 10
2630.400212236658
 20
2589.999999999999
 30
0.0
 11
2630.400212236658
 21
2734.102998826749
 31
0.0
  0
LINE
  5
F1A
330
1F
100
AcDbEntity
  8
SUNPO
 62
   144
100
AcDbLine
 10
2364.400212236658
 20
2724.102998826749
 30
0.0
 11
2616.400212236658
 21
2724.102998826749
 31
0.0
  0
SOLID
  5
F1B
330
1F
100
AcDbEntity
  8
SUNPO
 62
   144
100
AcDbTrace
 10
2364.400212236658
 20
2726.436332160082
 30
0.0
 11
2364.400212236658
 21
2721.769665493416
 31
0.0
 12
2350.400212236658
 22
2724.102998826749
 32
0.0
 13
2350.400212236658
 23
2724.102998826749
 33
0.0
  0
SOLID
  5
F1C
330
1F
100
AcDbEntity
  8
SUNPO
 62
   144
100
AcDbTrace
 10
2616.400212236658
 20
2726.436332160082
 30
0.0
 11
2616.400212236658
 21
2721.769665493416
 31
0.0
 12
2630.400212236658
 22
2724.102998826749
 32
0.0
 13
2630.400212236658
 23
2724.102998826749
 33
0.0
  0
LINE
  5
F1E
330
1F
100
AcDbEntity
  8
SUNPO
 62
   144
100
AcDbLine
 10
2327.900212236658
 20
2744.102998826749
 30
0.0
 11
2327.900212236658
 21
2734.102998826749
 31
0.0
  0
LINE
  5
F1F
330
1F
100
AcDbEntity
  8
SUNPO
 62
   144
100
AcDbLine
 10
2350.400212236658
 20
2744.102998826749
 30
0.0
 11
2350.400212236658
 21
2734.102998826749
 31
0.0
  0
LINE
  5
F20
330
1F
100
AcDbEntity
  8
SUNPO
 62
   144
100
AcDbLine
 10
2313.900212236658
 20
2724.102998826749
 30
0.0
 11
2299.900212236658
 21
2724.102998826749
 31
0.0
  0
LINE
  5
F21
330
1F
100
AcDbEntity
  8
SUNPO
 62
   144
100
AcDbLine
 10
2364.400212236658
 20
2724.102998826749
 30
0.0
 11
2378.400212236658
 21
2724.102998826749
 31
0.0
  0
LINE
  5
F22
330
1F
100
AcDbEntity
  8
SUNPO
 62
   144
100
AcDbLine
 10
2327.900212236658
 20
2724.102998826749
 30
0.0
 11
2350.400212236658
 21
2724.102998826749
 31
0.0
  0
SOLID
  5
F23
330
1F
100
AcDbEntity
  8
SUNPO
 62
   144
100
AcDbTrace
 10
2313.900212236658
 20
2726.436332160082
 30
0.0
 11
2313.900212236658
 21
2721.769665493416
 31
0.0
 12
2327.900212236658
 22
2724.102998826749
 32
0.0
 13
2327.900212236658
 23
2724.102998826749
 33
0.0
  0
SOLID
  5
F24
330
1F
100
AcDbEntity
  8
SUNPO
 62
   144
100
AcDbTrace
 10
2364.400212236658
 20
2726.436332160082
 30
0.0
 11
2364.400212236658
 21
2721.769665493416
 31
0.0
 12
2350.400212236658
 22
2724.102998826749
 32
0.0
 13
2350.400212236658
 23
2724.102998826749
 33
0.0
  0
LINE
  5
F26
330
1F
100
AcDbEntity
  8
SUNPO
 62
   144
100
AcDbLine
 10
2172.900212236658
 20
2589.999999999999
 30
0.0
 11
2172.900212236658
 21
2734.102998826749
 31
0.0
  0
LINE
  5
F27
330
1F
100
AcDbEntity
  8
SUNPO
 62
   144
100
AcDbLine
 10
2327.900212236658
 20
2744.102998826749
 30
0.0
 11
2327.900212236658
 21
2734.102998826749
 31
0.0
  0
LINE
  5
F28
330
1F
100
AcDbEntity
  8
SUNPO
 62
   144
100
AcDbLine
 10
2186.900212236658
 20
2724.102998826749
 30
0.0
 11
2313.900212236658
 21
2724.102998826749
 31
0.0
  0
SOLID
  5
F29
330
1F
100
AcDbEntity
  8
SUNPO
 62
   144
100
AcDbTrace
 10
2186.900212236658
 20
2726.436332160082
 30
0.0
 11
2186.900212236658
 21
2721.769665493416
 31
0.0
 12
2172.900212236658
 22
2724.102998826749
 32
0.0
 13
2172.900212236658
 23
2724.102998826749
 33
0.0
  0
SOLID
  5
F2A
330
1F
100
AcDbEntity
  8
SUNPO
 62
   144
100
AcDbTrace
 10
2313.900212236658
 20
2726.436332160082
 30
0.0
 11
2313.900212236658
 21
2721.769665493416
 31
0.0
 12
2327.900212236658
 22
2724.102998826749
 32
0.0
 13
2327.900212236658
 23
2724.102998826749
 33
0.0
  0
LINE
  5
F2C
330
1F
100
AcDbEntity
  8
SUNPO
 62
   144
100
AcDbLine
 10
2150.400212236658
 20
2589.999999999999
 30
0.0
 11
2150.400212236658
 21
2734.102998826749
 31
0.0
  0
LINE
  5
F2D
330
1F
100
AcDbEntity
  8
SUNPO
 62
   144
100
AcDbLine
 10
2172.900212236658
 20
2589.999999999999
 30
0.0
 11
2172.900212236658
 21
2734.102998826749
 31
0.0
  0
LINE
  5
F2E
330
1F
100
AcDbEntity
  8
SUNPO
 62
   144
100
AcDbLine
 10
2136.400212236658
 20
2724.102998826749
 30
0.0
 11
2122.400212236658
 21
2724.102998826749
 31
0.0
  0
LINE
  5
F2F
330
1F
100
AcDbEntity
  8
SUNPO
 62
   144
100
AcDbLine
 10
2186.900212236658
 20
2724.102998826749
 30
0.0
 11
2200.900212236658
 21
2724.102998826749
 31
0.0
  0
LINE
  5
F30
330
1F
100
AcDbEntity
  8
SUNPO
 62
   144
100
AcDbLine
 10
2150.400212236658
 20
2724.102998826749
 30
0.0
 11
2172.900212236658
 21
2724.102998826749
 31
0.0
  0
SOLID
  5
F31
330
1F
100
AcDbEntity
  8
SUNPO
 62
   144
100
AcDbTrace
 10
2136.400212236658
 20
2726.436332160082
 30
0.0
 11
2136.400212236658
 21
2721.769665493416
 31
0.0
 12
2150.400212236658
 22
2724.102998826749
 32
0.0
 13
2150.400212236658
 23
2724.102998826749
 33
0.0
  0
SOLID
  5
F32
330
1F
100
AcDbEntity
  8
SUNPO
 62
   144
100
AcDbTrace
 10
2186.900212236658
 20
2726.436332160082
 30
0.0
 11
2186.900212236658
 21
2721.769665493416
 31
0.0
 12
2172.900212236658
 22
2724.102998826749
 32
0.0
 13
2172.900212236658
 23
2724.102998826749
 33
0.0
  0
LINE
  5
F34
330
1F
100
AcDbEntity
  8
3C1
100
AcDbLine
 10
3227.180863986784
 20
2373.0
 30
0.0
 11
3927.180863986785
 21
2373.0
 31
0.0
  0
LINE
  5
F35
330
1F
100
AcDbEntity
  8
3C1
  6
HIDDEN2
100
AcDbLine
 10
3812.180863986785
 20
2373.0
 30
0.0
 11
3812.180863986785
 21
2313.0
 31
0.0
  0
LINE
  5
F36
330
1F
100
AcDbEntity
  8
3C1
  6
HIDDEN2
100
AcDbLine
 10
3812.180863986785
 20
2313.0
 30
0.0
 11
3342.180863986785
 21
2313.0
 31
0.0
  0
LINE
  5
F37
330
1F
100
AcDbEntity
  8
3C1
  6
HIDDEN2
100
AcDbLine
 10
3342.180863986785
 20
2313.0
 30
0.0
 11
3342.180863986785
 21
2373.0
 31
0.0
  0
LINE
  5
F38
330
1F
100
AcDbEntity
  8
SUNPO
 62
   144
100
AcDbLine
 10
2150.400212236658
 20
2210.0
 30
0.0
 11
2150.400212236658
 21
2111.199736056105
 31
0.0
  0
LINE
  5
F39
330
1F
100
AcDbEntity
  8
SUNPO
 62
   144
100
AcDbLine
 10
2350.400212236658
 20
2210.0
 30
0.0
 11
2350.400212236658
 21
2111.199736056105
 31
0.0
  0
LINE
  5
F3A
330
1F
100
AcDbEntity
  8
SUNPO
 62
   144
100
AcDbLine
 10
2164.400212236658
 20
2121.199736056105
 30
0.0
 11
2336.400212236658
 21
2121.199736056105
 31
0.0
  0
SOLID
  5
F3B
330
1F
100
AcDbEntity
  8
SUNPO
 62
   144
100
AcDbTrace
 10
2164.400212236658
 20
2123.533069389439
 30
0.0
 11
2164.400212236658
 21
2118.866402722772
 31
0.0
 12
2150.400212236658
 22
2121.199736056105
 32
0.0
 13
2150.400212236658
 23
2121.199736056105
 33
0.0
  0
SOLID
  5
F3C
330
1F
100
AcDbEntity
  8
SUNPO
 62
   144
100
AcDbTrace
 10
2336.400212236658
 20
2123.533069389439
 30
0.0
 11
2336.400212236658
 21
2118.866402722772
 31
0.0
 12
2350.400212236658
 22
2121.199736056105
 32
0.0
 13
2350.400212236658
 23
2121.199736056105
 33
0.0
  0
LINE
  5
F3E
330
1F
100
AcDbEntity
  8
SUNPO
 62
   144
100
AcDbLine
 10
3947.180863986785
 20
2229.999999999999
 30
0.0
 11
4040.594054746518
 21
2229.999999999999
 31
0.0
  0
LINE
  5
F3F
330
1F
100
AcDbEntity
  8
SUNPO
 62
   144
100
AcDbLine
 10
3947.180863986785
 20
2373.0
 30
0.0
 11
4040.594054746518
 21
2373.0
 31
0.0
  0
LINE
  5
F40
330
1F
100
AcDbEntity
  8
SUNPO
 62
   144
100
AcDbLine
 10
4030.594054746518
 20
2243.999999999999
 30
0.0
 11
4030.594054746518
 21
2359.0
 31
0.0
  0
SOLID
  5
F41
330
1F
100
AcDbEntity
  8
SUNPO
 62
   144
100
AcDbTrace
 10
4028.260721413184
 20
2243.999999999999
 30
0.0
 11
4032.927388079851
 21
2243.999999999999
 31
0.0
 12
4030.594054746518
 22
2229.999999999999
 32
0.0
 13
4030.594054746518
 23
2229.999999999999
 33
0.0
  0
SOLID
  5
F42
330
1F
100
AcDbEntity
  8
SUNPO
 62
   144
100
AcDbTrace
 10
4028.260721413184
 20
2359.0
 30
0.0
 11
4032.927388079851
 21
2359.0
 31
0.0
 12
4030.594054746518
 22
2373.0
 32
0.0
 13
4030.594054746518
 23
2373.0
 33
0.0
  0
LINE
  5
F44
330
1F
100
AcDbEntity
  8
SUNPO
 62
   144
100
AcDbLine
 10
3207.180863986785
 20
2349.999999999999
 30
0.0
 11
3162.613402879117
 21
2349.999999999999
 31
0.0
  0
LINE
  5
F45
330
1F
100
AcDbEntity
  8
SUNPO
 62
   144
100
AcDbLine
 10
3207.180863986784
 20
2549.999999999999
 30
0.0
 11
3162.613402879117
 21
2549.999999999999
 31
0.0
  0
LINE
  5
F46
330
1F
100
AcDbEntity
  8
SUNPO
 62
   144
100
AcDbLine
 10
3172.613402879116
 20
2363.999999999998
 30
0.0
 11
3172.613402879116
 21
2535.999999999999
 31
0.0
  0
SOLID
  5
F47
330
1F
100
AcDbEntity
  8
SUNPO
 62
   144
100
AcDbTrace
 10
3170.280069545783
 20
2363.999999999998
 30
0.0
 11
3174.94673621245
 21
2363.999999999998
 31
0.0
 12
3172.613402879116
 22
2349.999999999999
 32
0.0
 13
3172.613402879116
 23
2349.999999999999
 33
0.0
  0
SOLID
  5
F48
330
1F
100
AcDbEntity
  8
SUNPO
 62
   144
100
AcDbTrace
 10
3170.280069545783
 20
2535.999999999999
 30
0.0
 11
3174.94673621245
 21
2535.999999999999
 31
0.0
 12
3172.613402879116
 22
2549.999999999999
 32
0.0
 13
3172.613402879116
 23
2549.999999999999
 33
0.0
  0
LINE
  5
F4A
330
1F
100
AcDbEntity
  8
SUNPO
 62
   144
100
AcDbLine
 10
3207.180863986785
 20
2230.0
 30
0.0
 11
3162.613402879117
 21
2230.0
 31
0.0
  0
LINE
  5
F4B
330
1F
100
AcDbEntity
  8
SUNPO
 62
   144
100
AcDbLine
 10
3207.180863986785
 20
2349.999999999999
 30
0.0
 11
3162.613402879117
 21
2349.999999999999
 31
0.0
  0
LINE
  5
F4C
330
1F
100
AcDbEntity
  8
SUNPO
 62
   144
100
AcDbLine
 10
3172.613402879116
 20
2244.0
 30
0.0
 11
3172.613402879116
 21
2335.999999999999
 31
0.0
  0
SOLID
  5
F4D
330
1F
100
AcDbEntity
  8
SUNPO
 62
   144
100
AcDbTrace
 10
3170.280069545783
 20
2244.0
 30
0.0
 11
3174.94673621245
 21
2244.0
 31
0.0
 12
3172.613402879116
 22
2230.0
 32
0.0
 13
3172.613402879116
 23
2230.0
 33
0.0
  0
SOLID
  5
F4E
330
1F
100
AcDbEntity
  8
SUNPO
 62
   144
100
AcDbTrace
 10
3170.280069545783
 20
2335.999999999999
 30
0.0
 11
3174.94673621245
 21
2335.999999999999
 31
0.0
 12
3172.613402879116
 22
2349.999999999999
 32
0.0
 13
3172.613402879116
 23
2349.999999999999
 33
0.0
  0
LINE
  5
F50
330
1F
100
AcDbEntity
  8
SUNPO
 62
   144
100
AcDbLine
 10
3207.180863986785
 20
2229.999999999999
 30
0.0
 11
3078.573534378214
 21
2229.999999999999
 31
0.0
  0
LINE
  5
F51
330
1F
100
AcDbEntity
  8
SUNPO
 62
   144
100
AcDbLine
 10
3207.180863986784
 20
2549.999999999999
 30
0.0
 11
3078.573534378214
 21
2549.999999999999
 31
0.0
  0
LINE
  5
F52
330
1F
100
AcDbEntity
  8
SUNPO
 62
   144
100
AcDbLine
 10
3088.573534378214
 20
2243.999999999999
 30
0.0
 11
3088.573534378214
 21
2535.999999999999
 31
0.0
  0
SOLID
  5
F53
330
1F
100
AcDbEntity
  8
SUNPO
 62
   144
100
AcDbTrace
 10
3086.240201044881
 20
2243.999999999999
 30
0.0
 11
3090.906867711547
 21
2243.999999999999
 31
0.0
 12
3088.573534378214
 22
2229.999999999999
 32
0.0
 13
3088.573534378214
 23
2229.999999999999
 33
0.0
  0
SOLID
  5
F54
330
1F
100
AcDbEntity
  8
SUNPO
 62
   144
100
AcDbTrace
 10
3086.240201044881
 20
2535.999999999999
 30
0.0
 11
3090.906867711547
 21
2535.999999999999
 31
0.0
 12
3088.573534378214
 22
2549.999999999999
 32
0.0
 13
3088.573534378214
 23
2549.999999999999
 33
0.0
  0
LINE
  5
F56
330
1F
100
AcDbEntity
  8
SUNPO
 62
   144
100
AcDbLine
 10
3812.180863986785
 20
2589.999999999999
 30
0.0
 11
3812.180863986785
 21
2714.102998826749
 31
0.0
  0
LINE
  5
F57
330
1F
100
AcDbEntity
  8
SUNPO
 62
   144
100
AcDbLine
 10
3927.180863986785
 20
2589.999999999999
 30
0.0
 11
3927.180863986785
 21
2714.102998826749
 31
0.0
  0
LINE
  5
F58
330
1F
100
AcDbEntity
  8
SUNPO
 62
   144
100
AcDbLine
 10
3826.180863986785
 20
2704.102998826749
 30
0.0
 11
3913.180863986784
 21
2704.102998826749
 31
0.0
  0
SOLID
  5
F59
330
1F
100
AcDbEntity
  8
SUNPO
 62
   144
100
AcDbTrace
 10
3826.180863986785
 20
2706.436332160082
 30
0.0
 11
3826.180863986785
 21
2701.769665493415
 31
0.0
 12
3812.180863986785
 22
2704.102998826749
 32
0.0
 13
3812.180863986785
 23
2704.102998826749
 33
0.0
  0
SOLID
  5
F5A
330
1F
100
AcDbEntity
  8
SUNPO
 62
   144
100
AcDbTrace
 10
3913.180863986784
 20
2706.436332160082
 30
0.0
 11
3913.180863986784
 21
2701.769665493415
 31
0.0
 12
3927.180863986785
 22
2704.102998826749
 32
0.0
 13
3927.180863986785
 23
2704.102998826749
 33
0.0
  0
LINE
  5
F5C
330
1F
100
AcDbEntity
  8
SUNPO
 62
   144
100
AcDbLine
 10
3342.180863986785
 20
2589.999999999999
 30
0.0
 11
3342.180863986785
 21
2714.102998826749
 31
0.0
  0
LINE
  5
F5D
330
1F
100
AcDbEntity
  8
SUNPO
 62
   144
100
AcDbLine
 10
3812.180863986785
 20
2589.999999999999
 30
0.0
 11
3812.180863986785
 21
2714.102998826749
 31
0.0
  0
LINE
  5
F5E
330
1F
100
AcDbEntity
  8
SUNPO
 62
   144
100
AcDbLine
 10
3356.180863986784
 20
2704.102998826749
 30
0.0
 11
3798.180863986785
 21
2704.102998826749
 31
0.0
  0
SOLID
  5
F5F
330
1F
100
AcDbEntity
  8
SUNPO
 62
   144
100
AcDbTrace
 10
3356.180863986784
 20
2706.436332160082
 30
0.0
 11
3356.180863986784
 21
2701.769665493415
 31
0.0
 12
3342.180863986785
 22
2704.102998826749
 32
0.0
 13
3342.180863986785
 23
2704.102998826749
 33
0.0
  0
SOLID
  5
F60
330
1F
100
AcDbEntity
  8
SUNPO
 62
   144
100
AcDbTrace
 10
3798.180863986785
 20
2706.436332160082
 30
0.0
 11
3798.180863986785
 21
2701.769665493415
 31
0.0
 12
3812.180863986785
 22
2704.102998826749
 32
0.0
 13
3812.180863986785
 23
2704.102998826749
 33
0.0
  0
LINE
  5
F62
330
1F
100
AcDbEntity
  8
SUNPO
 62
   144
100
AcDbLine
 10
3227.180863986784
 20
2589.999999999999
 30
0.0
 11
3227.180863986784
 21
2714.102998826749
 31
0.0
  0
LINE
  5
F63
330
1F
100
AcDbEntity
  8
SUNPO
 62
   144
100
AcDbLine
 10
3342.180863986785
 20
2589.999999999999
 30
0.0
 11
3342.180863986785
 21
2714.102998826749
 31
0.0
  0
LINE
  5
F64
330
1F
100
AcDbEntity
  8
SUNPO
 62
   144
100
AcDbLine
 10
3241.180863986785
 20
2704.102998826749
 30
0.0
 11
3328.180863986784
 21
2704.102998826749
 31
0.0
  0
SOLID
  5
F65
330
1F
100
AcDbEntity
  8
SUNPO
 62
   144
100
AcDbTrace
 10
3241.180863986785
 20
2706.436332160082
 30
0.0
 11
3241.180863986785
 21
2701.769665493415
 31
0.0
 12
3227.180863986784
 22
2704.102998826749
 32
0.0
 13
3227.180863986784
 23
2704.102998826749
 33
0.0
  0
SOLID
  5
F66
330
1F
100
AcDbEntity
  8
SUNPO
 62
   144
100
AcDbTrace
 10
3328.180863986784
 20
2706.436332160082
 30
0.0
 11
3328.180863986784
 21
2701.769665493415
 31
0.0
 12
3342.180863986785
 22
2704.102998826749
 32
0.0
 13
3342.180863986785
 23
2704.102998826749
 33
0.0
  0
LINE
  5
F68
330
1F
100
AcDbEntity
  8
SUNPO
 62
   144
100
AcDbLine
 10
3227.180863986784
 20
2110.0
 30
0.0
 11
3227.180863986784
 21
2003.82282334736
 31
0.0
  0
LINE
  5
F69
330
1F
100
AcDbEntity
  8
SUNPO
 62
   144
100
AcDbLine
 10
3927.180863986785
 20
2110.0
 30
0.0
 11
3927.180863986785
 21
2003.82282334736
 31
0.0
  0
LINE
  5
F6A
330
1F
100
AcDbEntity
  8
SUNPO
 62
   144
100
AcDbLine
 10
3241.180863986785
 20
2013.82282334736
 30
0.0
 11
3913.180863986784
 21
2013.82282334736
 31
0.0
  0
SOLID
  5
F6B
330
1F
100
AcDbEntity
  8
SUNPO
 62
   144
100
AcDbTrace
 10
3241.180863986785
 20
2016.156156680693
 30
0.0
 11
3241.180863986785
 21
2011.489490014027
 31
0.0
 12
3227.180863986784
 22
2013.82282334736
 32
0.0
 13
3227.180863986784
 23
2013.82282334736
 33
0.0
  0
SOLID
  5
F6C
330
1F
100
AcDbEntity
  8
SUNPO
 62
   144
100
AcDbTrace
 10
3913.180863986784
 20
2016.156156680693
 30
0.0
 11
3913.180863986784
 21
2011.489490014027
 31
0.0
 12
3927.180863986785
 22
2013.82282334736
 32
0.0
 13
3927.180863986785
 23
2013.82282334736
 33
0.0
  0
LINE
  5
F6E
330
1F
100
AcDbEntity
  8
SUNPO
 62
   144
100
AcDbLine
 10
3777.180863986785
 20
2150.0
 30
0.0
 11
3777.180863986785
 21
2140.0
 31
0.0
  0
LINE
  5
F6F
330
1F
100
AcDbEntity
  8
SUNPO
 62
   144
100
AcDbLine
 10
3927.180863986785
 20
2150.0
 30
0.0
 11
3927.180863986785
 21
2140.0
 31
0.0
  0
LINE
  5
F70
330
1F
100
AcDbEntity
  8
SUNPO
 62
   144
100
AcDbLine
 10
3791.180863986784
 20
2130.0
 30
0.0
 11
3913.180863986784
 21
2130.0
 31
0.0
  0
SOLID
  5
F71
330
1F
100
AcDbEntity
  8
SUNPO
 62
   144
100
AcDbTrace
 10
3791.180863986784
 20
2132.333333333333
 30
0.0
 11
3791.180863986784
 21
2127.666666666666
 31
0.0
 12
3777.180863986785
 22
2130.0
 32
0.0
 13
3777.180863986785
 23
2130.0
 33
0.0
  0
SOLID
  5
F72
330
1F
100
AcDbEntity
  8
SUNPO
 62
   144
100
AcDbTrace
 10
3913.180863986784
 20
2132.333333333333
 30
0.0
 11
3913.180863986784
 21
2127.666666666666
 31
0.0
 12
3927.180863986785
 22
2130.0
 32
0.0
 13
3927.180863986785
 23
2130.0
 33
0.0
  0
LINE
  5
F74
330
1F
100
AcDbEntity
  8
SUNPO
 62
   144
100
AcDbLine
 10
3377.180863986785
 20
2209.999999999999
 30
0.0
 11
3377.180863986785
 21
2120.0
 31
0.0
  0
LINE
  5
F75
330
1F
100
AcDbEntity
  8
SUNPO
 62
   144
100
AcDbLine
 10
3777.180863986785
 20
2207.392246776425
 30
0.0
 11
3777.180863986785
 21
2130.0
 31
0.0
  0
LINE
  5
F76
330
1F
100
AcDbEntity
  8
SUNPO
 62
   144
100
AcDbLine
 10
3391.180863986785
 20
2130.0
 30
0.0
 11
3763.180863986784
 21
2130.0
 31
0.0
  0
SOLID
  5
F77
330
1F
100
AcDbEntity
  8
SUNPO
 62
   144
100
AcDbTrace
 10
3391.180863986785
 20
2132.333333333333
 30
0.0
 11
3391.180863986785
 21
2127.666666666666
 31
0.0
 12
3377.180863986785
 22
2130.0
 32
0.0
 13
3377.180863986785
 23
2130.0
 33
0.0
  0
SOLID
  5
F78
330
1F
100
AcDbEntity
  8
SUNPO
 62
   144
100
AcDbTrace
 10
3763.180863986784
 20
2132.333333333333
 30
0.0
 11
3763.180863986784
 21
2127.666666666666
 31
0.0
 12
3777.180863986785
 22
2130.0
 32
0.0
 13
3777.180863986785
 23
2130.0
 33
0.0
  0
LINE
  5
F7A
330
1F
100
AcDbEntity
  8
SUNPO
 62
   144
100
AcDbLine
 10
3227.180863986784
 20
2210.0
 30
0.0
 11
3227.180863986784
 21
2120.0
 31
0.0
  0
LINE
  5
F7B
330
1F
100
AcDbEntity
  8
SUNPO
 62
   144
100
AcDbLine
 10
3377.180863986785
 20
2209.999999999999
 30
0.0
 11
3377.180863986785
 21
2120.0
 31
0.0
  0
LINE
  5
F7C
330
1F
100
AcDbEntity
  8
SUNPO
 62
   144
100
AcDbLine
 10
3241.180863986785
 20
2130.0
 30
0.0
 11
3363.180863986785
 21
2130.0
 31
0.0
  0
SOLID
  5
F7D
330
1F
100
AcDbEntity
  8
SUNPO
 62
   144
100
AcDbTrace
 10
3241.180863986785
 20
2132.333333333333
 30
0.0
 11
3241.180863986785
 21
2127.666666666666
 31
0.0
 12
3227.180863986784
 22
2130.0
 32
0.0
 13
3227.180863986784
 23
2130.0
 33
0.0
  0
SOLID
  5
F7E
330
1F
100
AcDbEntity
  8
SUNPO
 62
   144
100
AcDbTrace
 10
3363.180863986785
 20
2132.333333333333
 30
0.0
 11
3363.180863986785
 21
2127.666666666666
 31
0.0
 12
3377.180863986785
 22
2130.0
 32
0.0
 13
3377.180863986785
 23
2130.0
 33
0.0
  0
LINE
  5
F80
330
1F
100
AcDbEntity
  8
SUNPO
 62
   144
100
AcDbLine
 10
3227.180863986784
 20
2724.102998826749
 30
0.0
 11
3227.180863986784
 21
2891.205185243121
 31
0.0
  0
LINE
  5
F81
330
1F
100
AcDbEntity
  8
SUNPO
 62
   144
100
AcDbLine
 10
3927.180863986785
 20
2724.102998826749
 30
0.0
 11
3927.180863986785
 21
2891.205185243121
 31
0.0
  0
LINE
  5
F82
330
1F
100
AcDbEntity
  8
SUNPO
 62
   144
100
AcDbLine
 10
3241.180863986785
 20
2881.205185243121
 30
0.0
 11
3913.180863986784
 21
2881.205185243121
 31
0.0
  0
SOLID
  5
F83
330
1F
100
AcDbEntity
  8
SUNPO
 62
   144
100
AcDbTrace
 10
3241.180863986785
 20
2883.538518576455
 30
0.0
 11
3241.180863986785
 21
2878.871851909788
 31
0.0
 12
3227.180863986784
 22
2881.205185243121
 32
0.0
 13
3227.180863986784
 23
2881.205185243121
 33
0.0
  0
SOLID
  5
F84
330
1F
100
AcDbEntity
  8
SUNPO
 62
   144
100
AcDbTrace
 10
3913.180863986784
 20
2883.538518576455
 30
0.0
 11
3913.180863986784
 21
2878.871851909788
 31
0.0
 12
3927.180863986785
 22
2881.205185243121
 32
0.0
 13
3927.180863986785
 23
2881.205185243121
 33
0.0
  0
LINE
  5
F86
330
1F
100
AcDbEntity
  8
3C1
100
AcDbLine
 10
3227.180863986784
 20
2549.999999999999
 30
0.0
 11
3927.180863986785
 21
2549.999999999999
 31
0.0
  0
LINE
  5
F87
330
1F
100
AcDbEntity
  8
3C1
100
AcDbLine
 10
3927.180863986785
 20
2549.999999999999
 30
0.0
 11
3927.180863986785
 21
2229.999999999999
 31
0.0
  0
LINE
  5
F88
330
1F
100
AcDbEntity
  8
3C1
100
AcDbLine
 10
3927.180863986785
 20
2229.999999999999
 30
0.0
 11
3227.180863986784
 21
2229.999999999999
 31
0.0
  0
LINE
  5
F89
330
1F
100
AcDbEntity
  8
3C1
100
AcDbLine
 10
3227.180863986784
 20
2229.999999999999
 30
0.0
 11
3227.180863986784
 21
2549.999999999999
 31
0.0
  0
LINE
  5
F8A
330
1F
100
AcDbEntity
  8
SUNPO
 62
   144
100
AcDbLine
 10
2130.400212236658
 20
2549.999999999999
 30
0.0
 11
1930.209886185685
 21
2549.999999999999
 31
0.0
  0
LINE
  5
F8B
330
1F
100
AcDbEntity
  8
SUNPO
 62
   144
100
AcDbLine
 10
2130.400212236658
 20
2230.0
 30
0.0
 11
1930.209886185685
 21
2230.0
 31
0.0
  0
LINE
  5
F8C
330
1F
100
AcDbEntity
  8
SUNPO
 62
   144
100
AcDbLine
 10
1940.209886185685
 20
2535.999999999999
 30
0.0
 11
1940.209886185685
 21
2244.0
 31
0.0
  0
SOLID
  5
F8D
330
1F
100
AcDbEntity
  8
SUNPO
 62
   144
100
AcDbTrace
 10
1937.876552852351
 20
2535.999999999999
 30
0.0
 11
1942.543219519018
 21
2535.999999999999
 31
0.0
 12
1940.209886185685
 22
2549.999999999999
 32
0.0
 13
1940.209886185685
 23
2549.999999999999
 33
0.0
  0
SOLID
  5
F8E
330
1F
100
AcDbEntity
  8
SUNPO
 62
   144
100
AcDbTrace
 10
1937.876552852351
 20
2244.0
 30
0.0
 11
1942.543219519018
 21
2244.0
 31
0.0
 12
1940.209886185685
 22
2230.0
 32
0.0
 13
1940.209886185685
 23
2230.0
 33
0.0
  0
LINE
  5
F90
330
1F
100
AcDbEntity
  8
SUNPO
 62
   144
100
AcDbLine
 10
2508.7142770977
 20
2359.450240433349
 30
0.0
 11
2546.586149039692
 21
2359.450240433349
 31
0.0
  0
LINE
  5
F91
330
1F
100
AcDbEntity
  8
SUNPO
 62
   144
100
AcDbLine
 10
2508.7142770977
 20
2299.450240433349
 30
0.0
 11
2546.586149039692
 21
2299.450240433349
 31
0.0
  0
LINE
  5
F92
330
1F
100
AcDbEntity
  8
SUNPO
 62
   144
100
AcDbLine
 10
2536.586149039692
 20
2373.450240433349
 30
0.0
 11
2536.586149039692
 21
2387.450240433349
 31
0.0
  0
LINE
  5
F93
330
1F
100
AcDbEntity
  8
SUNPO
 62
   144
100
AcDbLine
 10
2536.586149039692
 20
2285.450240433348
 30
0.0
 11
2536.586149039692
 21
2271.450240433348
 31
0.0
  0
LINE
  5
F94
330
1F
100
AcDbEntity
  8
SUNPO
 62
   144
100
AcDbLine
 10
2536.586149039692
 20
2359.450240433349
 30
0.0
 11
2536.586149039692
 21
2299.450240433349
 31
0.0
  0
SOLID
  5
F95
330
1F
100
AcDbEntity
  8
SUNPO
 62
   144
100
AcDbTrace
 10
2534.252815706358
 20
2373.450240433349
 30
0.0
 11
2538.919482373025
 21
2373.450240433349
 31
0.0
 12
2536.586149039692
 22
2359.450240433349
 32
0.0
 13
2536.586149039692
 23
2359.450240433349
 33
0.0
  0
SOLID
  5
F96
330
1F
100
AcDbEntity
  8
SUNPO
 62
   144
100
AcDbTrace
 10
2534.252815706358
 20
2285.450240433348
 30
0.0
 11
2538.919482373025
 21
2285.450240433348
 31
0.0
 12
2536.586149039692
 22
2299.450240433349
 32
0.0
 13
2536.586149039692
 23
2299.450240433349
 33
0.0
  0
LINE
  5
F98
330
1F
100
AcDbEntity
  8
SUNPO
 62
   144
100
AcDbLine
 10
2260.959601611004
 20
2215.22208942946
 30
0.0
 11
2334.25528483754
 21
2321.723445001691
 31
0.0
  0
LINE
  5
F9A
330
1F
100
AcDbEntity
  8
SUNPO
 62
   144
100
AcDbLine
 10
2368.270961031071
 20
2371.149488471675
 30
0.0
 11
2356.932402299894
 21
2354.674140648348
 31
0.0
  0
SOLID
  5
F9B
330
1F
100
AcDbEntity
  8
SUNPO
 62
   144
100
AcDbTrace
 10
2328.763502229764
 20
2325.50296457875
 30
0.0
 11
2339.747067445317
 21
2317.943925424632
 31
0.0
 12
2356.932402299894
 22
2354.674140648348
 32
0.0
 13
2356.932402299894
 23
2354.674140648348
 33
0.0
  0
LINE
  5
F9C
330
1F
100
AcDbEntity
  8
SUNPO
 62
   144
100
AcDbLine
 10
2442.927622994737
 20
2661.121767239806
 30
0.0
 11
2351.642321339814
 21
2569.569653008964
 31
0.0
  0
LINE
  5
F9E
330
1F
100
AcDbEntity
  8
SUNPO
 62
   144
100
AcDbLine
 10
2302.217130388529
 20
2519.999999999999
 30
0.0
 11
2323.399355081937
 21
2541.244137003841
 31
0.0
  0
SOLID
  5
F9F
330
1F
100
AcDbEntity
  8
SUNPO
 62
   144
100
AcDbTrace
 10
2346.921402005627
 20
2574.276814051943
 30
0.0
 11
2356.363240674001
 21
2564.862491965985
 31
0.0
 12
2323.399355081937
 22
2541.244137003841
 32
0.0
 13
2323.399355081937
 23
2541.244137003841
 33
0.0
  0
LINE
  5
FA0
330
1F
100
AcDbEntity
  8
SUNPO
 62
   144
100
AcDbLine
 10
2738.918271882179
 20
2230.0
 30
0.0
 11
2829.370915756797
 21
2230.0
 31
0.0
  0
LINE
  5
FA1
330
1F
100
AcDbEntity
  8
SUNPO
 62
   144
100
AcDbLine
 10
2738.918271882179
 20
2373.0
 30
0.0
 11
2829.370915756797
 21
2373.0
 31
0.0
  0
LINE
  5
FA2
330
1F
100
AcDbEntity
  8
SUNPO
 62
   144
100
AcDbLine
 10
2819.370915756797
 20
2244.0
 30
0.0
 11
2819.370915756797
 21
2359.0
 31
0.0
  0
SOLID
  5
FA3
330
1F
100
AcDbEntity
  8
SUNPO
 62
   144
100
AcDbTrace
 10
2817.037582423464
 20
2244.0
 30
0.0
 11
2821.704249090131
 21
2244.0
 31
0.0
 12
2819.370915756797
 22
2230.0
 32
0.0
 13
2819.370915756797
 23
2230.0
 33
0.0
  0
SOLID
  5
FA4
330
1F
100
AcDbEntity
  8
SUNPO
 62
   144
100
AcDbTrace
 10
2817.037582423464
 20
2359.0
 30
0.0
 11
2821.704249090131
 21
2359.0
 31
0.0
 12
2819.370915756797
 22
2373.0
 32
0.0
 13
2819.370915756797
 23
2373.0
 33
0.0
  0
LINE
  5
FA6
330
1F
100
AcDbEntity
  8
SUNPO
 62
   144
100
AcDbLine
 10
2130.400212236658
 20
2350.0
 30
0.0
 11
2057.371245633179
 21
2350.0
 31
0.0
  0
LINE
  5
FA7
330
1F
100
AcDbEntity
  8
SUNPO
 62
   144
100
AcDbLine
 10
2130.400212236658
 20
2230.0
 30
0.0
 11
2057.371245633179
 21
2230.0
 31
0.0
  0
LINE
  5
FA8
330
1F
100
AcDbEntity
  8
SUNPO
 62
   144
100
AcDbLine
 10
2067.371245633179
 20
2336.0
 30
0.0
 11
2067.371245633179
 21
2244.0
 31
0.0
  0
SOLID
  5
FA9
330
1F
100
AcDbEntity
  8
SUNPO
 62
   144
100
AcDbTrace
 10
2065.037912299846
 20
2336.0
 30
0.0
 11
2069.704578966513
 21
2336.0
 31
0.0
 12
2067.371245633179
 22
2350.0
 32
0.0
 13
2067.371245633179
 23
2350.0
 33
0.0
  0
SOLID
  5
FAA
330
1F
100
AcDbEntity
  8
SUNPO
 62
   144
100
AcDbTrace
 10
2065.037912299846
 20
2244.0
 30
0.0
 11
2069.704578966513
 21
2244.0
 31
0.0
 12
2067.371245633179
 22
2230.0
 32
0.0
 13
2067.371245633179
 23
2230.0
 33
0.0
  0
LINE
  5
FAC
330
1F
100
AcDbEntity
  8
SUNPO
 62
   144
100
AcDbLine
 10
2130.400212236658
 20
2549.999999999999
 30
0.0
 11
2057.371245633179
 21
2549.999999999999
 31
0.0
  0
LINE
  5
FAD
330
1F
100
AcDbEntity
  8
SUNPO
 62
   144
100
AcDbLine
 10
2130.400212236658
 20
2350.0
 30
0.0
 11
2057.371245633179
 21
2350.0
 31
0.0
  0
LINE
  5
FAE
330
1F
100
AcDbEntity
  8
SUNPO
 62
   144
100
AcDbLine
 10
2067.371245633179
 20
2535.999999999999
 30
0.0
 11
2067.371245633179
 21
2364.0
 31
0.0
  0
SOLID
  5
FAF
330
1F
100
AcDbEntity
  8
SUNPO
 62
   144
100
AcDbTrace
 10
2065.037912299846
 20
2535.999999999999
 30
0.0
 11
2069.704578966513
 21
2535.999999999999
 31
0.0
 12
2067.371245633179
 22
2549.999999999999
 32
0.0
 13
2067.371245633179
 23
2549.999999999999
 33
0.0
  0
SOLID
  5
FB0
330
1F
100
AcDbEntity
  8
SUNPO
 62
   144
100
AcDbTrace
 10
2065.037912299846
 20
2364.0
 30
0.0
 11
2069.704578966513
 21
2364.0
 31
0.0
 12
2067.371245633179
 22
2350.0
 32
0.0
 13
2067.371245633179
 23
2350.0
 33
0.0
  0
LINE
  5
FB2
330
1F
100
AcDbEntity
  8
SUNPO
 62
   144
100
AcDbLine
 10
2150.400212236658
 20
2210.0
 30
0.0
 11
2150.400212236658
 21
2003.82282334736
 31
0.0
  0
LINE
  5
FB3
330
1F
100
AcDbEntity
  8
SUNPO
 62
   144
100
AcDbLine
 10
2720.400212236658
 20
2210.0
 30
0.0
 11
2720.400212236658
 21
2003.82282334736
 31
0.0
  0
LINE
  5
FB4
330
1F
100
AcDbEntity
  8
SUNPO
 62
   144
100
AcDbLine
 10
2164.400212236658
 20
2013.82282334736
 30
0.0
 11
2706.400212236658
 21
2013.82282334736
 31
0.0
  0
SOLID
  5
FB5
330
1F
100
AcDbEntity
  8
SUNPO
 62
   144
100
AcDbTrace
 10
2164.400212236658
 20
2016.156156680693
 30
0.0
 11
2164.400212236658
 21
2011.489490014027
 31
0.0
 12
2150.400212236658
 22
2013.82282334736
 32
0.0
 13
2150.400212236658
 23
2013.82282334736
 33
0.0
  0
SOLID
  5
FB6
330
1F
100
AcDbEntity
  8
SUNPO
 62
   144
100
AcDbTrace
 10
2706.400212236658
 20
2016.156156680693
 30
0.0
 11
2706.400212236658
 21
2011.489490014027
 31
0.0
 12
2720.400212236658
 22
2013.82282334736
 32
0.0
 13
2720.400212236658
 23
2013.82282334736
 33
0.0
  0
LINE
  5
FB8
330
1F
100
AcDbEntity
  8
SUNPO
 62
   144
100
AcDbLine
 10
2630.400212236658
 20
2210.0
 30
0.0
 11
2630.400212236658
 21
2111.199736056105
 31
0.0
  0
LINE
  5
FB9
330
1F
100
AcDbEntity
  8
SUNPO
 62
   144
100
AcDbLine
 10
2720.400212236658
 20
2210.0
 30
0.0
 11
2720.400212236658
 21
2111.199736056105
 31
0.0
  0
LINE
  5
FBA
330
1F
100
AcDbEntity
  8
SUNPO
 62
   144
100
AcDbLine
 10
2644.400212236658
 20
2121.199736056105
 30
0.0
 11
2706.400212236658
 21
2121.199736056105
 31
0.0
  0
SOLID
  5
FBB
330
1F
100
AcDbEntity
  8
SUNPO
 62
   144
100
AcDbTrace
 10
2644.400212236658
 20
2123.533069389439
 30
0.0
 11
2644.400212236658
 21
2118.866402722772
 31
0.0
 12
2630.400212236658
 22
2121.199736056105
 32
0.0
 13
2630.400212236658
 23
2121.199736056105
 33
0.0
  0
SOLID
  5
FBC
330
1F
100
AcDbEntity
  8
SUNPO
 62
   144
100
AcDbTrace
 10
2706.400212236658
 20
2123.533069389439
 30
0.0
 11
2706.400212236658
 21
2118.866402722772
 31
0.0
 12
2720.400212236658
 22
2121.199736056105
 32
0.0
 13
2720.400212236658
 23
2121.199736056105
 33
0.0
  0
LINE
  5
FBE
330
1F
100
AcDbEntity
  8
SUNPO
 62
   144
100
AcDbLine
 10
2600.400212236658
 20
2210.0
 30
0.0
 11
2600.400212236658
 21
2111.199736056105
 31
0.0
  0
LINE
  5
FBF
330
1F
100
AcDbEntity
  8
SUNPO
 62
   144
100
AcDbLine
 10
2630.400212236658
 20
2210.0
 30
0.0
 11
2630.400212236658
 21
2111.199736056105
 31
0.0
  0
LINE
  5
FC0
330
1F
100
AcDbEntity
  8
SUNPO
 62
   144
100
AcDbLine
 10
2586.400212236658
 20
2121.199736056105
 30
0.0
 11
2572.400212236658
 21
2121.199736056105
 31
0.0
  0
LINE
  5
FC1
330
1F
100
AcDbEntity
  8
SUNPO
 62
   144
100
AcDbLine
 10
2644.400212236658
 20
2121.199736056105
 30
0.0
 11
2658.400212236658
 21
2121.199736056105
 31
0.0
  0
LINE
  5
FC2
330
1F
100
AcDbEntity
  8
SUNPO
 62
   144
100
AcDbLine
 10
2600.400212236658
 20
2121.199736056105
 30
0.0
 11
2630.400212236658
 21
2121.199736056105
 31
0.0
  0
SOLID
  5
FC3
330
1F
100
AcDbEntity
  8
SUNPO
 62
   144
100
AcDbTrace
 10
2586.400212236658
 20
2123.533069389439
 30
0.0
 11
2586.400212236658
 21
2118.866402722772
 31
0.0
 12
2600.400212236658
 22
2121.199736056105
 32
0.0
 13
2600.400212236658
 23
2121.199736056105
 33
0.0
  0
SOLID
  5
FC4
330
1F
100
AcDbEntity
  8
SUNPO
 62
   144
100
AcDbTrace
 10
2644.400212236658
 20
2123.533069389439
 30
0.0
 11
2644.400212236658
 21
2118.866402722772
 31
0.0
 12
2630.400212236658
 22
2121.199736056105
 32
0.0
 13
2630.400212236658
 23
2121.199736056105
 33
0.0
  0
LINE
  5
FC6
330
1F
100
AcDbEntity
  8
SUNPO
 62
   144
100
AcDbLine
 10
2350.400212236658
 20
2210.0
 30
0.0
 11
2350.400212236658
 21
2111.199736056105
 31
0.0
  0
LINE
  5
FC7
330
1F
100
AcDbEntity
  8
SUNPO
 62
   144
100
AcDbLine
 10
2600.400212236658
 20
2210.0
 30
0.0
 11
2600.400212236658
 21
2111.199736056105
 31
0.0
  0
LINE
  5
FC8
330
1F
100
AcDbEntity
  8
SUNPO
 62
   144
100
AcDbLine
 10
2364.400212236658
 20
2121.199736056105
 30
0.0
 11
2586.400212236658
 21
2121.199736056105
 31
0.0
  0
SOLID
  5
FC9
330
1F
100
AcDbEntity
  8
SUNPO
 62
   144
100
AcDbTrace
 10
2364.400212236658
 20
2123.533069389439
 30
0.0
 11
2364.400212236658
 21
2118.866402722772
 31
0.0
 12
2350.400212236658
 22
2121.199736056105
 32
0.0
 13
2350.400212236658
 23
2121.199736056105
 33
0.0
  0
SOLID
  5
FCA
330
1F
100
AcDbEntity
  8
SUNPO
 62
   144
100
AcDbTrace
 10
2586.400212236658
 20
2123.533069389439
 30
0.0
 11
2586.400212236658
 21
2118.866402722772
 31
0.0
 12
2600.400212236658
 22
2121.199736056105
 32
0.0
 13
2600.400212236658
 23
2121.199736056105
 33
0.0
  0
TEXT
  5
FCC
330
1F
100
AcDbEntity
  8
MOJI
100
AcDbText
 10
2449.732511453944
 20
337.6447175562516
 30
0.0
 40
80.0
  1
CBL 1_EN
 41
0.5
  7
ADD
100
AcDbText
  0
TEXT
  5
FCD
330
1F
100
AcDbEntity
  8
MOJI
100
AcDbText
 10
677.5419319143402
 20
355.1053653779636
 30
0.0
 40
100.0
  1
千葉市型 L型 ﾌﾞﾛｯｸ CBL縁塊　標準型
 41
0.5
  7
ADD
100
AcDbText
  0
TEXT
  5
FCE
330
1F
100
AcDbEntity
  8
MOJI
100
AcDbText
 10
3246.680311730542
 20
359.2274732162223
 30
0.0
 40
70.0
  1
１／２０
 41
0.5
  7
ADD
100
AcDbText
  0
TEXT
  5
FCF
330
1F
100
AcDbEntity
  8
MOJI
100
AcDbText
 10
381.8862574011546
 20
488.6918916770627
 30
0.0
 40
50.0
  1
製品名
 41
0.5
  7
ADD
100
AcDbText
  0
TEXT
  5
FD0
330
1F
100
AcDbEntity
  8
MOJI
100
AcDbText
 10
2376.290169028722
 20
494.4531736811823
 30
0.0
 40
50.0
  1
型式
 41
0.5
  7
ADD
100
AcDbText
  0
TEXT
  5
FD1
330
1F
100
AcDbEntity
  8
MOJI
100
AcDbText
 10
3177.510249231658
 20
488.6918916770627
 30
0.0
 40
50.0
  1
縮尺
 41
0.5
  7
ADD
100
AcDbText
  0
TEXT
  5
FD2
330
1F
100
AcDbEntity
  8
MOJI
100
AcDbText
 10
3730.870883051572
 20
352.2726133092145
 30
0.0
 40
100.0
  1
千葉県コンクリート製品協同組合
 41
0.5
  7
ADD
100
AcDbText
  0
LINE
  5
FD3
330
1F
100
AcDbEntity
  8
HOJO
100
AcDbLine
 10
360.0
 20
260.0
 30
0.0
 11
5580.0
 21
260.0
 31
0.0
  0
LINE
  5
FD4
330
1F
100
AcDbEntity
  8
HOJO
100
AcDbLine
 10
5580.0
 20
260.0
 30
0.0
 11
5580.0
 21
3940.0
 31
0.0
  0
LINE
  5
FD5
330
1F
100
AcDbEntity
  8
HOJO
100
AcDbLine
 10
5580.0
 20
3940.0
 30
0.0
 11
360.0
 21
3940.0
 31
0.0
  0
LINE
  5
FD6
330
1F
100
AcDbEntity
  8
HOJO
100
AcDbLine
 10
360.0
 20
3940.0
 30
0.0
 11
360.0
 21
260.0
 31
0.0
  0
LINE
  5
FD7
330
1F
100
AcDbEntity
  8
HOJO
100
AcDbLine
 10
0.0
 20
0.0
 30
0.0
 11
5940.0
 21
0.0
 31
0.0
  0
LINE
  5
FD8
330
1F
100
AcDbEntity
  8
HOJO
100
AcDbLine
 10
5940.0
 20
0.0
 30
0.0
 11
5940.0
 21
4200.0
 31
0.0
  0
LINE
  5
FD9
330
1F
100
AcDbEntity
  8
HOJO
100
AcDbLine
 10
5940.0
 20
4200.0
 30
0.0
 11
0.0
 21
4200.0
 31
0.0
  0
LINE
  5
FDA
330
1F
100
AcDbEntity
  8
HOJO
100
AcDbLine
 10
0.0
 20
4200.0
 30
0.0
 11
0.0
 21
0.0
 31
0.0
  0
TEXT
  5
FDB
330
1F
100
AcDbEntity
  8
SUNPO
 62
     7
100
AcDbText
 10
2439.685926522372
 20
2133.699736056105
 30
0.0
 40
50.0
  1
250
 41
0.5
  7
ADD
100
AcDbText
  0
TEXT
  5
FDC
330
1F
100
AcDbEntity
  8
SUNPO
 62
     7
100
AcDbText
 10
2591.590688427134
 20
2133.699736056105
 30
0.0
 40
50.0
  1
30
 41
0.5
  7
ADD
100
AcDbText
  0
TEXT
  5
FDD
330
1F
100
AcDbEntity
  8
SUNPO
 62
     7
100
AcDbText
 10
2651.590688427134
 20
2133.699736056105
 30
0.0
 40
50.0
  1
90
 41
0.5
  7
ADD
100
AcDbText
  0
TEXT
  5
FDE
330
1F
100
AcDbEntity
  8
SUNPO
 62
     7
100
AcDbText
 10
2399.685926522372
 20
2026.32282334736
 30
0.0
 40
50.0
  1
570
 41
0.5
  7
ADD
100
AcDbText
  0
TEXT
  5
FDF
330
1F
100
AcDbEntity
  8
SUNPO
 62
     7
100
AcDbText
 10
2054.871245633179
 20
2414.285714285714
 30
0.0
 40
50.0
  1
200
 50
90.0
 41
0.5
  7
ADD
100
AcDbText
  0
TEXT
  5
FE0
330
1F
100
AcDbEntity
  8
SUNPO
 62
     7
100
AcDbText
 10
2054.871245633179
 20
2252.5
 30
0.0
 40
50.0
  1
120
 50
90.0
 41
0.5
  7
ADD
100
AcDbText
  0
TEXT
  5
FE1
330
1F
100
AcDbEntity
  8
SUNPO
 62
     7
100
AcDbText
 10
2806.870915756796
 20
2264.0
 30
0.0
 40
50.0
  1
143
 50
90.0
 41
0.5
  7
ADD
100
AcDbText
  0
TEXT
  5
FE2
330
1F
100
AcDbEntity
  8
SUNPO
 62
     7
100
AcDbText
 10
2376.497232913834
 20
2612.200734482569
 30
0.0
 40
50.0
  1
R30
 50
45.08361102455772
 41
0.5
  7
ADD
100
AcDbText
  0
TEXT
  5
FE3
330
1F
100
AcDbEntity
  8
SUNPO
 62
     7
100
AcDbText
 10
2255.049451587653
 20
2228.683079163329
 30
0.0
 40
50.0
  1
R20
 50
55.46372194591885
 41
0.5
  7
ADD
100
AcDbText
  0
TEXT
  5
FE4
330
1F
100
AcDbEntity
  8
SUNPO
 62
     7
100
AcDbText
 10
2524.086149039691
 20
2305.045478528587
 30
0.0
 40
50.0
  1
60
 50
90.0
 41
0.5
  7
ADD
100
AcDbText
  0
TEXT
  5
FE5
330
1F
100
AcDbEntity
  8
SUNPO
 62
     7
100
AcDbText
 10
1927.709886185684
 20
2354.285714285714
 30
0.0
 40
50.0
  1
320
 50
90.0
 41
0.5
  7
ADD
100
AcDbText
  0
TEXT
  5
FE6
330
1F
100
AcDbEntity
  8
SUNPO
 62
     7
100
AcDbText
 10
3541.466578272499
 20
2893.705185243121
 30
0.0
 40
50.0
  1
700
 41
0.5
  7
ADD
100
AcDbText
  0
TEXT
  5
FE7
330
1F
100
AcDbEntity
  8
SUNPO
 62
     7
100
AcDbText
 10
3264.680863986785
 20
2142.5
 30
0.0
 40
50.0
  1
150
 41
0.5
  7
ADD
100
AcDbText
  0
TEXT
  5
FE8
330
1F
100
AcDbEntity
  8
SUNPO
 62
     7
100
AcDbText
 10
3541.466578272499
 20
2142.5
 30
0.0
 40
50.0
  1
400
 41
0.5
  7
ADD
100
AcDbText
  0
TEXT
  5
FE9
330
1F
100
AcDbEntity
  8
SUNPO
 62
     7
100
AcDbText
 10
3814.680863986785
 20
2142.5
 30
0.0
 40
50.0
  1
150
 41
0.5
  7
ADD
100
AcDbText
  0
TEXT
  5
FEA
330
1F
100
AcDbEntity
  8
SUNPO
 62
     7
100
AcDbText
 10
3541.466578272499
 20
2026.32282334736
 30
0.0
 40
50.0
  1
700
 41
0.5
  7
ADD
100
AcDbText
  0
TEXT
  5
FEB
330
1F
100
AcDbEntity
  8
SUNPO
 62
     7
100
AcDbText
 10
3247.180863986785
 20
2716.602998826749
 30
0.0
 40
50.0
  1
115
 41
0.5
  7
ADD
100
AcDbText
  0
TEXT
  5
FEC
330
1F
100
AcDbEntity
  8
SUNPO
 62
     7
100
AcDbText
 10
3541.466578272499
 20
2716.602998826749
 30
0.0
 40
50.0
  1
470
 41
0.5
  7
ADD
100
AcDbText
  0
TEXT
  5
FED
330
1F
100
AcDbEntity
  8
SUNPO
 62
     7
100
AcDbText
 10
3832.180863986785
 20
2716.602998826749
 30
0.0
 40
50.0
  1
115
 41
0.5
  7
ADD
100
AcDbText
  0
TEXT
  5
FEE
330
1F
100
AcDbEntity
  8
SUNPO
 62
     7
100
AcDbText
 10
3076.073534378214
 20
2354.285714285714
 30
0.0
 40
50.0
  1
320
 50
90.0
 41
0.5
  7
ADD
100
AcDbText
  0
TEXT
  5
FEF
330
1F
100
AcDbEntity
  8
SUNPO
 62
     7
100
AcDbText
 10
3160.113402879116
 20
2252.5
 30
0.0
 40
50.0
  1
120
 50
90.0
 41
0.5
  7
ADD
100
AcDbText
  0
TEXT
  5
FF0
330
1F
100
AcDbEntity
  8
SUNPO
 62
     7
100
AcDbText
 10
3160.113402879116
 20
2414.285714285714
 30
0.0
 40
50.0
  1
200
 50
90.0
 41
0.5
  7
ADD
100
AcDbText
  0
TEXT
  5
FF1
330
1F
100
AcDbEntity
  8
SUNPO
 62
     7
100
AcDbText
 10
4018.094054746518
 20
2264.0
 30
0.0
 40
50.0
  1
143
 50
90.0
 41
0.5
  7
ADD
100
AcDbText
  0
TEXT
  5
FF2
330
1F
100
AcDbEntity
  8
SUNPO
 62
     7
100
AcDbText
 10
2214.685926522372
 20
2133.699736056105
 30
0.0
 40
50.0
  1
200
 41
0.5
  7
ADD
100
AcDbText
  0
TEXT
  5
FF3
330
1F
100
AcDbEntity
  8
SUNPO
 62
     7
100
AcDbText
 10
2119.983545569991
 20
2736.602998826749
 30
0.0
 40
50.0
  1
22.5
 41
0.5
  7
ADD
100
AcDbText
  0
TEXT
  5
FF4
330
1F
100
AcDbEntity
  8
SUNPO
 62
     7
100
AcDbText
 10
2212.900212236658
 20
2736.602998826749
 30
0.0
 40
50.0
  1
155
 41
0.5
  7
ADD
100
AcDbText
  0
TEXT
  5
FF5
330
1F
100
AcDbEntity
  8
SUNPO
 62
     7
100
AcDbText
 10
2297.483545569992
 20
2736.602998826749
 30
0.0
 40
50.0
  1
22.5
 41
0.5
  7
ADD
100
AcDbText
  0
TEXT
  5
FF6
330
1F
100
AcDbEntity
  8
SUNPO
 62
     7
100
AcDbText
 10
2454.685926522373
 20
2736.602998826749
 30
0.0
 40
50.0
  1
280
 41
0.5
  7
ADD
100
AcDbText
  0
TEXT
  5
FF7
330
1F
100
AcDbEntity
  8
SUNPO
 62
     7
100
AcDbText
 10
2651.590688427134
 20
2736.602998826749
 30
0.0
 40
50.0
  1
90
 41
0.5
  7
ADD
100
AcDbText
  0
LINE
  5
114F
330
1F
100
AcDbEntity
  8
3C1
  6
HIDDEN2
100
AcDbLine
 10
3377.180863986785
 20
2229.999999999999
 30
0.0
 11
3377.180863986785
 21
2313.0
 31
0.0
  0
LINE
  5
1150
330
1F
100
AcDbEntity
  8
3C1
  6
HIDDEN2
100
AcDbLine
 10
3777.180863986785
 20
2229.999999999999
 30
0.0
 11
3777.180863986785
 21
2313.0
 31
0.0
  0
VIEWPORT
  5
72
330
1B
100
AcDbEntity
 67
     1
  8
0
100
AcDbViewport
 10
449.2508750000001
 20
277.0
 30
0.0
 40
987.8040000000002
 41
628.4520000000001
 68
     1
 69
     1
1001
ACAD
1000
MVIEW
1002
{
1070
    16
1010
0.0
1020
0.0
1030
0.0
1010
0.0
1020
0.0
1030
1.0
1040
0.0
1040
628.4520000000001
1040
449.2508750000001
1040
277.0
1040
50.0
1040
0.0
1040
0.0
1070
     0
1070
   100
1070
     1
1070
     1
1070
     0
1070
     0
1070
     0
1070
     0
1040
0.0
1040
0.0
1040
0.0
1040
10.0
1040
10.0
1040
10.0
1040
10.0
1070
     0
1002
{
1002
}
1002
}
  0
VIEWPORT
  5
74
330
1B
100
AcDbEntity
 67
     1
  8
VIEWPORT
100
AcDbViewport
 10
414.3779638919211
 20
277.3177265058034
 30
0.0
 40
840.0353682728887
 41
567.2285469943826
 68
     2
 69
     2
1001
ACAD
1000
MVIEW
1002
{
1070
    16
1010
0.0
1020
0.0
1030
0.0
1010
0.0
1020
0.0
1030
1.0
1040
0.0
1040
579.5583043546323
1040
424.4938908624541
1040
286.1973242720074
1040
50.0
1040
0.0
1040
0.0
1070
     0
1070
   100
1070
     1
1070
     1
1070
     0
1070
     0
1070
     0
1070
     0
1040
0.0
1040
0.0
1040
0.0
1040
10.0
1040
10.0
1040
10.0
1040
10.0
1070
     0
1002
{
1002
}
1002
}
  0
ENDSEC
  0
SECTION
  2
OBJECTS
  0
DICTIONARY
  5
C
330
0
100
AcDbDictionary
  3
ACAD_GROUP
350
D
  3
ACAD_LAYOUT
350
1A
  3
ACAD_MLINESTYLE
350
17
  3
ACAD_PLOTSETTINGS
350
19
  3
DWGPROPS
350
4C7
1001
ACAD
1000
TREAT_AS_HARD
1070
     0
  0
DICTIONARY
  5
6A1
330
1F
100
AcDbDictionary
  3
ACAD_LAYOUTSELFREF
350
11BA
1001
ACAD
1000
TREAT_AS_HARD
1070
     1
  0
DICTIONARY
  5
6A3
330
1B
100
AcDbDictionary
  3
ACAD_LAYOUTSELFREF
350
11B9
1001
ACAD
1000
TREAT_AS_HARD
1070
     1
  0
DICTIONARY
  5
D
102
{ACAD_REACTORS
330
C
102
}
330
C
100
AcDbDictionary
1001
ACAD
1000
TREAT_AS_HARD
1070
     0
  0
DICTIONARY
  5
1A
102
{ACAD_REACTORS
330
C
102
}
330
C
100
AcDbDictionary
1001
ACAD
1000
TREAT_AS_HARD
1070
     0
  0
DICTIONARY
  5
17
102
{ACAD_REACTORS
330
C
102
}
330
C
100
AcDbDictionary
  3
STANDARD
350
18
1001
ACAD
1000
TREAT_AS_HARD
1070
     0
  0
DICTIONARY
  5
19
102
{ACAD_REACTORS
330
C
102
}
330
C
100
AcDbDictionary
1001
ACAD
1000
TREAT_AS_HARD
1070
     0
  0
XRECORD
  5
4C7
102
{ACAD_REACTORS
330
C
102
}
330
C
100
AcDbXrecord
  1
DWGPROPS COOKIE
  2
印刷用テスト
  3
AutoCAD2000による建築設計
  4
鈴木 裕二
  6

  7

  8
U2
  9

300
=
301
=
302
=
303
=
304
=
305
=
306
=
307
=
308
=
309
=
 40
0.7653446875
 41
2451285.4846114
 42
2451333.689743032
  1

 90
        0
  0
XRECORD
  5
11BA
102
{ACAD_REACTORS
330
6A1
102
}
330
6A1
100
AcDbXrecord
340
1F
  0
XRECORD
  5
11B9
102
{ACAD_REACTORS
330
6A3
102
}
330
6A3
100
AcDbXrecord
340
1B
  0
MLINESTYLE
  5
18
102
{ACAD_REACTORS
330
17
102
}
330
17
100
AcDbMlineStyle
  2
STANDARD
 70
     0
  3

 62
   256
 51
90.0
 52
90.0
 71
     2
 49
0.5
 62
   256
  6
BYLAYER
 49
-0.5
 62
   256
  6
BYLAYER
  0
ENDSEC
  0
EOF
