  0
SECTION
  2
HEADER
  9
$ACADVER
  1
AC1012
  9
$DWGCODEPAGE
  3
dos932
  9
$INSBASE
 10
0.0
 20
0.0
 30
0.0
  9
$EXTMIN
 10
-0.0905735849501071
 20
-0.0640419287501573
 30
-0.0000000000112498
  9
$EXTMAX
 10
5940.09065657085
 20
4200.064100605652
 30
0.0000000000002956
  9
$LIMMIN
 10
0.0
 20
0.0
  9
$LIMMAX
 10
5940.0
 20
4200.0
  9
$ORTHOMODE
 70
     0
  9
$REGENMODE
 70
     1
  9
$FILLMODE
 70
     1
  9
$QTEXTMODE
 70
     0
  9
$MIRRTEXT
 70
     0
  9
$DRAGMODE
 70
     2
  9
$LTSCALE
 40
10.0
  9
$OSMODE
 70
  3071
  9
$ATTMODE
 70
     1
  9
$TEXTSIZE
 40
50.0
  9
$TRACEWID
 40
1.0
  9
$TEXTSTYLE
  7
ADD
  9
$CLAYER
  8
3C1
  9
$CELTYPE
  6
BYLAYER
  9
$CECOLOR
 62
   256
  9
$CELTSCALE
 40
1.0
  9
$DELOBJ
 70
     1
  9
$DISPSILH
 70
     0
  9
$DIMSCALE
 40
20.0
  9
$DIMASZ
 40
2.5
  9
$DIMEXO
 40
1.0
  9
$DIMDLI
 40
8.0
  9
$DIMRND
 40
0.0
  9
$DIMDLE
 40
0.0
  9
$DIMEXE
 40
0.5
  9
$DIMTP
 40
0.0
  9
$DIMTM
 40
0.0
  9
$DIMTXT
 40
2.5
  9
$DIMCEN
 40
2.5
  9
$DIMTSZ
 40
0.0
  9
$DIMTOL
 70
     0
  9
$DIMLIM
 70
     0
  9
$DIMTIH
 70
     0
  9
$DIMTOH
 70
     0
  9
$DIMSE1
 70
     0
  9
$DIMSE2
 70
     0
  9
$DIMTAD
 70
     1
  9
$DIMZIN
 70
     8
  9
$DIMBLK
  1

  9
$DIMASO
 70
     1
  9
$DIMSHO
 70
     1
  9
$DIMPOST
  1

  9
$DIMAPOST
  1

  9
$DIMALT
 70
     0
  9
$DIMALTD
 70
     3
  9
$DIMALTF
 40
0.03937007874016
  9
$DIMLFAC
 40
1.0
  9
$DIMTOFL
 70
     1
  9
$DIMTVP
 40
0.7
  9
$DIMTIX
 70
     1
  9
$DIMSOXD
 70
     0
  9
$DIMSAH
 70
     0
  9
$DIMBLK1
  1

  9
$DIMBLK2
  1

  9
$DIMSTYLE
  2
ADD
  9
$DIMCLRD
 70
   144
  9
$DIMCLRE
 70
   144
  9
$DIMCLRT
 70
     7
  9
$DIMTFAC
 40
1.0
  9
$DIMGAP
 40
0.625
  9
$DIMJUST
 70
     0
  9
$DIMSD1
 70
     0
  9
$DIMSD2
 70
     0
  9
$DIMTOLJ
 70
     2
  9
$DIMTZIN
 70
     8
  9
$DIMALTZ
 70
     0
  9
$DIMALTTZ
 70
     0
  9
$DIMFIT
 70
     3
  9
$DIMUPT
 70
     0
  9
$DIMUNIT
 70
     2
  9
$DIMDEC
 70
     1
  9
$DIMTDEC
 70
     1
  9
$DIMALTU
 70
     2
  9
$DIMALTTD
 70
     3
  9
$DIMTXSTY
  7
ADD
  9
$DIMAUNIT
 70
     0
  9
$LUNITS
 70
     2
  9
$LUPREC
 70
     4
  9
$SKETCHINC
 40
1.0
  9
$FILLETRAD
 40
0.0
  9
$AUNITS
 70
     0
  9
$AUPREC
 70
     1
  9
$MENU
  1
.
  9
$ELEVATION
 40
0.0
  9
$PELEVATION
 40
0.0
  9
$THICKNESS
 40
0.0
  9
$LIMCHECK
 70
     0
  9
$BLIPMODE
 70
     0
  9
$CHAMFERA
 40
10.0
  9
$CHAMFERB
 40
10.0
  9
$CHAMFERC
 40
20.0
  9
$CHAMFERD
 40
0.0
  9
$SKPOLY
 70
     0
  9
$TDCREATE
 40
2451801.142532870
  9
$TDUPDATE
 40
2452537.650571342
  9
$TDINDWG
 40
0.2732578009
  9
$TDUSRTIMER
 40
0.2732563657
  9
$USRTIMER
 70
     1
  9
$ANGBASE
 50
0.0
  9
$ANGDIR
 70
     0
  9
$PDMODE
 70
     0
  9
$PDSIZE
 40
0.0
  9
$PLINEWID
 40
0.0
  9
$COORDS
 70
     1
  9
$SPLFRAME
 70
     0
  9
$SPLINETYPE
 70
     6
  9
$SPLINESEGS
 70
     8
  9
$ATTDIA
 70
     0
  9
$ATTREQ
 70
     1
  9
$HANDLING
 70
 22529
  9
$HANDSEED
  5
1278
  9
$SURFTAB1
 70
     6
  9
$SURFTAB2
 70
     6
  9
$SURFTYPE
 70
     6
  9
$SURFU
 70
     6
  9
$SURFV
 70
     6
  9
$UCSNAME
  2

  9
$UCSORG
 10
0.0
 20
0.0
 30
0.0
  9
$UCSXDIR
 10
1.0
 20
0.0
 30
0.0
  9
$UCSYDIR
 10
0.0
 20
1.0
 30
0.0
  9
$PUCSNAME
  2

  9
$PUCSORG
 10
0.0
 20
0.0
 30
0.0
  9
$PUCSXDIR
 10
1.0
 20
0.0
 30
0.0
  9
$PUCSYDIR
 10
0.0
 20
1.0
 30
0.0
  9
$USERI1
 70
     0
  9
$USERI2
 70
     0
  9
$USERI3
 70
     0
  9
$USERI4
 70
     0
  9
$USERI5
 70
     0
  9
$USERR1
 40
841.0
  9
$USERR2
 40
594.0
  9
$USERR3
 40
1.0
  9
$USERR4
 40
0.0
  9
$USERR5
 40
0.0
  9
$WORLDVIEW
 70
     1
  9
$SHADEDGE
 70
     3
  9
$SHADEDIF
 70
    70
  9
$TILEMODE
 70
     1
  9
$MAXACTVP
 70
    48
  9
$PINSBASE
 10
0.0
 20
0.0
 30
0.0
  9
$PLIMCHECK
 70
     0
  9
$PEXTMIN
 10
-5.662975978526673
 20
-6.331907780761866
 30
-0.0015258207003583
  9
$PEXTMAX
 10
834.4213426047982
 20
560.9663709967471
 30
0.0000000349246037
  9
$PLIMMIN
 10
-7.5
 20
-20.0
  9
$PLIMMAX
 10
833.5000000000004
 20
574.0000000000001
  9
$UNITMODE
 70
     0
  9
$VISRETAIN
 70
     1
  9
$PLINEGEN
 70
     0
  9
$PSLTSCALE
 70
     1
  9
$TREEDEPTH
 70
  3020
  9
$PICKSTYLE
 70
     1
  9
$CMLSTYLE
  2
STANDARD
  9
$CMLJUST
 70
     0
  9
$CMLSCALE
 40
20.0
  9
$SAVEIMAGES
 70
     1
  0
ENDSEC
  0
SECTION
  2
CLASSES
  0
CLASS
  1
ACDBDICTIONARYWDFLT
  2
AcDbDictionaryWithDefault
  3
AutoCAD 2000
 90
    32768
280
     0
281
     0
  0
CLASS
  1
ACDBPLACEHOLDER
  2
AcDbPlaceHolder
  3
AutoCAD 2000
 90
    32768
280
     0
281
     0
  0
CLASS
  1
LAYOUT
  2
AcDbLayout
  3
AutoCAD 2000
 90
    32768
280
     0
281
     0
  0
CLASS
  1
RTEXT
  2
RText
  3
RText|AutoCAD Express Tool|expresstools@autodesk.com
 90
    32768
280
     0
281
     1
  0
CLASS
  1
DICTIONARYVAR
  2
AcDbDictionaryVar
  3
AutoCAD 2000
 90
    32768
280
     0
281
     0
  0
CLASS
  1
LONG_TRANSACTION
  2
AcDbLongTransaction
  3
AutoCAD 2000
 90
    32768
280
     0
281
     0
  0
CLASS
  1
LWPOLYLINE
  2
AcDbPolyline
  3
AutoCAD 2000
 90
    32768
280
     0
281
     1
  0
CLASS
  1
HATCH
  2
AcDbHatch
  3
AutoCAD 2000
 90
    32768
280
     0
281
     1
  0
CLASS
  1
XRECORD
  2
AcDbXrecord
  3
AutoCAD 2000
 90
    32768
280
     0
281
     0
  0
CLASS
  1
LONG_TRANSACTION
  2
AcDbLongTransaction
  3
AutoCAD 2000
 90
    32768
280
     0
281
     0
  0
CLASS
  1
LWPOLYLINE
  2
AcDbPolyline
  3
AutoCAD 2000
 90
    32768
280
     0
281
     1
  0
CLASS
  1
HATCH
  2
AcDbHatch
  3
AutoCAD 2000
 90
    32768
280
     0
281
     1
  0
CLASS
  1
XRECORD
  2
AcDbXrecord
  3
AutoCAD 2000
 90
    32768
280
     0
281
     0
  0
CLASS
  1
LONG_TRANSACTION
  2
AcDbLongTransaction
  3
AutoCAD 2000
 90
    32768
280
     0
281
     0
  0
CLASS
  1
LWPOLYLINE
  2
AcDbPolyline
  3
AutoCAD 2000
 90
    32768
280
     0
281
     1
  0
CLASS
  1
HATCH
  2
AcDbHatch
  3
AutoCAD 2000
 90
    32768
280
     0
281
     1
  0
CLASS
  1
XRECORD
  2
AcDbXrecord
  3
AutoCAD 2000
 90
    32768
280
     0
281
     0
  0
CLASS
  1
LONG_TRANSACTION
  2
AcDbLongTransaction
  3
AutoCAD 2000
 90
    32768
280
     0
281
     0
  0
CLASS
  1
LWPOLYLINE
  2
AcDbPolyline
  3
AutoCAD 2000
 90
    32768
280
     0
281
     1
  0
CLASS
  1
HATCH
  2
AcDbHatch
  3
AutoCAD 2000
 90
    32768
280
     0
281
     1
  0
CLASS
  1
XRECORD
  2
AcDbXrecord
  3
AutoCAD 2000
 90
    32768
280
     0
281
     0
  0
CLASS
  1
LONG_TRANSACTION
  2
AcDbLongTransaction
  3
AutoCAD 2000
 90
    32768
280
     0
281
     0
  0
CLASS
  1
LWPOLYLINE
  2
AcDbPolyline
  3
AutoCAD 2000
 90
    32768
280
     0
281
     1
  0
CLASS
  1
HATCH
  2
AcDbHatch
  3
AutoCAD 2000
 90
    32768
280
     0
281
     1
  0
CLASS
  1
XRECORD
  2
AcDbXrecord
  3
AutoCAD 2000
 90
    32768
280
     0
281
     0
  0
ENDSEC
  0
SECTION
  2
TABLES
  0
TABLE
  2
VPORT
  5
8
330
0
100
AcDbSymbolTable
 70
     4
  0
VPORT
  5
1268
330
8
100
AcDbSymbolTableRecord
100
AcDbViewportTableRecord
  2
*ACTIVE
 70
     0
 10
0.0
 20
0.0
 11
1.0
 21
1.0
 12
2970.00004149295
 22
2100.000029338451
 13
0.0
 23
0.0
 14
50.0
 24
50.0
 15
100.0
 25
100.0
 16
0.0
 26
0.0
 36
1.0
 17
0.0
 27
0.0
 37
0.0
 40
4232.856413774931
 41
1.566970091027308
 42
50.0
 43
0.0
 44
0.0
 50
0.0
 51
0.0
 71
     0
 72
   100
 73
     1
 74
     1
 75
     0
 76
     0
 77
     0
 78
     0
  0
ENDTAB
  0
TABLE
  2
LTYPE
  5
5
330
0
100
AcDbSymbolTable
 70
     5
  0
LTYPE
  5
14
330
5
100
AcDbSymbolTableRecord
100
AcDbLinetypeTableRecord
  2
BYBLOCK
 70
     0
  3

 72
    65
 73
     0
 40
0.0
  0
LTYPE
  5
15
330
5
100
AcDbSymbolTableRecord
100
AcDbLinetypeTableRecord
  2
BYLAYER
 70
     0
  3

 72
    65
 73
     0
 40
0.0
  0
LTYPE
  5
16
330
5
100
AcDbSymbolTableRecord
100
AcDbLinetypeTableRecord
  2
CONTINUOUS
 70
     0
  3
Solid line
 72
    65
 73
     0
 40
0.0
  0
LTYPE
  5
555
330
5
100
AcDbSymbolTableRecord
100
AcDbLinetypeTableRecord
  2
CENTER
 70
     0
  3
Center ____ _ ____ _ ____ _ ____ _ ____ _ ____
 72
    65
 73
     4
 40
50.8
 49
31.75
 74
     0
 49
-6.349999999999997
 74
     0
 49
6.349999999999997
 74
     0
 49
-6.349999999999997
 74
     0
  0
LTYPE
  5
556
330
5
100
AcDbSymbolTableRecord
100
AcDbLinetypeTableRecord
  2
HIDDEN
 70
     0
  3
Hidden __ __ __ __ __ __ __ __ __ __ __ __ __ _
 72
    65
 73
     2
 40
9.524999999999996
 49
6.349999999999997
 74
     0
 49
-3.174999999999998
 74
     0
  0
LTYPE
  5
557
330
5
100
AcDbSymbolTableRecord
100
AcDbLinetypeTableRecord
  2
HIDDEN2
 70
     0
  3
Hidden (.5x) _ _ _ _ _ _ _ _ _ _ _ _ _ _ _ _ _
 72
    65
 73
     2
 40
4.762499999999998
 49
3.174999999999998
 74
     0
 49
-1.587499999999999
 74
     0
  0
LTYPE
  5
558
330
5
100
AcDbSymbolTableRecord
100
AcDbLinetypeTableRecord
  2
PHANTOM
 70
     0
  3
Phantom ______  __  __  ______  __  __  ______
 72
    65
 73
     6
 40
63.5
 49
31.75
 74
     0
 49
-6.349999999999997
 74
     0
 49
6.349999999999997
 74
     0
 49
-6.349999999999997
 74
     0
 49
6.349999999999997
 74
     0
 49
-6.349999999999997
 74
     0
  0
ENDTAB
  0
TABLE
  2
LAYER
  5
2
330
0
100
AcDbSymbolTable
 70
    22
  0
LAYER
  5
10
330
2
100
AcDbSymbolTableRecord
100
AcDbLayerTableRecord
  2
0
 70
     0
 62
     7
  6
CONTINUOUS
  0
LAYER
  5
75
330
2
100
AcDbSymbolTableRecord
100
AcDbLayerTableRecord
  2
VIEWPORT
 70
     0
 62
     1
  6
CONTINUOUS
  0
LAYER
  5
504
330
2
100
AcDbSymbolTableRecord
100
AcDbLayerTableRecord
  2
DEFPOINTS
 70
     0
 62
     4
  6
CONTINUOUS
  0
LAYER
  5
505
330
2
100
AcDbSymbolTableRecord
100
AcDbLayerTableRecord
  2
1C1
 70
     0
 62
   254
  6
CONTINUOUS
  0
LAYER
  5
506
330
2
100
AcDbSymbolTableRecord
100
AcDbLayerTableRecord
  2
1C2
 70
     0
 62
   254
  6
CONTINUOUS
  0
LAYER
  5
507
330
2
100
AcDbSymbolTableRecord
100
AcDbLayerTableRecord
  2
2C1
 70
     0
 62
   144
  6
CONTINUOUS
  0
LAYER
  5
508
330
2
100
AcDbSymbolTableRecord
100
AcDbLayerTableRecord
  2
2C2
 70
     0
 62
   144
  6
CONTINUOUS
  0
LAYER
  5
509
330
2
100
AcDbSymbolTableRecord
100
AcDbLayerTableRecord
  2
2H1
 70
     0
 62
   144
  6
HIDDEN
  0
LAYER
  5
50A
330
2
100
AcDbSymbolTableRecord
100
AcDbLayerTableRecord
  2
2H2
 70
     0
 62
   144
  6
HIDDEN2
  0
LAYER
  5
50B
330
2
100
AcDbSymbolTableRecord
100
AcDbLayerTableRecord
  2
2P1
 70
     0
 62
   144
  6
PHANTOM
  0
LAYER
  5
50C
330
2
100
AcDbSymbolTableRecord
100
AcDbLayerTableRecord
  2
3C1
 70
     0
 62
     7
  6
CONTINUOUS
  0
LAYER
  5
50D
330
2
100
AcDbSymbolTableRecord
100
AcDbLayerTableRecord
  2
3C2
 70
     0
 62
     7
  6
CONTINUOUS
  0
LAYER
  5
50E
330
2
100
AcDbSymbolTableRecord
100
AcDbLayerTableRecord
  2
3C3
 70
     0
 62
     7
  6
CONTINUOUS
  0
LAYER
  5
50F
330
2
100
AcDbSymbolTableRecord
100
AcDbLayerTableRecord
  2
4H1
 70
     0
 62
     6
  6
HIDDEN
  0
LAYER
  5
510
330
2
100
AcDbSymbolTableRecord
100
AcDbLayerTableRecord
  2
4H2
 70
     0
 62
     6
  6
HIDDEN2
  0
LAYER
  5
511
330
2
100
AcDbSymbolTableRecord
100
AcDbLayerTableRecord
  2
5C1
 70
     0
 62
    55
  6
CONTINUOUS
  0
LAYER
  5
512
330
2
100
AcDbSymbolTableRecord
100
AcDbLayerTableRecord
  2
5C2
 70
     0
 62
    55
  6
CONTINUOUS
  0
LAYER
  5
513
330
2
100
AcDbSymbolTableRecord
100
AcDbLayerTableRecord
  2
8C1
 70
     0
 62
    92
  6
CONTINUOUS
  0
LAYER
  5
514
330
2
100
AcDbSymbolTableRecord
100
AcDbLayerTableRecord
  2
HOJO
 70
     0
 62
     5
  6
CONTINUOUS
  0
LAYER
  5
515
330
2
100
AcDbSymbolTableRecord
100
AcDbLayerTableRecord
  2
KIJUN
 70
     0
 62
     1
  6
CENTER
  0
LAYER
  5
516
330
2
100
AcDbSymbolTableRecord
100
AcDbLayerTableRecord
  2
MOJI
 70
     0
 62
     7
  6
CONTINUOUS
  0
LAYER
  5
517
330
2
100
AcDbSymbolTableRecord
100
AcDbLayerTableRecord
  2
SUNPO
 70
     0
 62
   144
  6
CONTINUOUS
  0
ENDTAB
  0
TABLE
  2
STYLE
  5
3
330
0
100
AcDbSymbolTable
 70
     6
  0
STYLE
  5
11
330
3
100
AcDbSymbolTableRecord
100
AcDbTextStyleTableRecord
  2
STANDARD
 70
     0
 40
0.0
 41
1.0
 50
0.0
 71
     0
 42
2.5
  3
txt
  4

  0
STYLE
  5
2C
330
3
100
AcDbSymbolTableRecord
100
AcDbTextStyleTableRecord
  2

 70
     1
 40
0.0
 41
1.0
 50
0.0
 71
     0
 42
2.5
  3
ltypeshp.shx
  4

  0
STYLE
  5
18E
330
3
100
AcDbSymbolTableRecord
100
AcDbTextStyleTableRecord
  2
ADD
 70
     0
 40
0.0
 41
1.0
 50
0.0
 71
     0
 42
50.0
  3
romans.shx
  4
bigfont.shx
  0
STYLE
  5
191
330
3
100
AcDbSymbolTableRecord
100
AcDbTextStyleTableRecord
  2
MSG
 70
     0
 40
0.0
 41
1.0
 50
0.0
 71
     0
 42
2.5
  3
MS Gothic.ttf
  4

1001
ACAD
1000
MS Gothic
1071
    32817
  0
STYLE
  5
5C8
330
3
100
AcDbSymbolTableRecord
100
AcDbTextStyleTableRecord
  2
STANDARD15
 70
     0
 40
0.0
 41
1.0
 50
15.0
 71
     0
 42
2.5
  3
ROMANS
  4
bigfont
  0
STYLE
  5
5C9
330
3
100
AcDbSymbolTableRecord
100
AcDbTextStyleTableRecord
  2
ROMANS15
 70
     0
 40
0.0
 41
1.0
 50
15.0
 71
     0
 42
2.5
  3
romans
  4

  0
ENDTAB
  0
TABLE
  2
VIEW
  5
6
330
0
100
AcDbSymbolTable
 70
     1
  0
VIEW
  5
54D
330
6
100
AcDbSymbolTableRecord
100
AcDbViewTableRecord
  2
ALL
 70
     0
 40
594.0
 10
420.5
 20
297.0
 41
865.125
 11
0.0
 21
0.0
 31
1.0
 12
0.0
 22
0.0
 32
0.0
 42
50.0
 43
0.0
 44
0.0
 50
0.0
 71
     0
  0
ENDTAB
  0
TABLE
  2
UCS
  5
7
330
0
100
AcDbSymbolTable
 70
     0
  0
ENDTAB
  0
TABLE
  2
APPID
  5
9
330
0
100
AcDbSymbolTable
 70
     4
  0
APPID
  5
12
330
9
100
AcDbSymbolTableRecord
100
AcDbRegAppTableRecord
  2
ACAD
 70
     0
  0
APPID
  5
5CB
330
9
100
AcDbSymbolTableRecord
100
AcDbRegAppTableRecord
  2
ARAIGUMI_YOHEKI
 70
     0
  0
APPID
  5
5CC
330
9
100
AcDbSymbolTableRecord
100
AcDbRegAppTableRecord
  2
CONTENTTABDATA
 70
     0
  0
APPID
  5
5CD
330
9
100
AcDbSymbolTableRecord
100
AcDbRegAppTableRecord
  2
CONTENTCURRENTTAB
 70
     0
  0
ENDTAB
  0
TABLE
  2
DIMSTYLE
  5
A
330
0
100
AcDbSymbolTable
 70
    10
  0
DIMSTYLE
105
27
330
A
100
AcDbSymbolTableRecord
100
AcDbDimStyleTableRecord
  2
ISO-25
 70
     0
  3

  4

  5

  6

  7

 40
1.0
 41
2.5
 42
0.625
 43
3.75
 44
1.25
 45
0.0
 46
0.0
 47
0.0
 48
0.0
140
2.5
141
2.5
142
0.0
143
0.03937007874016
144
1.0
145
0.0
146
1.0
147
0.625
 71
     0
 72
     0
 73
     0
 74
     0
 75
     0
 76
     0
 77
     1
 78
     8
170
     0
171
     3
172
     1
173
     0
174
     0
175
     0
176
     0
177
     0
178
     0
270
     2
271
     2
272
     2
273
     2
274
     3
340
11
275
     0
280
     0
281
     0
282
     0
283
     0
284
     8
285
     0
286
     0
287
     3
288
     0
  0
DIMSTYLE
105
197
330
A
100
AcDbSymbolTableRecord
100
AcDbDimStyleTableRecord
  2
ADD
 70
     0
  3

  4

  5

  6

  7

 40
1.0
 41
2.5
 42
1.0
 43
7.0
 44
0.5
 45
0.0
 46
0.0
 47
0.0
 48
0.0
140
2.5
141
2.5
142
0.0
143
0.03937007874016
144
1.0
145
0.7
146
1.0
147
0.625
 71
     0
 72
     0
 73
     0
 74
     0
 75
     0
 76
     0
 77
     1
 78
     8
170
     0
171
     3
172
     1
173
     0
174
     1
175
     0
176
   144
177
   144
178
     7
270
     2
271
     1
272
     1
273
     2
274
     3
340
18E
275
     0
280
     0
281
     0
282
     0
283
     2
284
     8
285
     0
286
     0
287
     3
288
     0
  0
DIMSTYLE
105
3E6
330
A
100
AcDbSymbolTableRecord
100
AcDbDimStyleTableRecord
  2
ADD$2
 70
     0
  3

  4

  5

  6

  7

 40
1.0
 41
2.5
 42
1.0
 43
7.0
 44
0.5
 45
0.0
 46
0.0
 47
0.0
 48
0.0
140
2.5
141
2.5
142
0.0
143
0.03937007874016
144
1.0
145
0.7
146
1.0
147
0.625
 71
     0
 72
     0
 73
     0
 74
     0
 75
     0
 76
     0
 77
     1
 78
     8
170
     0
171
     3
172
     1
173
     0
174
     1
175
     0
176
   144
177
   144
178
     7
270
     2
271
     1
272
     1
273
     2
274
     3
340
18E
275
     0
280
     0
281
     0
282
     0
283
     2
284
     8
285
     0
286
     0
287
     3
288
     0
  0
DIMSTYLE
105
3E7
330
A
100
AcDbSymbolTableRecord
100
AcDbDimStyleTableRecord
  2
ADD$4
 70
     0
  3

  4

  5

  6

  7

 40
1.0
 41
2.5
 42
1.0
 43
7.0
 44
0.5
 45
0.0
 46
0.0
 47
0.0
 48
0.0
140
2.5
141
2.5
142
0.0
143
0.03937007874016
144
1.0
145
0.0
146
1.0
147
0.625
 71
     0
 72
     0
 73
     0
 74
     0
 75
     0
 76
     0
 77
     1
 78
     8
170
     0
171
     3
172
     1
173
     0
174
     1
175
     0
176
   144
177
   144
178
     7
270
     2
271
     1
272
     1
273
     2
274
     3
340
18E
275
     0
280
     0
281
     0
282
     0
283
     2
284
     8
285
     0
286
     0
287
     3
288
     0
  0
DIMSTYLE
105
3E8
330
A
100
AcDbSymbolTableRecord
100
AcDbDimStyleTableRecord
  2
ADD$3
 70
     0
  3

  4

  5

  6

  7

 40
1.0
 41
2.5
 42
1.0
 43
7.0
 44
0.5
 45
0.0
 46
0.0
 47
0.0
 48
0.0
140
2.5
141
2.5
142
0.0
143
0.03937007874016
144
1.0
145
0.0
146
1.0
147
0.625
 71
     0
 72
     0
 73
     0
 74
     0
 75
     0
 76
     0
 77
     1
 78
     8
170
     0
171
     3
172
     1
173
     0
174
     1
175
     0
176
   144
177
   144
178
     7
270
     2
271
     1
272
     1
273
     2
274
     3
340
18E
275
     0
280
     0
281
     0
282
     0
283
     2
284
     8
285
     0
286
     0
287
     3
288
     0
  0
DIMSTYLE
105
3E9
330
A
100
AcDbSymbolTableRecord
100
AcDbDimStyleTableRecord
  2
ADD$6
 70
     0
  3

  4

  5

  6

  7

 40
1.0
 41
2.5
 42
1.0
 43
7.0
 44
0.5
 45
0.0
 46
0.0
 47
0.0
 48
0.0
140
2.5
141
2.5
142
0.0
143
0.03937007874016
144
1.0
145
0.0
146
1.0
147
0.625
 71
     0
 72
     0
 73
     0
 74
     0
 75
     0
 76
     0
 77
     1
 78
     8
170
     0
171
     3
172
     1
173
     0
174
     1
175
     0
176
   144
177
   144
178
     7
270
     2
271
     1
272
     1
273
     2
274
     3
340
18E
275
     0
280
     0
281
     0
282
     0
283
     2
284
     8
285
     0
286
     0
287
     3
288
     0
  0
DIMSTYLE
105
3EA
330
A
100
AcDbSymbolTableRecord
100
AcDbDimStyleTableRecord
  2
ADD$7
 70
     0
  3

  4

  5

  6

  7

 40
1.0
 41
2.5
 42
1.0
 43
7.0
 44
0.5
 45
0.0
 46
0.0
 47
0.0
 48
0.0
140
2.5
141
2.5
142
0.0
143
0.03937007874016
144
1.0
145
0.0
146
1.0
147
0.625
 71
     0
 72
     0
 73
     0
 74
     0
 75
     0
 76
     0
 77
     0
 78
     8
170
     0
171
     3
172
     1
173
     0
174
     1
175
     0
176
   144
177
   144
178
     7
270
     2
271
     1
272
     1
273
     2
274
     3
340
18E
275
     0
280
     0
281
     0
282
     0
283
     2
284
     8
285
     0
286
     0
287
     3
288
     0
  0
DIMSTYLE
105
518
330
A
100
AcDbSymbolTableRecord
100
AcDbDimStyleTableRecord
  2
STANDARD
 70
     0
  3

  4

  5

  6

  7

 40
1.0
 41
0.18
 42
0.0625
 43
0.38
 44
0.18
 45
0.0
 46
0.0
 47
0.0
 48
0.0
140
0.18
141
0.09
142
0.0
143
25.4
144
1.0
145
0.0
146
1.0
147
0.09
 71
     0
 72
     0
 73
     1
 74
     1
 75
     0
 76
     0
 77
     0
 78
     0
170
     0
171
     2
172
     0
173
     0
174
     0
175
     0
176
     0
177
     0
178
     0
270
     2
271
     4
272
     4
273
     2
274
     2
340
11
275
     0
280
     0
281
     0
282
     0
283
     1
284
     0
285
     0
286
     0
287
     3
288
     0
  0
DIMSTYLE
105
550
330
A
100
AcDbSymbolTableRecord
100
AcDbDimStyleTableRecord
  2
ADD$0
 70
     0
  3

  4

  5

  6

  7

 40
1.0
 41
0.7
 42
1.0
 43
7.0
 44
0.5
 45
0.0
 46
0.0
 47
0.0
 48
0.0
140
2.5
141
2.5
142
0.0
143
0.03937007874016
144
1.0
145
0.7
146
1.0
147
0.625
 71
     0
 72
     0
 73
     0
 74
     0
 75
     0
 76
     0
 77
     1
 78
     8
170
     0
171
     3
172
     1
173
     0
174
     1
175
     0
176
   144
177
   144
178
     7
270
     2
271
     1
272
     1
273
     2
274
     3
340
18E
275
     0
280
     0
281
     0
282
     0
283
     2
284
     8
285
     0
286
     0
287
     3
288
     0
  0
DIMSTYLE
105
59B
330
A
100
AcDbSymbolTableRecord
100
AcDbDimStyleTableRecord
  2
ADD_M
 70
     0
  3

  4

  5

  6

  7

 40
1.0
 41
2.5
 42
1.0
 43
7.0
 44
0.5
 45
0.0
 46
0.0
 47
0.0
 48
0.0
140
2.5
141
2.5
142
0.0
143
0.03937007874016
144
1.0
145
0.7
146
1.0
147
0.625
 71
     0
 72
     0
 73
     0
 74
     0
 75
     0
 76
     0
 77
     1
 78
     8
170
     0
171
     3
172
     1
173
     0
174
     1
175
     0
176
   144
177
   144
178
     7
270
     2
271
     1
272
     1
273
     2
274
     3
340
18E
275
     0
280
     0
281
     0
282
     0
283
     2
284
     8
285
     0
286
     0
287
     3
288
     0
  0
ENDTAB
  0
TABLE
  2
BLOCK_RECORD
  5
1
330
0
100
AcDbSymbolTable
 70
     2
  0
BLOCK_RECORD
  5
1F
102
{ACAD_XDICTIONARY
360
1081
102
}
330
1
100
AcDbSymbolTableRecord
100
AcDbBlockTableRecord
  2
*MODEL_SPACE
  0
BLOCK_RECORD
  5
1B
102
{ACAD_XDICTIONARY
360
107F
102
}
330
1
100
AcDbSymbolTableRecord
100
AcDbBlockTableRecord
  2
*PAPER_SPACE
  0
BLOCK_RECORD
  5
192
330
1
100
AcDbSymbolTableRecord
100
AcDbBlockTableRecord
  2
_DOT
  0
BLOCK_RECORD
  5
5CE
330
1
100
AcDbSymbolTableRecord
100
AcDbBlockTableRecord
  2
A4
  0
ENDTAB
  0
ENDSEC
  0
SECTION
  2
BLOCKS
  0
BLOCK
  5
20
330
1F
100
AcDbEntity
  8
0
100
AcDbBlockBegin
  2
*MODEL_SPACE
 70
     0
 10
0.0
 20
0.0
 30
0.0
  3
*MODEL_SPACE
  1

  0
ENDBLK
  5
21
330
1F
100
AcDbEntity
  8
0
100
AcDbBlockEnd
  0
BLOCK
  5
1C
330
1B
100
AcDbEntity
 67
     1
  8
0
100
AcDbBlockBegin
  2
*PAPER_SPACE
 70
     0
 10
0.0
 20
0.0
 30
0.0
  3
*PAPER_SPACE
  1

  0
ENDBLK
  5
1D
330
1B
100
AcDbEntity
 67
     1
  8
0
100
AcDbBlockEnd
  0
BLOCK
  5
195
330
192
100
AcDbEntity
  8
0
100
AcDbBlockBegin
  2
_DOT
 70
     0
 10
0.0
 20
0.0
 30
0.0
  3
_DOT
  1

  0
POLYLINE
  5
193
330
192
100
AcDbEntity
  8
0
 62
     0
100
AcDb2dPolyline
 66
     1
 10
0.0
 20
0.0
 30
0.0
 70
     1
 40
0.5
 41
0.5
  0
VERTEX
  5
126B
330
193
100
AcDbEntity
  8
0
 62
     0
100
AcDbVertex
100
AcDb2dVertex
 10
-0.25
 20
0.0
 30
0.0
 42
1.0
  0
VERTEX
  5
126C
330
193
100
AcDbEntity
  8
0
 62
     0
100
AcDbVertex
100
AcDb2dVertex
 10
0.25
 20
0.0
 30
0.0
 42
1.0
  0
SEQEND
  5
126D
330
193
100
AcDbEntity
  8
0
 62
     0
  0
LINE
  5
194
330
192
100
AcDbEntity
  8
0
 62
     0
100
AcDbLine
 10
-0.5
 20
0.0
 30
0.0
 11
-1.0
 21
0.0
 31
0.0
  0
ENDBLK
  5
196
330
192
100
AcDbEntity
  8
0
100
AcDbBlockEnd
  0
BLOCK
  5
5D1
330
5CE
100
AcDbEntity
  8
0
100
AcDbBlockBegin
  2
A4
 70
     0
 10
0.0
 20
0.0
 30
0.0
  3
A4
  1

  0
POLYLINE
  5
5CF
330
5CE
100
AcDbEntity
  8
HOJO
100
AcDb2dPolyline
 66
     1
 10
0.0
 20
0.0
 30
0.0
 70
     1
  0
VERTEX
  5
126E
330
5CF
100
AcDbEntity
  8
HOJO
100
AcDbVertex
100
AcDb2dVertex
 10
0.0
 20
0.0
 30
0.0
  0
VERTEX
  5
126F
330
5CF
100
AcDbEntity
  8
HOJO
100
AcDbVertex
100
AcDb2dVertex
 10
297.0
 20
0.0
 30
0.0
  0
VERTEX
  5
1270
330
5CF
100
AcDbEntity
  8
HOJO
100
AcDbVertex
100
AcDb2dVertex
 10
297.0
 20
210.0
 30
0.0
  0
VERTEX
  5
1271
330
5CF
100
AcDbEntity
  8
HOJO
100
AcDbVertex
100
AcDb2dVertex
 10
0.0
 20
210.0
 30
0.0
  0
SEQEND
  5
1272
330
5CF
100
AcDbEntity
  8
HOJO
  0
POLYLINE
  5
5D0
330
5CE
100
AcDbEntity
  8
HOJO
100
AcDb2dPolyline
 66
     1
 10
0.0
 20
0.0
 30
0.0
 70
     1
  0
VERTEX
  5
1273
330
5D0
100
AcDbEntity
  8
HOJO
100
AcDbVertex
100
AcDb2dVertex
 10
18.0
 20
13.0
 30
0.0
  0
VERTEX
  5
1274
330
5D0
100
AcDbEntity
  8
HOJO
100
AcDbVertex
100
AcDb2dVertex
 10
279.0
 20
13.0
 30
0.0
  0
VERTEX
  5
1275
330
5D0
100
AcDbEntity
  8
HOJO
100
AcDbVertex
100
AcDb2dVertex
 10
279.0
 20
197.0
 30
0.0
  0
VERTEX
  5
1276
330
5D0
100
AcDbEntity
  8
HOJO
100
AcDbVertex
100
AcDb2dVertex
 10
18.0
 20
197.0
 30
0.0
  0
SEQEND
  5
1277
330
5D0
100
AcDbEntity
  8
HOJO
  0
ENDBLK
  5
5D2
330
5CE
100
AcDbEntity
  8
0
100
AcDbBlockEnd
  0
ENDSEC
  0
SECTION
  2
ENTITIES
  0
LINE
  5
60A
330
1F
100
AcDbEntity
  8
HOJO
100
AcDbLine
 10
360.0
 20
260.0
 30
0.0
 11
5580.0
 21
260.0
 31
0.0
  0
LINE
  5
60B
330
1F
100
AcDbEntity
  8
HOJO
100
AcDbLine
 10
360.0
 20
560.0
 30
0.0
 11
5580.0
 21
560.0
 31
0.0
  0
LINE
  5
60C
330
1F
100
AcDbEntity
  8
HOJO
100
AcDbLine
 10
360.0
 20
260.0
 30
0.0
 11
360.0
 21
560.0
 31
0.0
  0
LINE
  5
60D
330
1F
100
AcDbEntity
  8
HOJO
100
AcDbLine
 10
2360.0
 20
260.0
 30
0.0
 11
2360.0
 21
560.0
 31
0.0
  0
LINE
  5
60F
330
1F
100
AcDbEntity
  8
HOJO
100
AcDbLine
 10
3160.0
 20
260.0
 30
0.0
 11
3160.0
 21
560.0
 31
0.0
  0
LINE
  5
610
330
1F
100
AcDbEntity
  8
HOJO
100
AcDbLine
 10
3660.0
 20
260.0
 30
0.0
 11
3660.0
 21
560.0
 31
0.0
  0
LINE
  5
63C
330
1F
100
AcDbEntity
  8
3C1
100
AcDbLine
 10
1605.385505549944
 20
1991.298865611945
 30
0.0
 11
1605.385505549944
 21
2111.298865611945
 31
0.0
  0
LINE
  5
643
330
1F
100
AcDbEntity
  8
3C1
100
AcDbLine
 10
1805.385505549944
 20
1991.298865611945
 30
0.0
 11
1805.385505549944
 21
2111.298865611945
 31
0.0
  0
LINE
  5
64C
330
1F
100
AcDbEntity
  8
3C1
100
AcDbLine
 10
1805.385505549944
 20
2111.298865611945
 30
0.0
 11
1805.385505549944
 21
2051.298865611945
 31
0.0
  0
LINE
  5
667
330
1F
100
AcDbEntity
  8
3C1
100
AcDbLine
 10
3931.112894520179
 20
1991.298865611945
 30
0.0
 11
4631.112894520181
 21
1991.298865611945
 31
0.0
  0
LINE
  5
66A
330
1F
100
AcDbEntity
  8
3C1
100
AcDbLine
 10
3931.112894520179
 20
2141.298865611945
 30
0.0
 11
3931.112894520179
 21
1991.298865611945
 31
0.0
  0
LINE
  5
66E
330
1F
100
AcDbEntity
  8
3C1
  6
HIDDEN2
100
AcDbLine
 10
4046.112894520181
 20
2133.726050077963
 30
0.0
 11
4516.112894520182
 21
2133.726050077963
 31
0.0
  0
LINE
  5
66F
330
1F
100
AcDbEntity
  8
3C1
100
AcDbLine
 10
4516.112894520182
 20
2133.726050077963
 30
0.0
 11
4516.112894520182
 21
2073.726050077964
 31
0.0
  0
LINE
  5
670
330
1F
100
AcDbEntity
  8
3C1
  6
HIDDEN2
100
AcDbLine
 10
4516.112894520182
 20
2073.726050077964
 30
0.0
 11
4046.112894520181
 21
2073.726050077963
 31
0.0
  0
LINE
  5
671
330
1F
100
AcDbEntity
  8
3C1
  6
HIDDEN2
100
AcDbLine
 10
4046.112894520181
 20
2073.726050077963
 30
0.0
 11
4046.112894520181
 21
2133.726050077963
 31
0.0
  0
LINE
  5
672
330
1F
100
AcDbEntity
  8
3C1
  6
HIDDEN2
100
AcDbLine
 10
4081.112894520181
 20
1991.298865611945
 30
0.0
 11
4081.112894520181
 21
2073.726050077963
 31
0.0
  0
LINE
  5
673
330
1F
100
AcDbEntity
  8
3C1
  6
HIDDEN2
100
AcDbLine
 10
4481.112894520181
 20
1991.298865611945
 30
0.0
 11
4481.112894520181
 21
2073.726050077964
 31
0.0
  0
LINE
  5
6D8
330
1F
100
AcDbEntity
  8
3C1
100
AcDbLine
 10
1605.385505549944
 20
2111.298865611945
 30
0.0
 11
1605.385505549944
 21
1991.298865611945
 31
0.0
  0
LINE
  5
6D9
330
1F
100
AcDbEntity
  8
3C1
100
AcDbLine
 10
1605.385505549944
 20
1991.298865611945
 30
0.0
 11
2305.385505549943
 21
1991.298865611945
 31
0.0
  0
LINE
  5
952
330
1F
100
AcDbEntity
  8
3C1
100
AcDbLine
 10
1605.385505549944
 20
1991.298865611945
 30
0.0
 11
1805.385505549944
 21
1991.298865611945
 31
0.0
  0
LINE
  5
953
330
1F
100
AcDbEntity
  8
3C1
100
AcDbLine
 10
2155.385505549944
 20
1991.298865611945
 30
0.0
 11
2305.385505549943
 21
1991.298865611945
 31
0.0
  0
LINE
  5
954
330
1F
100
AcDbEntity
  8
3C1
100
AcDbLine
 10
2140.385505549943
 20
1991.298865611945
 30
0.0
 11
2140.385505549943
 21
2070.813428718741
 31
0.0
  0
LINE
  5
955
330
1F
100
AcDbEntity
  8
3C1
100
AcDbLine
 10
2175.385505549944
 20
2072.852263670197
 30
0.0
 11
2175.385505549944
 21
2132.852263670197
 31
0.0
  0
LINE
  5
956
330
1F
100
AcDbEntity
  8
3C1
100
AcDbLine
 10
2175.385505549944
 20
2072.852263670197
 30
0.0
 11
2140.385505549943
 21
2070.813428718741
 31
0.0
  0
LINE
  5
961
330
1F
100
AcDbEntity
  8
3C1
100
AcDbLine
 10
2175.385505549943
 20
2072.750549526736
 30
0.0
 11
1808.87473611271
 21
2051.400407617771
 31
0.0
  0
LINE
  5
962
330
1F
100
AcDbEntity
  8
3C1
100
AcDbLine
 10
1808.87473611271
 20
2051.400407617771
 30
0.0
 11
1805.385505549944
 21
2051.400407617771
 31
0.0
  0
LINE
  5
965
330
1F
100
AcDbEntity
  8
3C1
100
AcDbLine
 10
1805.385505549944
 20
2111.298865611945
 30
0.0
 11
1824.304570627652
 21
2112.400947072782
 31
0.0
  0
LINE
  5
A21
330
1F
100
AcDbEntity
  8
3C1
100
AcDbLine
 10
2305.385505549943
 20
2141.298865611945
 30
0.0
 11
2305.385505549943
 21
1991.298865611945
 31
0.0
  0
LINE
  5
A31
330
1F
100
AcDbEntity
  8
3C1
100
AcDbLine
 10
2175.385505549944
 20
2132.852263670197
 30
0.0
 11
2305.385505549943
 21
2141.298865611945
 31
0.0
  0
LINE
  5
B7C
330
1F
100
AcDbEntity
  8
SUNPO
 62
   144
100
AcDbLine
 10
1605.385505549944
 20
1971.298865611943
 30
0.0
 11
1605.385505549944
 21
1835.664106726155
 31
0.0
  0
LINE
  5
B7D
330
1F
100
AcDbEntity
  8
SUNPO
 62
   144
100
AcDbLine
 10
1805.385505549944
 20
1971.298865611943
 30
0.0
 11
1805.385505549944
 21
1835.664106726155
 31
0.0
  0
LINE
  5
B7E
330
1F
100
AcDbEntity
  8
SUNPO
 62
   144
100
AcDbLine
 10
1619.385505549944
 20
1845.664106726155
 30
0.0
 11
1791.385505549944
 21
1845.664106726155
 31
0.0
  0
SOLID
  5
B7F
330
1F
100
AcDbEntity
  8
SUNPO
 62
   144
100
AcDbTrace
 10
1619.385505549944
 20
1847.997440059488
 30
0.0
 11
1619.385505549944
 21
1843.330773392822
 31
0.0
 12
1605.385505549944
 22
1845.664106726155
 32
0.0
 13
1605.385505549944
 23
1845.664106726155
 33
0.0
  0
SOLID
  5
B80
330
1F
100
AcDbEntity
  8
SUNPO
 62
   144
100
AcDbTrace
 10
1791.385505549944
 20
1847.997440059488
 30
0.0
 11
1791.385505549944
 21
1843.330773392822
 31
0.0
 12
1805.385505549944
 22
1845.664106726155
 32
0.0
 13
1805.385505549944
 23
1845.664106726155
 33
0.0
  0
LINE
  5
B82
330
1F
100
AcDbEntity
  8
SUNPO
 62
   144
100
AcDbLine
 10
1805.385505549944
 20
1971.298865611943
 30
0.0
 11
1805.385505549944
 21
1835.664106726155
 31
0.0
  0
LINE
  5
B83
330
1F
100
AcDbEntity
  8
SUNPO
 62
   144
100
AcDbLine
 10
2140.385505549943
 20
1971.298865611943
 30
0.0
 11
2140.385505549943
 21
1835.664106726155
 31
0.0
  0
LINE
  5
B84
330
1F
100
AcDbEntity
  8
SUNPO
 62
   144
100
AcDbLine
 10
1819.385505549944
 20
1845.664106726155
 30
0.0
 11
2126.385505549944
 21
1845.664106726155
 31
0.0
  0
SOLID
  5
B85
330
1F
100
AcDbEntity
  8
SUNPO
 62
   144
100
AcDbTrace
 10
1819.385505549944
 20
1847.997440059488
 30
0.0
 11
1819.385505549944
 21
1843.330773392822
 31
0.0
 12
1805.385505549944
 22
1845.664106726155
 32
0.0
 13
1805.385505549944
 23
1845.664106726155
 33
0.0
  0
SOLID
  5
B86
330
1F
100
AcDbEntity
  8
SUNPO
 62
   144
100
AcDbTrace
 10
2126.385505549944
 20
1847.997440059488
 30
0.0
 11
2126.385505549944
 21
1843.330773392822
 31
0.0
 12
2140.385505549943
 22
1845.664106726155
 32
0.0
 13
2140.385505549943
 23
1845.664106726155
 33
0.0
  0
LINE
  5
B88
330
1F
100
AcDbEntity
  8
SUNPO
 62
   144
100
AcDbLine
 10
2175.385505549944
 20
1971.298865611943
 30
0.0
 11
2175.385505549944
 21
1835.664106726155
 31
0.0
  0
LINE
  5
B89
330
1F
100
AcDbEntity
  8
SUNPO
 62
   144
100
AcDbLine
 10
2305.385505549943
 20
1971.298865611943
 30
0.0
 11
2305.385505549943
 21
1835.664106726155
 31
0.0
  0
LINE
  5
B8A
330
1F
100
AcDbEntity
  8
SUNPO
 62
   144
100
AcDbLine
 10
2161.385505549943
 20
1845.664106726155
 30
0.0
 11
2147.385505549944
 21
1845.664106726155
 31
0.0
  0
LINE
  5
B8B
330
1F
100
AcDbEntity
  8
SUNPO
 62
   144
100
AcDbLine
 10
2319.385505549944
 20
1845.664106726155
 30
0.0
 11
2333.385505549943
 21
1845.664106726155
 31
0.0
  0
LINE
  5
B8C
330
1F
100
AcDbEntity
  8
SUNPO
 62
   144
100
AcDbLine
 10
2175.385505549944
 20
1845.664106726155
 30
0.0
 11
2305.385505549943
 21
1845.664106726155
 31
0.0
  0
SOLID
  5
B8D
330
1F
100
AcDbEntity
  8
SUNPO
 62
   144
100
AcDbTrace
 10
2161.385505549943
 20
1847.997440059488
 30
0.0
 11
2161.385505549943
 21
1843.330773392822
 31
0.0
 12
2175.385505549944
 22
1845.664106726155
 32
0.0
 13
2175.385505549944
 23
1845.664106726155
 33
0.0
  0
SOLID
  5
B8E
330
1F
100
AcDbEntity
  8
SUNPO
 62
   144
100
AcDbTrace
 10
2319.385505549944
 20
1847.997440059488
 30
0.0
 11
2319.385505549944
 21
1843.330773392822
 31
0.0
 12
2305.385505549943
 22
1845.664106726155
 32
0.0
 13
2305.385505549943
 23
1845.664106726155
 33
0.0
  0
LINE
  5
B9B
330
1F
100
AcDbEntity
  8
SUNPO
 62
   144
100
AcDbLine
 10
2140.385505549943
 20
1971.298865611943
 30
0.0
 11
2140.385505549943
 21
1835.664106726155
 31
0.0
  0
LINE
  5
B9C
330
1F
100
AcDbEntity
  8
SUNPO
 62
   144
100
AcDbLine
 10
2175.385505549944
 20
1971.298865611943
 30
0.0
 11
2175.385505549944
 21
1835.664106726155
 31
0.0
  0
LINE
  5
B9D
330
1F
100
AcDbEntity
  8
SUNPO
 62
   144
100
AcDbLine
 10
2126.385505549944
 20
1845.664106726155
 30
0.0
 11
2112.385505549944
 21
1845.664106726155
 31
0.0
  0
LINE
  5
B9E
330
1F
100
AcDbEntity
  8
SUNPO
 62
   144
100
AcDbLine
 10
2189.385505549944
 20
1845.664106726155
 30
0.0
 11
2203.385505549944
 21
1845.664106726155
 31
0.0
  0
LINE
  5
BA0
330
1F
100
AcDbEntity
  8
SUNPO
 62
   144
100
AcDbLine
 10
2140.385505549943
 20
1845.664106726155
 30
0.0
 11
2175.385505549944
 21
1845.664106726155
 31
0.0
  0
SOLID
  5
BA1
330
1F
100
AcDbEntity
  8
SUNPO
 62
   144
100
AcDbTrace
 10
2126.385505549944
 20
1847.997440059488
 30
0.0
 11
2126.385505549944
 21
1843.330773392822
 31
0.0
 12
2140.385505549943
 22
1845.664106726155
 32
0.0
 13
2140.385505549943
 23
1845.664106726155
 33
0.0
  0
SOLID
  5
BA2
330
1F
100
AcDbEntity
  8
SUNPO
 62
   144
100
AcDbTrace
 10
2189.385505549944
 20
1847.997440059488
 30
0.0
 11
2189.385505549944
 21
1843.330773392822
 31
0.0
 12
2175.385505549944
 22
1845.664106726155
 32
0.0
 13
2175.385505549944
 23
1845.664106726155
 33
0.0
  0
LINE
  5
CAD
330
1F
100
AcDbEntity
  8
3C1
100
AcDbLine
 10
2175.385505549944
 20
2132.852263670197
 30
0.0
 11
1824.304570627652
 21
2112.400947072782
 31
0.0
  0
LINE
  5
CC8
330
1F
100
AcDbEntity
  8
3C1
  6
HIDDEN2
100
AcDbLine
 10
4631.112894520181
 20
2111.298865611945
 30
0.0
 11
3931.112894520181
 21
2111.298865611945
 31
0.0
  0
LINE
  5
CC9
330
1F
100
AcDbEntity
  8
3C1
100
AcDbLine
 10
4496.112894520179
 20
1991.298865611945
 30
0.0
 11
3931.112894520179
 21
1991.298865611945
 31
0.0
  0
LINE
  5
DD0
330
1F
100
AcDbEntity
  8
SUNPO
100
AcDbLine
 10
4621.112894520179
 20
2141.298865611945
 30
0.0
 11
4631.112894520181
 21
2141.298865611945
 31
0.0
  0
LINE
  5
E09
330
1F
100
AcDbEntity
  8
3C1
100
AcDbLine
 10
4631.112894520181
 20
2141.298865611945
 30
0.0
 11
4631.112894520181
 21
1991.298865611945
 31
0.0
  0
LINE
  5
E5E
330
1F
100
AcDbEntity
  8
SUNPO
100
AcDbLine
 10
3931.112894520181
 20
2141.298865611945
 30
0.0
 11
3931.112894520181
 21
2111.298865611945
 31
0.0
  0
LINE
  5
E6E
330
1F
100
AcDbEntity
  8
3C1
100
AcDbLine
 10
4631.112894520181
 20
2141.298865611945
 30
0.0
 11
3931.112894520179
 21
2141.298865611945
 31
0.0
  0
LINE
  5
E7E
330
1F
100
AcDbEntity
  8
SUNPO
 62
   144
100
AcDbLine
 10
3911.112894520181
 20
2111.298865611945
 30
0.0
 11
3688.724743861028
 21
2111.298865611945
 31
0.0
  0
LINE
  5
E7F
330
1F
100
AcDbEntity
  8
SUNPO
 62
   144
100
AcDbLine
 10
3911.112894520181
 20
1991.298865611943
 30
0.0
 11
3688.724743861028
 21
1991.298865611943
 31
0.0
  0
LINE
  5
E80
330
1F
100
AcDbEntity
  8
SUNPO
 62
   144
100
AcDbLine
 10
3698.724743861026
 20
2125.298865611945
 30
0.0
 11
3698.724743861026
 21
2139.298865611945
 31
0.0
  0
LINE
  5
E81
330
1F
100
AcDbEntity
  8
SUNPO
 62
   144
100
AcDbLine
 10
3698.724743861026
 20
1977.298865611944
 30
0.0
 11
3698.724743861026
 21
1963.298865611944
 31
0.0
  0
LINE
  5
E82
330
1F
100
AcDbEntity
  8
SUNPO
 62
   144
100
AcDbLine
 10
3698.724743861026
 20
2111.298865611945
 30
0.0
 11
3698.724743861026
 21
1991.298865611943
 31
0.0
  0
SOLID
  5
E83
330
1F
100
AcDbEntity
  8
SUNPO
 62
   144
100
AcDbTrace
 10
3696.391410527695
 20
2125.298865611945
 30
0.0
 11
3701.05807719436
 21
2125.298865611945
 31
0.0
 12
3698.724743861026
 22
2111.298865611945
 32
0.0
 13
3698.724743861026
 23
2111.298865611945
 33
0.0
  0
SOLID
  5
E84
330
1F
100
AcDbEntity
  8
SUNPO
 62
   144
100
AcDbTrace
 10
3696.391410527695
 20
1977.298865611944
 30
0.0
 11
3701.05807719436
 21
1977.298865611944
 31
0.0
 12
3698.724743861026
 22
1991.298865611943
 32
0.0
 13
3698.724743861026
 23
1991.298865611943
 33
0.0
  0
LINE
  5
E86
330
1F
100
AcDbEntity
  8
SUNPO
 62
   144
100
AcDbLine
 10
3911.112894520181
 20
2111.298865611945
 30
0.0
 11
3690.140639824788
 21
2111.298865611945
 31
0.0
  0
LINE
  5
E87
330
1F
100
AcDbEntity
  8
SUNPO
 62
   144
100
AcDbLine
 10
3911.112894520181
 20
2141.298865611945
 30
0.0
 11
3690.140639824788
 21
2141.298865611945
 31
0.0
  0
LINE
  5
E88
330
1F
100
AcDbEntity
  8
SUNPO
 62
   144
100
AcDbLine
 10
3700.140639824788
 20
2097.298865611945
 30
0.0
 11
3700.140639824788
 21
2083.298865611945
 31
0.0
  0
LINE
  5
E89
330
1F
100
AcDbEntity
  8
SUNPO
 62
   144
100
AcDbLine
 10
3700.140639824788
 20
2155.298865611944
 30
0.0
 11
3700.140639824788
 21
2169.298865611945
 31
0.0
  0
LINE
  5
E8A
330
1F
100
AcDbEntity
  8
SUNPO
 62
   144
100
AcDbLine
 10
3700.140639824788
 20
2111.298865611945
 30
0.0
 11
3700.140639824788
 21
2141.298865611945
 31
0.0
  0
SOLID
  5
E8B
330
1F
100
AcDbEntity
  8
SUNPO
 62
   144
100
AcDbTrace
 10
3697.807306491455
 20
2097.298865611945
 30
0.0
 11
3702.473973158122
 21
2097.298865611945
 31
0.0
 12
3700.140639824788
 22
2111.298865611945
 32
0.0
 13
3700.140639824788
 23
2111.298865611945
 33
0.0
  0
SOLID
  5
E8C
330
1F
100
AcDbEntity
  8
SUNPO
 62
   144
100
AcDbTrace
 10
3697.807306491455
 20
2155.298865611944
 30
0.0
 11
3702.473973158122
 21
2155.298865611944
 31
0.0
 12
3700.140639824788
 22
2141.298865611945
 32
0.0
 13
3700.140639824788
 23
2141.298865611945
 33
0.0
  0
TEXT
  5
E8E
330
1F
100
AcDbEntity
  8
SUNPO
 62
     7
100
AcDbText
 10
3700.140639824788
 20
2169.298865611945
 30
0.0
 40
50.0
  1
30
 50
90.0
  7
ADD
100
AcDbText
  0
LINE
  5
E8F
330
1F
100
AcDbEntity
  8
SUNPO
100
AcDbLine
 10
1605.385505549944
 20
2111.298865611945
 30
0.0
 11
1605.385505549944
 21
2141.298865611945
 31
0.0
  0
LINE
  5
E9B
330
1F
100
AcDbEntity
  8
3C1
100
AcDbLine
 10
1605.385505549944
 20
2141.298865611945
 30
0.0
 11
1796.380542740154
 21
2122.199361892923
 31
0.0
  0
ARC
  5
E9C
330
1F
100
AcDbEntity
  8
3C1
100
AcDbCircle
 10
1795.385505549943
 20
2112.248989990823
 30
0.0
 40
10.0
100
AcDbArc
 50
0.0
 51
84.28940686250037
  0
LINE
  5
EE6
330
1F
100
AcDbEntity
  8
SUNPO
 62
   144
100
AcDbLine
 10
1683.887259219898
 20
2111.298865611945
 30
0.0
 11
1693.887259219898
 21
2111.298865611945
 31
0.0
  0
LINE
  5
EE7
330
1F
100
AcDbEntity
  8
SUNPO
 62
   144
100
AcDbLine
 10
1683.887259219898
 20
2121.298865611945
 30
0.0
 11
1693.887259219898
 21
2121.298865611945
 31
0.0
  0
LINE
  5
EE8
330
1F
100
AcDbEntity
  8
SUNPO
 62
   144
100
AcDbLine
 10
1703.887259219898
 20
2097.298865611945
 30
0.0
 11
1703.887259219898
 21
2083.298865611945
 31
0.0
  0
LINE
  5
EE9
330
1F
100
AcDbEntity
  8
SUNPO
 62
   144
100
AcDbLine
 10
1703.887259219898
 20
2135.298865611944
 30
0.0
 11
1703.887259219898
 21
2149.298865611945
 31
0.0
  0
LINE
  5
EEA
330
1F
100
AcDbEntity
  8
SUNPO
 62
   144
100
AcDbLine
 10
1703.887259219898
 20
2111.298865611945
 30
0.0
 11
1703.887259219898
 21
2121.298865611945
 31
0.0
  0
SOLID
  5
EEB
330
1F
100
AcDbEntity
  8
SUNPO
 62
   144
100
AcDbTrace
 10
1701.553925886565
 20
2097.298865611945
 30
0.0
 11
1706.220592553232
 21
2097.298865611945
 31
0.0
 12
1703.887259219898
 22
2111.298865611945
 32
0.0
 13
1703.887259219898
 23
2111.298865611945
 33
0.0
  0
SOLID
  5
EEC
330
1F
100
AcDbEntity
  8
SUNPO
 62
   144
100
AcDbTrace
 10
1701.553925886565
 20
2135.298865611944
 30
0.0
 11
1706.220592553232
 21
2135.298865611944
 31
0.0
 12
1703.887259219898
 22
2121.298865611945
 32
0.0
 13
1703.887259219898
 23
2121.298865611945
 33
0.0
  0
LINE
  5
EEE
330
1F
100
AcDbEntity
  8
SUNPO
 62
   144
100
AcDbLine
 10
1785.385505549944
 20
2111.298865611945
 30
0.0
 11
1693.887259219898
 21
2111.298865611945
 31
0.0
  0
LINE
  5
EEF
330
1F
100
AcDbEntity
  8
SUNPO
 62
   144
100
AcDbLine
 10
1785.385505549944
 20
1991.298865611945
 30
0.0
 11
1693.887259219898
 21
1991.298865611945
 31
0.0
  0
LINE
  5
EF0
330
1F
100
AcDbEntity
  8
SUNPO
 62
   144
100
AcDbLine
 10
1703.887259219898
 20
2125.298865611945
 30
0.0
 11
1703.887259219898
 21
2139.298865611945
 31
0.0
  0
LINE
  5
EF1
330
1F
100
AcDbEntity
  8
SUNPO
 62
   144
100
AcDbLine
 10
1703.887259219898
 20
1977.298865611945
 30
0.0
 11
1703.887259219898
 21
1963.298865611944
 31
0.0
  0
LINE
  5
EF2
330
1F
100
AcDbEntity
  8
SUNPO
 62
   144
100
AcDbLine
 10
1703.887259219898
 20
2111.298865611945
 30
0.0
 11
1703.887259219898
 21
1991.298865611945
 31
0.0
  0
SOLID
  5
EF3
330
1F
100
AcDbEntity
  8
SUNPO
 62
   144
100
AcDbTrace
 10
1701.553925886565
 20
2125.298865611945
 30
0.0
 11
1706.220592553232
 21
2125.298865611945
 31
0.0
 12
1703.887259219898
 22
2111.298865611945
 32
0.0
 13
1703.887259219898
 23
2111.298865611945
 33
0.0
  0
SOLID
  5
EF4
330
1F
100
AcDbEntity
  8
SUNPO
 62
   144
100
AcDbTrace
 10
1701.553925886565
 20
1977.298865611945
 30
0.0
 11
1706.220592553232
 21
1977.298865611945
 31
0.0
 12
1703.887259219898
 22
1991.298865611945
 32
0.0
 13
1703.887259219898
 23
1991.298865611945
 33
0.0
  0
LINE
  5
EF6
330
1F
100
AcDbEntity
  8
SUNPO
100
AcDbLine
 10
1805.385505549944
 20
2112.248989990825
 30
0.0
 11
1805.440665424639
 21
2111.302078808528
 31
0.0
  0
LINE
  5
F0E
330
1F
100
AcDbEntity
  8
SUNPO
 62
   144
100
AcDbLine
 10
1585.385505549943
 20
2111.298865611945
 30
0.0
 11
1473.300070194867
 21
2111.298865611945
 31
0.0
  0
LINE
  5
F0F
330
1F
100
AcDbEntity
  8
SUNPO
 62
   144
100
AcDbLine
 10
1585.385505549943
 20
2141.298865611945
 30
0.0
 11
1473.300070194867
 21
2141.298865611945
 31
0.0
  0
LINE
  5
F10
330
1F
100
AcDbEntity
  8
SUNPO
 62
   144
100
AcDbLine
 10
1483.300070194867
 20
2097.298865611945
 30
0.0
 11
1483.300070194867
 21
2083.298865611945
 31
0.0
  0
LINE
  5
F11
330
1F
100
AcDbEntity
  8
SUNPO
 62
   144
100
AcDbLine
 10
1483.300070194867
 20
2155.298865611944
 30
0.0
 11
1483.300070194867
 21
2169.298865611945
 31
0.0
  0
LINE
  5
F12
330
1F
100
AcDbEntity
  8
SUNPO
 62
   144
100
AcDbLine
 10
1483.300070194867
 20
2111.298865611945
 30
0.0
 11
1483.300070194867
 21
2141.298865611945
 31
0.0
  0
SOLID
  5
F13
330
1F
100
AcDbEntity
  8
SUNPO
 62
   144
100
AcDbTrace
 10
1480.966736861534
 20
2097.298865611945
 30
0.0
 11
1485.633403528201
 21
2097.298865611945
 31
0.0
 12
1483.300070194867
 22
2111.298865611945
 32
0.0
 13
1483.300070194867
 23
2111.298865611945
 33
0.0
  0
SOLID
  5
F14
330
1F
100
AcDbEntity
  8
SUNPO
 62
   144
100
AcDbTrace
 10
1480.966736861534
 20
2155.298865611944
 30
0.0
 11
1485.633403528201
 21
2155.298865611944
 31
0.0
 12
1483.300070194867
 22
2141.298865611945
 32
0.0
 13
1483.300070194867
 23
2141.298865611945
 33
0.0
  0
LINE
  5
F16
330
1F
100
AcDbEntity
  8
SUNPO
 62
   144
100
AcDbLine
 10
1585.385505549943
 20
1991.298865611945
 30
0.0
 11
1473.300070194867
 21
1991.298865611945
 31
0.0
  0
LINE
  5
F17
330
1F
100
AcDbEntity
  8
SUNPO
 62
   144
100
AcDbLine
 10
1585.385505549943
 20
2111.298865611945
 30
0.0
 11
1473.300070194867
 21
2111.298865611945
 31
0.0
  0
LINE
  5
F18
330
1F
100
AcDbEntity
  8
SUNPO
 62
   144
100
AcDbLine
 10
1483.300070194867
 20
1977.298865611945
 30
0.0
 11
1483.300070194867
 21
1963.298865611944
 31
0.0
  0
LINE
  5
F19
330
1F
100
AcDbEntity
  8
SUNPO
 62
   144
100
AcDbLine
 10
1483.300070194867
 20
2125.298865611945
 30
0.0
 11
1483.300070194867
 21
2139.298865611945
 31
0.0
  0
LINE
  5
F1A
330
1F
100
AcDbEntity
  8
SUNPO
 62
   144
100
AcDbLine
 10
1483.300070194867
 20
1991.298865611945
 30
0.0
 11
1483.300070194867
 21
2111.298865611945
 31
0.0
  0
SOLID
  5
F1B
330
1F
100
AcDbEntity
  8
SUNPO
 62
   144
100
AcDbTrace
 10
1480.966736861534
 20
1977.298865611945
 30
0.0
 11
1485.633403528201
 21
1977.298865611945
 31
0.0
 12
1483.300070194867
 22
1991.298865611945
 32
0.0
 13
1483.300070194867
 23
1991.298865611945
 33
0.0
  0
SOLID
  5
F1C
330
1F
100
AcDbEntity
  8
SUNPO
 62
   144
100
AcDbTrace
 10
1480.966736861534
 20
2125.298865611945
 30
0.0
 11
1485.633403528201
 21
2125.298865611945
 31
0.0
 12
1483.300070194867
 22
2111.298865611945
 32
0.0
 13
1483.300070194867
 23
2111.298865611945
 33
0.0
  0
TEXT
  5
F1E
330
1F
100
AcDbEntity
  8
SUNPO
 62
     7
100
AcDbText
 10
1507.482711302112
 20
2163.552733539907
 30
0.0
 40
50.0
  1
30
 50
90.0
  7
ADD
100
AcDbText
  0
LINE
  5
F46
330
1F
100
AcDbEntity
  8
3C1
  6
HIDDEN2
100
AcDbLine
 10
4631.112894520181
 20
2121.298865611945
 30
0.0
 11
3931.112894520181
 21
2121.298865611945
 31
0.0
  0
TEXT
  5
FE4
330
1F
100
AcDbEntity
  8
SUNPO
100
AcDbText
 10
1877.182645619602
 20
2228.705346481688
 30
0.0
 40
50.0
  1
R=20
  7
ADD
100
AcDbText
  0
LINE
  5
FE5
330
1F
100
AcDbEntity
  8
SUNPO
 62
   144
100
AcDbLine
 10
1605.385505549944
 20
1971.298865611943
 30
0.0
 11
1605.385505549944
 21
1696.230241296831
 31
0.0
  0
LINE
  5
FE6
330
1F
100
AcDbEntity
  8
SUNPO
 62
   144
100
AcDbLine
 10
2175.385505549944
 20
1971.298865611943
 30
0.0
 11
2175.385505549944
 21
1696.230241296831
 31
0.0
  0
LINE
  5
FE7
330
1F
100
AcDbEntity
  8
SUNPO
 62
   144
100
AcDbLine
 10
1619.385505549944
 20
1706.23024129683
 30
0.0
 11
2161.385505549943
 21
1706.23024129683
 31
0.0
  0
SOLID
  5
FE8
330
1F
100
AcDbEntity
  8
SUNPO
 62
   144
100
AcDbTrace
 10
1619.385505549944
 20
1708.563574630164
 30
0.0
 11
1619.385505549944
 21
1703.896907963497
 31
0.0
 12
1605.385505549944
 22
1706.23024129683
 32
0.0
 13
1605.385505549944
 23
1706.23024129683
 33
0.0
  0
SOLID
  5
FE9
330
1F
100
AcDbEntity
  8
SUNPO
 62
   144
100
AcDbTrace
 10
2161.385505549943
 20
1708.563574630164
 30
0.0
 11
2161.385505549943
 21
1703.896907963497
 31
0.0
 12
2175.385505549944
 22
1706.23024129683
 32
0.0
 13
2175.385505549944
 23
1706.23024129683
 33
0.0
  0
LINE
  5
FEB
330
1F
100
AcDbEntity
  8
SUNPO
 62
   144
100
AcDbLine
 10
1585.385505549943
 20
1991.298865611945
 30
0.0
 11
1331.560865152698
 21
1991.298865611945
 31
0.0
  0
LINE
  5
FEC
330
1F
100
AcDbEntity
  8
SUNPO
 62
   144
100
AcDbLine
 10
1585.385505549943
 20
2141.298865611945
 30
0.0
 11
1331.560865152698
 21
2141.298865611945
 31
0.0
  0
LINE
  5
FED
330
1F
100
AcDbEntity
  8
SUNPO
 62
   144
100
AcDbLine
 10
1341.560865152698
 20
2005.298865611945
 30
0.0
 11
1341.560865152698
 21
2127.298865611945
 31
0.0
  0
SOLID
  5
FEE
330
1F
100
AcDbEntity
  8
SUNPO
 62
   144
100
AcDbTrace
 10
1339.227531819364
 20
2005.298865611945
 30
0.0
 11
1343.894198486031
 21
2005.298865611945
 31
0.0
 12
1341.560865152698
 22
1991.298865611945
 32
0.0
 13
1341.560865152698
 23
1991.298865611945
 33
0.0
  0
SOLID
  5
FEF
330
1F
100
AcDbEntity
  8
SUNPO
 62
   144
100
AcDbTrace
 10
1339.227531819364
 20
2127.298865611945
 30
0.0
 11
1343.894198486031
 21
2127.298865611945
 31
0.0
 12
1341.560865152698
 22
2141.298865611945
 32
0.0
 13
1341.560865152698
 23
2141.298865611945
 33
0.0
  0
TEXT
  5
FF1
330
1F
100
AcDbEntity
  8
SUNPO
 62
     7
100
AcDbText
 10
1470.800070194867
 20
1976.298865611945
 30
0.0
 40
50.0
  1
120
 50
90.0
  7
ADD
100
AcDbText
  0
SOLID
  5
FF2
330
1F
100
AcDbEntity
  8
SUNPO
100
AcDbTrace
 10
1841.991886777899
 20
2146.422623537071
 30
0.0
 11
1805.440665424639
 21
2111.302078808528
 31
0.0
 12
1828.625698144142
 22
2156.378665882531
 32
0.0
 13
1828.625698144142
 23
2156.378665882531
 33
0.0
1001
ACAD
1000
DSTYLE
1002
{
1070
   147
1040
0.625
1070
    77
1070
     0
1070
    40
1040
20.0
1070
    43
1040
8.0
1002
}
  0
TEXT
  5
FF4
330
1F
100
AcDbEntity
  8
SUNPO
 62
     7
100
AcDbText
 10
1691.387259219898
 20
1976.298865611945
 30
0.0
 40
50.0
  1
120
 50
90.0
  7
ADD
100
AcDbText
  0
TEXT
  5
FF5
330
1F
100
AcDbEntity
  8
SUNPO
 62
     7
100
AcDbText
 10
1728.887259219898
 20
2130.887837243029
 30
0.0
 40
50.0
  1
10
 50
90.0
  7
ADD
100
AcDbText
  0
LINE
  5
FF6
330
1F
100
AcDbEntity
  8
SUNPO
 62
   144
100
AcDbLine
 10
1605.385505549944
 20
2161.298865611945
 30
0.0
 11
1605.385505549944
 21
2516.859738907922
 31
0.0
  0
LINE
  5
FF7
330
1F
100
AcDbEntity
  8
SUNPO
 62
   144
100
AcDbLine
 10
2305.385505549943
 20
2161.298865611945
 30
0.0
 11
2305.385505549943
 21
2516.859738907922
 31
0.0
  0
LINE
  5
FF8
330
1F
100
AcDbEntity
  8
SUNPO
 62
   144
100
AcDbLine
 10
1619.385505549944
 20
2506.859738907921
 30
0.0
 11
2291.385505549944
 21
2506.859738907921
 31
0.0
  0
SOLID
  5
FF9
330
1F
100
AcDbEntity
  8
SUNPO
 62
   144
100
AcDbTrace
 10
1619.385505549944
 20
2509.193072241256
 30
0.0
 11
1619.385505549944
 21
2504.526405574589
 31
0.0
 12
1605.385505549944
 22
2506.859738907921
 32
0.0
 13
1605.385505549944
 23
2506.859738907921
 33
0.0
  0
SOLID
  5
FFA
330
1F
100
AcDbEntity
  8
SUNPO
 62
   144
100
AcDbTrace
 10
2291.385505549944
 20
2509.193072241256
 30
0.0
 11
2291.385505549944
 21
2504.526405574589
 31
0.0
 12
2305.385505549943
 22
2506.859738907921
 32
0.0
 13
2305.385505549943
 23
2506.859738907921
 33
0.0
  0
LINE
  5
FFC
330
1F
100
AcDbEntity
  8
SUNPO
 62
   144
100
AcDbLine
 10
1805.385505549944
 20
2161.298865611945
 30
0.0
 11
1805.385505549944
 21
2405.217086936527
 31
0.0
  0
LINE
  5
FFD
330
1F
100
AcDbEntity
  8
SUNPO
 62
   144
100
AcDbLine
 10
2305.385505549943
 20
2161.298865611945
 30
0.0
 11
2305.385505549943
 21
2405.217086936527
 31
0.0
  0
LINE
  5
FFE
330
1F
100
AcDbEntity
  8
SUNPO
 62
   144
100
AcDbLine
 10
1819.385505549944
 20
2395.217086936527
 30
0.0
 11
2291.385505549944
 21
2395.217086936527
 31
0.0
  0
SOLID
  5
FFF
330
1F
100
AcDbEntity
  8
SUNPO
 62
   144
100
AcDbTrace
 10
1819.385505549944
 20
2397.55042026986
 30
0.0
 11
1819.385505549944
 21
2392.883753603193
 31
0.0
 12
1805.385505549944
 22
2395.217086936527
 32
0.0
 13
1805.385505549944
 23
2395.217086936527
 33
0.0
  0
SOLID
  5
1000
330
1F
100
AcDbEntity
  8
SUNPO
 62
   144
100
AcDbTrace
 10
2291.385505549944
 20
2397.55042026986
 30
0.0
 11
2291.385505549944
 21
2392.883753603193
 31
0.0
 12
2305.385505549943
 22
2395.217086936527
 32
0.0
 13
2305.385505549943
 23
2395.217086936527
 33
0.0
  0
LINE
  5
1002
330
1F
100
AcDbEntity
  8
SUNPO
 62
   144
100
AcDbLine
 10
1605.385505549944
 20
2161.298865611945
 30
0.0
 11
1605.385505549944
 21
2405.217086936527
 31
0.0
  0
LINE
  5
1003
330
1F
100
AcDbEntity
  8
SUNPO
 62
   144
100
AcDbLine
 10
1805.385505549944
 20
2161.298865611945
 30
0.0
 11
1805.385505549944
 21
2405.217086936527
 31
0.0
  0
LINE
  5
1004
330
1F
100
AcDbEntity
  8
SUNPO
 62
   144
100
AcDbLine
 10
1619.385505549944
 20
2395.217086936527
 30
0.0
 11
1791.385505549944
 21
2395.217086936527
 31
0.0
  0
SOLID
  5
1005
330
1F
100
AcDbEntity
  8
SUNPO
 62
   144
100
AcDbTrace
 10
1619.385505549944
 20
2397.55042026986
 30
0.0
 11
1619.385505549944
 21
2392.883753603193
 31
0.0
 12
1605.385505549944
 22
2395.217086936527
 32
0.0
 13
1605.385505549944
 23
2395.217086936527
 33
0.0
  0
SOLID
  5
1006
330
1F
100
AcDbEntity
  8
SUNPO
 62
   144
100
AcDbTrace
 10
1791.385505549944
 20
2397.55042026986
 30
0.0
 11
1791.385505549944
 21
2392.883753603193
 31
0.0
 12
1805.385505549944
 22
2395.217086936527
 32
0.0
 13
1805.385505549944
 23
2395.217086936527
 33
0.0
  0
TEXT
  5
1008
330
1F
100
AcDbEntity
  8
SUNPO
 62
     7
100
AcDbText
 10
3686.224743861027
 20
1976.298865611945
 30
0.0
 40
50.0
  1
120
 50
90.0
  7
ADD
100
AcDbText
  0
TEXT
  5
1009
330
1F
100
AcDbEntity
  8
MOJI
100
AcDbText
 10
570.8162115731758
 20
386.2716547218841
 30
0.0
 40
50.0
  1
千葉市型L２型(CBL2) 縁塊(平切下げ)700×150×700
  7
ADD
100
AcDbText
  0
LINE
  5
100A
330
1F
100
AcDbEntity
  8
SUNPO
 62
   144
100
AcDbLine
 10
4496.112894520179
 20
2133.726050077963
 30
0.0
 11
4286.972591039751
 21
2133.726050077963
 31
0.0
  0
LINE
  5
100B
330
1F
100
AcDbEntity
  8
SUNPO
 62
   144
100
AcDbLine
 10
4496.112894520179
 20
2073.726050077964
 30
0.0
 11
4286.972591039751
 21
2073.726050077964
 31
0.0
  0
LINE
  5
100C
330
1F
100
AcDbEntity
  8
SUNPO
 62
   144
100
AcDbLine
 10
4296.972591039752
 20
2147.726050077964
 30
0.0
 11
4296.972591039752
 21
2161.726050077964
 31
0.0
  0
LINE
  5
100D
330
1F
100
AcDbEntity
  8
SUNPO
 62
   144
100
AcDbLine
 10
4296.972591039752
 20
2059.726050077963
 30
0.0
 11
4296.972591039752
 21
2045.726050077964
 31
0.0
  0
LINE
  5
100E
330
1F
100
AcDbEntity
  8
SUNPO
 62
   144
100
AcDbLine
 10
4296.972591039752
 20
2133.726050077963
 30
0.0
 11
4296.972591039752
 21
2073.726050077964
 31
0.0
  0
SOLID
  5
100F
330
1F
100
AcDbEntity
  8
SUNPO
 62
   144
100
AcDbTrace
 10
4294.639257706418
 20
2147.726050077964
 30
0.0
 11
4299.305924373086
 21
2147.726050077964
 31
0.0
 12
4296.972591039752
 22
2133.726050077963
 32
0.0
 13
4296.972591039752
 23
2133.726050077963
 33
0.0
  0
SOLID
  5
1010
330
1F
100
AcDbEntity
  8
SUNPO
 62
   144
100
AcDbTrace
 10
4294.639257706418
 20
2059.726050077963
 30
0.0
 11
4299.305924373086
 21
2059.726050077963
 31
0.0
 12
4296.972591039752
 22
2073.726050077964
 32
0.0
 13
4296.972591039752
 23
2073.726050077964
 33
0.0
  0
LINE
  5
1012
330
1F
100
AcDbEntity
  8
SUNPO
 62
   144
100
AcDbLine
 10
4651.112894520179
 20
2141.298865611945
 30
0.0
 11
4828.459973996947
 21
2141.298865611945
 31
0.0
  0
LINE
  5
1013
330
1F
100
AcDbEntity
  8
SUNPO
 62
   144
100
AcDbLine
 10
4651.112894520179
 20
1991.298865611943
 30
0.0
 11
4828.459973996947
 21
1991.298865611943
 31
0.0
  0
LINE
  5
1014
330
1F
100
AcDbEntity
  8
SUNPO
 62
   144
100
AcDbLine
 10
4818.459973996947
 20
2127.298865611945
 30
0.0
 11
4818.459973996947
 21
2005.298865611944
 31
0.0
  0
SOLID
  5
1015
330
1F
100
AcDbEntity
  8
SUNPO
 62
   144
100
AcDbTrace
 10
4816.126640663613
 20
2127.298865611945
 30
0.0
 11
4820.793307330281
 21
2127.298865611945
 31
0.0
 12
4818.459973996947
 22
2141.298865611945
 32
0.0
 13
4818.459973996947
 23
2141.298865611945
 33
0.0
  0
SOLID
  5
1016
330
1F
100
AcDbEntity
  8
SUNPO
 62
   144
100
AcDbTrace
 10
4816.126640663613
 20
2005.298865611944
 30
0.0
 11
4820.793307330281
 21
2005.298865611944
 31
0.0
 12
4818.459973996947
 22
1991.298865611943
 32
0.0
 13
4818.459973996947
 23
1991.298865611943
 33
0.0
  0
LINE
  5
1034
330
1F
100
AcDbEntity
  8
SUNPO
 62
   144
100
AcDbLine
 10
3931.112894520181
 20
1971.298865611943
 30
0.0
 11
3931.112894520181
 21
1696.230241296831
 31
0.0
  0
LINE
  5
1035
330
1F
100
AcDbEntity
  8
SUNPO
 62
   144
100
AcDbLine
 10
4631.112894520181
 20
1971.298865611943
 30
0.0
 11
4631.112894520181
 21
1696.230241296831
 31
0.0
  0
LINE
  5
1036
330
1F
100
AcDbEntity
  8
SUNPO
 62
   144
100
AcDbLine
 10
3945.112894520181
 20
1706.23024129683
 30
0.0
 11
4617.112894520179
 21
1706.23024129683
 31
0.0
  0
SOLID
  5
1037
330
1F
100
AcDbEntity
  8
SUNPO
 62
   144
100
AcDbTrace
 10
3945.112894520181
 20
1708.563574630164
 30
0.0
 11
3945.112894520181
 21
1703.896907963497
 31
0.0
 12
3931.112894520181
 22
1706.23024129683
 32
0.0
 13
3931.112894520181
 23
1706.23024129683
 33
0.0
  0
SOLID
  5
1038
330
1F
100
AcDbEntity
  8
SUNPO
 62
   144
100
AcDbTrace
 10
4617.112894520179
 20
1708.563574630164
 30
0.0
 11
4617.112894520179
 21
1703.896907963497
 31
0.0
 12
4631.112894520181
 22
1706.23024129683
 32
0.0
 13
4631.112894520181
 23
1706.23024129683
 33
0.0
  0
LINE
  5
103A
330
1F
100
AcDbEntity
  8
SUNPO
 62
   144
100
AcDbLine
 10
4481.112894520181
 20
1971.298865611943
 30
0.0
 11
4481.112894520181
 21
1835.664106726155
 31
0.0
  0
LINE
  5
103B
330
1F
100
AcDbEntity
  8
SUNPO
 62
   144
100
AcDbLine
 10
4631.112894520181
 20
1971.298865611943
 30
0.0
 11
4631.112894520181
 21
1835.664106726155
 31
0.0
  0
LINE
  5
103C
330
1F
100
AcDbEntity
  8
SUNPO
 62
   144
100
AcDbLine
 10
4495.112894520178
 20
1845.664106726155
 30
0.0
 11
4617.112894520179
 21
1845.664106726155
 31
0.0
  0
SOLID
  5
103D
330
1F
100
AcDbEntity
  8
SUNPO
 62
   144
100
AcDbTrace
 10
4495.112894520178
 20
1847.997440059488
 30
0.0
 11
4495.112894520178
 21
1843.330773392822
 31
0.0
 12
4481.112894520181
 22
1845.664106726155
 32
0.0
 13
4481.112894520181
 23
1845.664106726155
 33
0.0
  0
SOLID
  5
103E
330
1F
100
AcDbEntity
  8
SUNPO
 62
   144
100
AcDbTrace
 10
4617.112894520179
 20
1847.997440059488
 30
0.0
 11
4617.112894520179
 21
1843.330773392822
 31
0.0
 12
4631.112894520181
 22
1845.664106726155
 32
0.0
 13
4631.112894520181
 23
1845.664106726155
 33
0.0
  0
LINE
  5
1040
330
1F
100
AcDbEntity
  8
SUNPO
 62
   144
100
AcDbLine
 10
4081.112894520181
 20
1971.298865611943
 30
0.0
 11
4081.112894520181
 21
1835.664106726155
 31
0.0
  0
LINE
  5
1041
330
1F
100
AcDbEntity
  8
SUNPO
 62
   144
100
AcDbLine
 10
4481.112894520181
 20
1971.298865611943
 30
0.0
 11
4481.112894520181
 21
1835.664106726155
 31
0.0
  0
LINE
  5
1042
330
1F
100
AcDbEntity
  8
SUNPO
 62
   144
100
AcDbLine
 10
4095.11289452018
 20
1845.664106726155
 30
0.0
 11
4467.112894520179
 21
1845.664106726155
 31
0.0
  0
SOLID
  5
1043
330
1F
100
AcDbEntity
  8
SUNPO
 62
   144
100
AcDbTrace
 10
4095.11289452018
 20
1847.997440059488
 30
0.0
 11
4095.11289452018
 21
1843.330773392822
 31
0.0
 12
4081.112894520181
 22
1845.664106726155
 32
0.0
 13
4081.112894520181
 23
1845.664106726155
 33
0.0
  0
SOLID
  5
1044
330
1F
100
AcDbEntity
  8
SUNPO
 62
   144
100
AcDbTrace
 10
4467.112894520179
 20
1847.997440059488
 30
0.0
 11
4467.112894520179
 21
1843.330773392822
 31
0.0
 12
4481.112894520181
 22
1845.664106726155
 32
0.0
 13
4481.112894520181
 23
1845.664106726155
 33
0.0
  0
LINE
  5
1046
330
1F
100
AcDbEntity
  8
SUNPO
 62
   144
100
AcDbLine
 10
3931.112894520181
 20
1971.298865611943
 30
0.0
 11
3931.112894520181
 21
1835.664106726155
 31
0.0
  0
LINE
  5
1047
330
1F
100
AcDbEntity
  8
SUNPO
 62
   144
100
AcDbLine
 10
4081.112894520181
 20
1971.298865611943
 30
0.0
 11
4081.112894520181
 21
1835.664106726155
 31
0.0
  0
LINE
  5
1048
330
1F
100
AcDbEntity
  8
SUNPO
 62
   144
100
AcDbLine
 10
3945.112894520181
 20
1845.664106726155
 30
0.0
 11
4067.112894520181
 21
1845.664106726155
 31
0.0
  0
SOLID
  5
1049
330
1F
100
AcDbEntity
  8
SUNPO
 62
   144
100
AcDbTrace
 10
3945.112894520181
 20
1847.997440059488
 30
0.0
 11
3945.112894520181
 21
1843.330773392822
 31
0.0
 12
3931.112894520181
 22
1845.664106726155
 32
0.0
 13
3931.112894520181
 23
1845.664106726155
 33
0.0
  0
SOLID
  5
104A
330
1F
100
AcDbEntity
  8
SUNPO
 62
   144
100
AcDbTrace
 10
4067.112894520181
 20
1847.997440059488
 30
0.0
 11
4067.112894520181
 21
1843.330773392822
 31
0.0
 12
4081.112894520181
 22
1845.664106726155
 32
0.0
 13
4081.112894520181
 23
1845.664106726155
 33
0.0
  0
LINE
  5
104C
330
1F
100
AcDbEntity
  8
SUNPO
 62
   144
100
AcDbLine
 10
2155.385505549944
 20
2132.852263670197
 30
0.0
 11
2047.395315328905
 21
2132.852263670197
 31
0.0
  0
LINE
  5
104D
330
1F
100
AcDbEntity
  8
SUNPO
 62
   144
100
AcDbLine
 10
2155.385505549944
 20
2072.852263670197
 30
0.0
 11
2047.395315328905
 21
2072.852263670197
 31
0.0
  0
LINE
  5
104E
330
1F
100
AcDbEntity
  8
SUNPO
 62
   144
100
AcDbLine
 10
2057.395315328905
 20
2146.852263670197
 30
0.0
 11
2057.395315328905
 21
2160.852263670197
 31
0.0
  0
LINE
  5
104F
330
1F
100
AcDbEntity
  8
SUNPO
 62
   144
100
AcDbLine
 10
2057.395315328905
 20
2058.852263670197
 30
0.0
 11
2057.395315328905
 21
2044.852263670196
 31
0.0
  0
LINE
  5
1050
330
1F
100
AcDbEntity
  8
SUNPO
 62
   144
100
AcDbLine
 10
2057.395315328905
 20
2132.852263670197
 30
0.0
 11
2057.395315328905
 21
2072.852263670197
 31
0.0
  0
SOLID
  5
1051
330
1F
100
AcDbEntity
  8
SUNPO
 62
   144
100
AcDbTrace
 10
2055.061981995572
 20
2146.852263670197
 30
0.0
 11
2059.728648662237
 21
2146.852263670197
 31
0.0
 12
2057.395315328905
 22
2132.852263670197
 32
0.0
 13
2057.395315328905
 23
2132.852263670197
 33
0.0
  0
SOLID
  5
1052
330
1F
100
AcDbEntity
  8
SUNPO
 62
   144
100
AcDbTrace
 10
2055.061981995572
 20
2058.852263670197
 30
0.0
 11
2059.728648662237
 21
2058.852263670197
 31
0.0
 12
2057.395315328905
 22
2072.852263670197
 32
0.0
 13
2057.395315328905
 23
2072.852263670197
 33
0.0
  0
LINE
  5
1054
330
1F
100
AcDbEntity
  8
SUNPO
 62
   144
100
AcDbLine
 10
2325.385505549943
 20
2141.298865611945
 30
0.0
 11
2423.252123977996
 21
2141.298865611944
 31
0.0
  0
LINE
  5
1055
330
1F
100
AcDbEntity
  8
SUNPO
 62
   144
100
AcDbLine
 10
2325.385505549943
 20
1991.298865611945
 30
0.0
 11
2423.252123977996
 21
1991.298865611943
 31
0.0
  0
LINE
  5
1056
330
1F
100
AcDbEntity
  8
SUNPO
 62
   144
100
AcDbLine
 10
2413.252123977994
 20
2127.298865611945
 30
0.0
 11
2413.252123977994
 21
2005.298865611944
 31
0.0
  0
SOLID
  5
1057
330
1F
100
AcDbEntity
  8
SUNPO
 62
   144
100
AcDbTrace
 10
2410.918790644661
 20
2127.298865611945
 30
0.0
 11
2415.585457311329
 21
2127.298865611945
 31
0.0
 12
2413.252123977994
 22
2141.298865611944
 32
0.0
 13
2413.252123977994
 23
2141.298865611944
 33
0.0
  0
SOLID
  5
1058
330
1F
100
AcDbEntity
  8
SUNPO
 62
   144
100
AcDbTrace
 10
2410.918790644661
 20
2005.298865611944
 30
0.0
 11
2415.585457311329
 21
2005.298865611944
 31
0.0
 12
2413.252123977994
 22
1991.298865611943
 32
0.0
 13
2413.252123977994
 23
1991.298865611943
 33
0.0
  0
TEXT
  5
105A
330
1F
100
AcDbEntity
  8
SUNPO
 62
     7
100
AcDbText
 10
2110.266457930896
 20
1783.163199497149
 30
0.0
 40
50.0
  1
35
  7
ADD
100
AcDbText
  0
TEXT
  5
105B
330
1F
100
AcDbEntity
  8
SUNPO
 62
     7
100
AcDbText
 10
2165.385505549943
 20
1858.164106726155
 30
0.0
 40
50.0
  1
130
  7
ADD
100
AcDbText
  0
TEXT
  5
105C
330
1F
100
AcDbEntity
  8
SUNPO
 62
     7
100
AcDbText
 10
1901.456934121372
 20
1858.164106726155
 30
0.0
 40
50.0
  1
335
  7
ADD
100
AcDbText
  0
TEXT
  5
105D
330
1F
100
AcDbEntity
  8
SUNPO
 62
     7
100
AcDbText
 10
1633.956934121373
 20
1858.164106726155
 30
0.0
 40
50.0
  1
200
  7
ADD
100
AcDbText
  0
TEXT
  5
105E
330
1F
100
AcDbEntity
  8
MOJI
100
AcDbText
 10
3246.680311730542
 20
359.2274732162223
 30
0.0
 40
70.0
  1
１／２０
  7
ADD
100
AcDbText
  0
TEXT
  5
105F
330
1F
100
AcDbEntity
  8
MOJI
100
AcDbText
 10
381.8862574011546
 20
488.6918916770627
 30
0.0
 40
50.0
  1
製品名
  7
ADD
100
AcDbText
  0
TEXT
  5
1060
330
1F
100
AcDbEntity
  8
MOJI
100
AcDbText
 10
2376.290169028722
 20
494.4531736811823
 30
0.0
 40
50.0
  1
型式
  7
ADD
100
AcDbText
  0
TEXT
  5
1061
330
1F
100
AcDbEntity
  8
MOJI
100
AcDbText
 10
3177.510249231657
 20
488.6918916770627
 30
0.0
 40
50.0
  1
縮尺
  7
ADD
100
AcDbText
  0
TEXT
  5
1062
330
1F
100
AcDbEntity
  8
MOJI
100
AcDbText
 10
3730.870883051572
 20
352.2726133092144
 30
0.0
 40
100.0
  1
千葉県コンクリート製品協同組合
  7
ADD
100
AcDbText
  0
LINE
  5
1063
330
1F
100
AcDbEntity
  8
HOJO
100
AcDbLine
 10
360.0
 20
260.0
 30
0.0
 11
5580.0
 21
260.0
 31
0.0
  0
LINE
  5
1064
330
1F
100
AcDbEntity
  8
HOJO
100
AcDbLine
 10
5580.0
 20
260.0
 30
0.0
 11
5580.0
 21
3940.0
 31
0.0
  0
LINE
  5
1065
330
1F
100
AcDbEntity
  8
HOJO
100
AcDbLine
 10
5580.0
 20
3940.0
 30
0.0
 11
360.0
 21
3940.0
 31
0.0
  0
LINE
  5
1066
330
1F
100
AcDbEntity
  8
HOJO
100
AcDbLine
 10
360.0
 20
3940.0
 30
0.0
 11
360.0
 21
260.0
 31
0.0
  0
LINE
  5
1067
330
1F
100
AcDbEntity
  8
HOJO
100
AcDbLine
 10
0.0
 20
0.0
 30
0.0
 11
5940.0
 21
0.0
 31
0.0
  0
LINE
  5
1068
330
1F
100
AcDbEntity
  8
HOJO
100
AcDbLine
 10
5940.0
 20
0.0
 30
0.0
 11
5940.0
 21
4200.0
 31
0.0
  0
LINE
  5
1069
330
1F
100
AcDbEntity
  8
HOJO
100
AcDbLine
 10
5940.0
 20
4200.0
 30
0.0
 11
0.0
 21
4200.0
 31
0.0
  0
LINE
  5
106A
330
1F
100
AcDbEntity
  8
HOJO
100
AcDbLine
 10
0.0
 20
4200.0
 30
0.0
 11
0.0
 21
0.0
 31
0.0
  0
TEXT
  5
106B
330
1F
100
AcDbEntity
  8
SUNPO
 62
     7
100
AcDbText
 10
2400.752123977994
 20
1991.298865611945
 30
0.0
 40
50.0
  1
150
 50
90.0
  7
ADD
100
AcDbText
  0
TEXT
  5
106C
330
1F
100
AcDbEntity
  8
SUNPO
 62
     7
100
AcDbText
 10
2044.895315328905
 20
2054.042739860673
 30
0.0
 40
50.0
  1
60
 50
90.0
  7
ADD
100
AcDbText
  0
TEXT
  5
106D
330
1F
100
AcDbEntity
  8
SUNPO
 62
     7
100
AcDbText
 10
3931.112894520181
 20
1858.164106726155
 30
0.0
 40
50.0
  1
150
  7
ADD
100
AcDbText
  0
TEXT
  5
106E
330
1F
100
AcDbEntity
  8
SUNPO
 62
     7
100
AcDbText
 10
4209.684323091609
 20
1858.164106726155
 30
0.0
 40
50.0
  1
400
  7
ADD
100
AcDbText
  0
TEXT
  5
106F
330
1F
100
AcDbEntity
  8
SUNPO
 62
     7
100
AcDbText
 10
4481.112894520181
 20
1858.164106726155
 30
0.0
 40
50.0
  1
150
  7
ADD
100
AcDbText
  0
TEXT
  5
1070
330
1F
100
AcDbEntity
  8
SUNPO
 62
     7
100
AcDbText
 10
4209.684323091611
 20
1718.73024129683
 30
0.0
 40
50.0
  1
700
  7
ADD
100
AcDbText
  0
TEXT
  5
1075
330
1F
100
AcDbEntity
  8
SUNPO
 62
     7
100
AcDbText
 10
4805.959973996946
 20
1991.298865611945
 30
0.0
 40
50.0
  1
150
 50
90.0
  7
ADD
100
AcDbText
  0
TEXT
  5
1076
330
1F
100
AcDbEntity
  8
SUNPO
 62
     7
100
AcDbText
 10
4284.472591039752
 20
2054.916526268441
 30
0.0
 40
50.0
  1
60
 50
90.0
  7
ADD
100
AcDbText
  0
TEXT
  5
1077
330
1F
100
AcDbEntity
  8
SUNPO
 62
     7
100
AcDbText
 10
1633.956934121373
 20
2407.717086936527
 30
0.0
 40
50.0
  1
200
  7
ADD
100
AcDbText
  0
TEXT
  5
1078
330
1F
100
AcDbEntity
  8
SUNPO
 62
     7
100
AcDbText
 10
1983.956934121372
 20
2407.717086936527
 30
0.0
 40
50.0
  1
500
  7
ADD
100
AcDbText
  0
TEXT
  5
1079
330
1F
100
AcDbEntity
  8
SUNPO
 62
     7
100
AcDbText
 10
1883.956934121372
 20
2519.359738907922
 30
0.0
 40
50.0
  1
700
  7
ADD
100
AcDbText
  0
LINE
  5
107A
330
1F
100
AcDbEntity
  8
SUNPO
100
AcDbLine
 10
1835.30879246102
 20
2151.4006447098
 30
0.0
 11
1886.543157967795
 21
2220.183818799723
 31
0.0
1001
ACAD
1000
DSTYLE
1002
{
1070
   147
1040
0.625
1070
    77
1070
     0
1070
    40
1040
20.0
1070
    43
1040
8.0
1002
}
  0
LINE
  5
107B
330
1F
100
AcDbEntity
  8
SUNPO
100
AcDbLine
 10
1886.543157967795
 20
2220.183818799723
 30
0.0
 11
2092.603823764022
 21
2220.183818799723
 31
0.0
1001
ACAD
1000
DSTYLE
1002
{
1070
   147
1040
0.625
1070
    77
1070
     0
1070
    40
1040
20.0
1070
    43
1040
8.0
1002
}
  0
TEXT
  5
107C
330
1F
100
AcDbEntity
  8
SUNPO
 62
     7
100
AcDbText
 10
1329.060865152697
 20
1991.298865611945
 30
0.0
 40
50.0
  1
150
 50
90.0
  7
ADD
100
AcDbText
  0
TEXT
  5
107D
330
1F
100
AcDbEntity
  8
SUNPO
 62
     7
100
AcDbText
 10
1818.956934121372
 20
1718.73024129683
 30
0.0
 40
50.0
  1
570
  7
ADD
100
AcDbText
  0
LINE
  5
1175
330
1F
100
AcDbEntity
  8
SUNPO
 62
   144
100
AcDbLine
 10
3931.112894520179
 20
2161.298865611945
 30
0.0
 11
3931.112894520179
 21
2740.30224701418
 31
0.0
  0
LINE
  5
1176
330
1F
100
AcDbEntity
  8
SUNPO
 62
   144
100
AcDbLine
 10
4631.112894520181
 20
2161.298865611945
 30
0.0
 11
4631.112894520181
 21
2740.30224701418
 31
0.0
  0
LINE
  5
1177
330
1F
100
AcDbEntity
  8
SUNPO
 62
   144
100
AcDbLine
 10
3945.112894520179
 20
2730.30224701418
 30
0.0
 11
4617.112894520182
 21
2730.30224701418
 31
0.0
  0
SOLID
  5
1178
330
1F
100
AcDbEntity
  8
SUNPO
 62
   144
100
AcDbTrace
 10
3945.112894520179
 20
2732.635580347514
 30
0.0
 11
3945.112894520179
 21
2727.968913680847
 31
0.0
 12
3931.112894520179
 22
2730.30224701418
 32
0.0
 13
3931.112894520179
 23
2730.30224701418
 33
0.0
  0
SOLID
  5
1179
330
1F
100
AcDbEntity
  8
SUNPO
 62
   144
100
AcDbTrace
 10
4617.112894520182
 20
2732.635580347514
 30
0.0
 11
4617.112894520182
 21
2727.968913680847
 31
0.0
 12
4631.112894520181
 22
2730.30224701418
 32
0.0
 13
4631.112894520181
 23
2730.30224701418
 33
0.0
  0
LINE
  5
117B
330
1F
100
AcDbEntity
  8
SUNPO
 62
   144
100
AcDbLine
 10
3931.112894520179
 20
2161.298865611945
 30
0.0
 11
3931.112894520179
 21
2518.676748777439
 31
0.0
  0
LINE
  5
117C
330
1F
100
AcDbEntity
  8
SUNPO
 62
   144
100
AcDbLine
 10
4046.112894520181
 20
2161.298865611945
 30
0.0
 11
4046.112894520181
 21
2518.676748777439
 31
0.0
  0
LINE
  5
117D
330
1F
100
AcDbEntity
  8
SUNPO
 62
   144
100
AcDbLine
 10
3917.112894520179
 20
2508.676748777439
 30
0.0
 11
3903.112894520179
 21
2508.676748777439
 31
0.0
  0
LINE
  5
117E
330
1F
100
AcDbEntity
  8
SUNPO
 62
   144
100
AcDbLine
 10
4060.112894520181
 20
2508.676748777439
 30
0.0
 11
4074.112894520181
 21
2508.676748777439
 31
0.0
  0
LINE
  5
117F
330
1F
100
AcDbEntity
  8
SUNPO
 62
   144
100
AcDbLine
 10
3931.112894520179
 20
2508.676748777439
 30
0.0
 11
4046.112894520181
 21
2508.676748777439
 31
0.0
  0
SOLID
  5
1180
330
1F
100
AcDbEntity
  8
SUNPO
 62
   144
100
AcDbTrace
 10
3917.112894520179
 20
2511.010082110773
 30
0.0
 11
3917.112894520179
 21
2506.343415444106
 31
0.0
 12
3931.112894520179
 22
2508.676748777439
 32
0.0
 13
3931.112894520179
 23
2508.676748777439
 33
0.0
  0
SOLID
  5
1181
330
1F
100
AcDbEntity
  8
SUNPO
 62
   144
100
AcDbTrace
 10
4060.112894520181
 20
2511.010082110773
 30
0.0
 11
4060.112894520181
 21
2506.343415444106
 31
0.0
 12
4046.112894520181
 22
2508.676748777439
 32
0.0
 13
4046.112894520181
 23
2508.676748777439
 33
0.0
  0
LINE
  5
1183
330
1F
100
AcDbEntity
  8
SUNPO
 62
   144
100
AcDbLine
 10
4046.112894520181
 20
2161.298865611945
 30
0.0
 11
4046.112894520181
 21
2518.676748777439
 31
0.0
  0
LINE
  5
1184
330
1F
100
AcDbEntity
  8
SUNPO
 62
   144
100
AcDbLine
 10
4516.112894520182
 20
2141.298865611945
 30
0.0
 11
4516.112894520182
 21
2518.676748777439
 31
0.0
  0
LINE
  5
1185
330
1F
100
AcDbEntity
  8
SUNPO
 62
   144
100
AcDbLine
 10
4060.112894520181
 20
2508.676748777439
 30
0.0
 11
4502.112894520181
 21
2508.676748777439
 31
0.0
  0
SOLID
  5
1186
330
1F
100
AcDbEntity
  8
SUNPO
 62
   144
100
AcDbTrace
 10
4060.112894520181
 20
2511.010082110773
 30
0.0
 11
4060.112894520181
 21
2506.343415444106
 31
0.0
 12
4046.112894520181
 22
2508.676748777439
 32
0.0
 13
4046.112894520181
 23
2508.676748777439
 33
0.0
  0
SOLID
  5
1187
330
1F
100
AcDbEntity
  8
SUNPO
 62
   144
100
AcDbTrace
 10
4502.112894520181
 20
2511.010082110773
 30
0.0
 11
4502.112894520181
 21
2506.343415444106
 31
0.0
 12
4516.112894520182
 22
2508.676748777439
 32
0.0
 13
4516.112894520182
 23
2508.676748777439
 33
0.0
  0
LINE
  5
1189
330
1F
100
AcDbEntity
  8
SUNPO
 62
   144
100
AcDbLine
 10
4516.112894520182
 20
2141.298865611945
 30
0.0
 11
4516.112894520182
 21
2518.676748777439
 31
0.0
  0
LINE
  5
118A
330
1F
100
AcDbEntity
  8
SUNPO
 62
   144
100
AcDbLine
 10
4631.112894520181
 20
2161.298865611945
 30
0.0
 11
4631.112894520181
 21
2518.676748777439
 31
0.0
  0
LINE
  5
118B
330
1F
100
AcDbEntity
  8
SUNPO
 62
   144
100
AcDbLine
 10
4502.112894520181
 20
2508.676748777439
 30
0.0
 11
4488.112894520181
 21
2508.676748777439
 31
0.0
  0
LINE
  5
118C
330
1F
100
AcDbEntity
  8
SUNPO
 62
   144
100
AcDbLine
 10
4645.112894520181
 20
2508.676748777439
 30
0.0
 11
4659.112894520181
 21
2508.676748777439
 31
0.0
  0
LINE
  5
118D
330
1F
100
AcDbEntity
  8
SUNPO
 62
   144
100
AcDbLine
 10
4516.112894520182
 20
2508.676748777439
 30
0.0
 11
4631.112894520181
 21
2508.676748777439
 31
0.0
  0
SOLID
  5
118E
330
1F
100
AcDbEntity
  8
SUNPO
 62
   144
100
AcDbTrace
 10
4502.112894520181
 20
2511.010082110773
 30
0.0
 11
4502.112894520181
 21
2506.343415444106
 31
0.0
 12
4516.112894520182
 22
2508.676748777439
 32
0.0
 13
4516.112894520182
 23
2508.676748777439
 33
0.0
  0
SOLID
  5
118F
330
1F
100
AcDbEntity
  8
SUNPO
 62
   144
100
AcDbTrace
 10
4645.112894520181
 20
2511.010082110773
 30
0.0
 11
4645.112894520181
 21
2506.343415444106
 31
0.0
 12
4631.112894520181
 22
2508.676748777439
 32
0.0
 13
4631.112894520181
 23
2508.676748777439
 33
0.0
  0
TEXT
  5
1195
330
1F
100
AcDbEntity
  8
SUNPO
 62
     7
100
AcDbText
 10
4498.612894520181
 20
2521.176748777439
 30
0.0
 40
50.0
  1
115
  7
ADD
100
AcDbText
  0
TEXT
  5
1196
330
1F
100
AcDbEntity
  8
SUNPO
 62
     7
100
AcDbText
 10
4209.68432309161
 20
2521.176748777439
 30
0.0
 40
50.0
  1
470
  7
ADD
100
AcDbText
  0
TEXT
  5
1197
330
1F
100
AcDbEntity
  8
SUNPO
 62
     7
100
AcDbText
 10
3913.612894520181
 20
2521.176748777439
 30
0.0
 40
50.0
  1
115
  7
ADD
100
AcDbText
  0
TEXT
  5
1198
330
1F
100
AcDbEntity
  8
SUNPO
 62
     7
100
AcDbText
 10
4209.684323091609
 20
2742.80224701418
 30
0.0
 40
50.0
  1
700
  7
ADD
100
AcDbText
  0
LINE
  5
1202
330
1F
100
AcDbEntity
  8
3C1
100
AcDbLine
 10
1605.385505549944
 20
2141.298865611945
 30
0.0
 11
1605.385505549944
 21
2111.298865611945
 31
0.0
  0
TEXT
  5
1267
330
1F
100
AcDbEntity
  8
3C1
100
AcDbText
 10
2392.791085108485
 20
389.4759796116177
 30
0.0
 40
50.0
  1
ＣＢＬ２＿Ｄ２ＥＮ
  7
ADD
100
AcDbText
  0
VIEWPORT
  5
72
330
1B
100
AcDbEntity
 67
     1
  8
0
100
AcDbViewport
 10
429.8380103383458
 20
277.0
 30
0.0
 40
948.9782706766916
 41
628.4520000000001
 68
     1
 69
     1
1001
ACAD
1000
MVIEW
1002
{
1070
    16
1010
0.0
1020
0.0
1030
0.0
1010
0.0
1020
0.0
1030
1.0
1040
0.0
1040
628.4520000000001
1040
429.8380103383458
1040
277.0
1040
50.0
1040
0.0
1040
0.0
1070
     0
1070
   100
1070
     1
1070
     1
1070
     0
1070
     0
1070
     0
1070
     0
1040
0.0
1040
0.0
1040
0.0
1040
10.0
1040
10.0
1040
10.0
1040
10.0
1070
     0
1002
{
1002
}
1002
}
  0
VIEWPORT
  5
74
330
1B
100
AcDbEntity
 67
     1
  8
VIEWPORT
100
AcDbViewport
 10
414.3779638919212
 20
277.3177265058034
 30
0.0
 40
840.0353682728887
 41
567.2285469943826
 68
     2
 69
     2
1001
ACAD
1000
MVIEW
1002
{
1070
    16
1010
0.0
1020
0.0
1030
0.0
1010
0.0
1020
0.0
1030
1.0
1040
0.0
1040
579.5583043546322
1040
424.4938908624541
1040
286.1973242720074
1040
50.0
1040
0.0
1040
0.0
1070
     0
1070
   100
1070
     1
1070
     1
1070
     0
1070
     0
1070
     0
1070
     0
1040
0.0
1040
0.0
1040
0.0
1040
10.0
1040
10.0
1040
10.0
1040
10.0
1070
     0
1002
{
1002
}
1002
}
  0
ENDSEC
  0
SECTION
  2
OBJECTS
  0
DICTIONARY
  5
C
330
0
100
AcDbDictionary
  3
ACAD_GROUP
350
D
  3
ACAD_LAYOUT
350
1A
  3
ACAD_MLINESTYLE
350
17
  3
ACAD_PLOTSETTINGS
350
19
  3
ACADDIM
350
EFA
  3
DWGPROPS
350
4C7
1001
ACAD
1000
TREAT_AS_HARD
1070
     0
1000
TREAT_AS_HARD
1070
     0
1000
TREAT_AS_HARD
1070
     0
  0
DICTIONARY
  5
1081
330
1F
100
AcDbDictionary
  3
ACAD_LAYOUTSELFREF
350
126A
1001
ACAD
1000
TREAT_AS_HARD
1070
     1
1000
TREAT_AS_HARD
1070
     1
  0
DICTIONARY
  5
107F
330
1B
100
AcDbDictionary
  3
ACAD_LAYOUTSELFREF
350
1269
1001
ACAD
1000
TREAT_AS_HARD
1070
     1
1000
TREAT_AS_HARD
1070
     1
  0
DICTIONARY
  5
D
102
{ACAD_REACTORS
330
C
102
}
330
C
100
AcDbDictionary
1001
ACAD
1000
TREAT_AS_HARD
1070
     0
1000
TREAT_AS_HARD
1070
     0
1000
TREAT_AS_HARD
1070
     0
  0
DICTIONARY
  5
1A
102
{ACAD_REACTORS
330
C
102
}
330
C
100
AcDbDictionary
1001
ACAD
1000
TREAT_AS_HARD
1070
     0
1000
TREAT_AS_HARD
1070
     0
1000
TREAT_AS_HARD
1070
     0
  0
DICTIONARY
  5
17
102
{ACAD_REACTORS
330
C
102
}
330
C
100
AcDbDictionary
  3
STANDARD
350
18
1001
ACAD
1000
TREAT_AS_HARD
1070
     0
1000
TREAT_AS_HARD
1070
     0
1000
TREAT_AS_HARD
1070
     0
  0
DICTIONARY
  5
19
102
{ACAD_REACTORS
330
C
102
}
330
C
100
AcDbDictionary
1001
ACAD
1000
TREAT_AS_HARD
1070
     0
1000
TREAT_AS_HARD
1070
     0
1000
TREAT_AS_HARD
1070
     0
  0
XRECORD
  5
EFA
102
{ACAD_REACTORS
330
C
102
}
330
C
100
AcDbXrecord
 90
   990106
  3

 60
     0
 61
     0
 62
     1
 63
     3
 64
     0
 65
     0
 66
     0
 67
     3
 68
     1
 69
     0
 70
     0
 71
     0
 72
     0
 40
0.0
170
     0
  0
XRECORD
  5
4C7
102
{ACAD_REACTORS
330
C
102
}
330
C
100
AcDbXrecord
  1
DWGPROPS COOKIE
  2
印刷用テスト
  3
AutoCAD2000による建築設計
  4
鈴木 裕二
  6

  7

  8
U2
  9

300
=
301
=
302
=
303
=
304
=
305
=
306
=
307
=
308
=
309
=
 40
0.7653446875
 41
2451285.4846114
 42
2451333.689743032
  1

 90
        0
  0
XRECORD
  5
126A
102
{ACAD_REACTORS
330
1081
102
}
330
1081
100
AcDbXrecord
340
1F
  0
XRECORD
  5
1269
102
{ACAD_REACTORS
330
107F
102
}
330
107F
100
AcDbXrecord
340
1B
  0
MLINESTYLE
  5
18
102
{ACAD_REACTORS
330
17
102
}
330
17
100
AcDbMlineStyle
  2
STANDARD
 70
     0
  3

 62
   256
 51
90.0
 52
90.0
 71
     2
 49
0.5
 62
   256
  6
BYLAYER
 49
-0.5
 62
   256
  6
BYLAYER
  0
ENDSEC
  0
EOF
