  0
SECTION
  2
HEADER
  9
$ACADVER
  1
AC1009
  9
$INSBASE
 10
0
 20
0
 30
0
  9
$EXTMIN
 10
0
 20
0
  9
$EXTMAX
 10
5940
 20
4200
  9
$LIMMIN
 10
0
 20
0
  9
$LIMMAX
 10
5940
 20
4200
  9
$LTSCALE
 40
20
  0
ENDSEC
  0
SECTION
  2
TABLES
  0
TABLE
  2
LTYPE
 70
     9
  0
LTYPE
  2
CONTINUOUS
 70
    64
  3
実線
 72
    65
 73
     0
 40
0.0
  0
LTYPE
  2
DASHED1
 70
    64
  3
--  --  --  --  --  --  --  --  
 72
    65
 73
     2
 40
2.5
 49
1.25
 49
-1.25
  0
LTYPE
  2
DASHED2
 70
    64
  3
----    ----    ----    ----    
 72
    65
 73
     2
 40
5.0
 49
2.5
 49
-2.5
  0
LTYPE
  2
DASHED3
 70
    64
  3
------  ------  ------  ------  
 72
    65
 73
     2
 40
5.0
 49
3.75
 49
-1.25
  0
LTYPE
  2
CENTER1
 70
    64
  3
----- - ----- - ----- - ----- - 
 72
    65
 73
     4
 40
10.0
 49
6.25
 49
-1.25
 49
1.25
 49
-1.25
  0
LTYPE
  2
CENTER2
 70
    64
  3
----------  --  ----------  --  
 72
    65
 73
     4
 40
20.0
 49
12.5
 49
-2.5
 49
2.5
 49
-2.5
  0
LTYPE
  2
PHANTOM1
 70
    64
  3
--- - - --- - - --- - - --- - - 
 72
    65
 73
     6
 40
10.0
 49
3.25
 49
-1.25
 49
1.25
 49
-1.25
 49
1.25
 49
-1.25
  0
LTYPE
  2
PHANTOM2
 70
    64
  3
--------  -  -  --------  -  -  
 72
    65
 73
     6
 40
20.0
 49
10.0
 49
-2.5
 49
1.25
 49
-2.5
 49
1.25
 49
-2.5
  0
LTYPE
  2
DOT
 70
    64
  3
-   -   -   -   -   -   -   -   
 72
    65
 73
     2
 40
2.5
 49
0.625
 49
-1.875
  0
LTYPE
  2
DUMMY
 70
    64
  3
ダミー
 72
    65
 73
     0
 40
0.0
  0
LTYPE
  2
RAND1
 70
    64
  3
----- - ----- - ----- - ----- - 
 72
    65
 73
     4
 40
10.0
 49
6.25
 49
-1.25
 49
1.25
 49
-1.25
  0
LTYPE
  2
RAND2
 70
    64
  3
----------  --  ----------  --  
 72
    65
 73
     4
 40
20.0
 49
12.5
 49
-2.5
 49
2.5
 49
-2.5
  0
LTYPE
  2
RAND3
 70
    64
  3
--- - - --- - - --- - - --- - - 
 72
    65
 73
     6
 40
10.0
 49
3.25
 49
-1.25
 49
1.25
 49
-1.25
 49
1.25
 49
-1.25
  0
LTYPE
  2
RAND4
 70
    64
  3
--------  -  -  --------  -  -  
 72
    65
 73
     6
 40
20.0
 49
10.0
 49
-2.5
 49
1.25
 49
-2.5
 49
1.25
 49
-2.5
  0
LTYPE
  2
RAND5
 70
    64
  3
----- - ----- - ----- - ----- - 
 72
    65
 73
     4
 40
10.0
 49
6.25
 49
-1.25
 49
1.25
 49
-1.25
  0
LTYPE
  2
LONG1
 70
    64
  3
----------  --  ----------  --  
 72
    65
 73
     4
 40
20.0
 49
12.5
 49
-2.5
 49
2.5
 49
-2.5
  0
LTYPE
  2
LONG2
 70
    64
  3
--- - - --- - - --- - - --- - - 
 72
    65
 73
     6
 40
10.0
 49
3.25
 49
-1.25
 49
1.25
 49
-1.25
 49
1.25
 49
-1.25
  0
LTYPE
  2
LONG3
 70
    64
  3
--------  -  -  --------  -  -  
 72
    65
 73
     6
 40
20.0
 49
10.0
 49
-2.5
 49
1.25
 49
-2.5
 49
1.25
 49
-2.5
  0
LTYPE
  2
LONG4
 70
    64
  3
----- - ----- - ----- - ----- - 
 72
    65
 73
     4
 40
10.0
 49
6.25
 49
-1.25
 49
1.25
 49
-1.25
  0
LTYPE
  2
LONG5
 70
    64
  3
----------  --  ----------  --  
 72
    65
 73
     4
 40
20.0
 49
12.5
 49
-2.5
 49
2.5
 49
-2.5
  0
ENDTAB
  0
TABLE
  2
STYLE
  5
3
100
AcDbSymbolTable
 70
     1
  0
STYLE
  5
10
100
AcDbSymbolTableRecord
100
AcDbTextStyleTableRecord
  2
STANDARD
 70
     0
 40
0.0
 41
1.0
 50
0.0
 71
     0
 42
0.2
  3
txt
  4
bigfont.shx
  0
ENDTAB
  0
TABLE
  2
LAYER
 70
    5
  0
LAYER
  2
_0-a_3C1
 70
   64
 62
    7
  6
CONTINUOUS
  0
LAYER
  2
_1-2_HOJO
 70
   64
 62
    7
  6
CONTINUOUS
  0
LAYER
  2
_1-4_MOJI
 70
   64
 62
    7
  6
CONTINUOUS
  0
LAYER
  2
_1-5_SUNPO
 70
   64
 62
    7
  6
CONTINUOUS
  0
LAYER
  2
ADD_LINE
 70
   64
 62
    7
  6
CONTINUOUS
  0
ENDTAB
  0
ENDSEC
  0
SECTION
  2
BLOCKS
  0
BLOCK
  2
-000-_MODEL_SPACE
 70
   64
 10
0
 20
0
 30
0
  0
ENDBLK
  0
BLOCK
  2
-001-_PAPER_SPACE
 70
   64
 10
0
 20
0
 30
0
  0
ENDBLK
  0
BLOCK
  2
-002-_DOT
 70
   64
 10
0
 20
0
 30
0
  0
CIRCLE
  8
_0-0_0
  6
CONTINUOUS
 62
    7
 10
0
 20
0
 40
0.25
  0
CIRCLE
  8
_0-0_0
  6
CONTINUOUS
 62
    7
 10
0
 20
-0
 40
0.25
  0
LINE
  8
_0-0_0
  6
CONTINUOUS
 62
    7
 10
-0.5
 20
0
 11
-1
 21
0
  0
ENDBLK
  0
BLOCK
  2
-003-A4
 70
   64
 10
0
 20
0
 30
0
  0
LINE
  8
_1-2_HOJO
  6
CONTINUOUS
 62
    5
 10
0
 20
0
 11
297
 21
0
  0
LINE
  8
_1-2_HOJO
  6
CONTINUOUS
 62
    5
 10
297
 20
0
 11
297
 21
210
  0
LINE
  8
_1-2_HOJO
  6
CONTINUOUS
 62
    5
 10
297
 20
210
 11
0
 21
210
  0
LINE
  8
_1-2_HOJO
  6
CONTINUOUS
 62
    5
 10
0
 20
210
 11
0
 21
0
  0
LINE
  8
_1-2_HOJO
  6
CONTINUOUS
 62
    5
 10
18
 20
13
 11
279
 21
13
  0
LINE
  8
_1-2_HOJO
  6
CONTINUOUS
 62
    5
 10
279
 20
13
 11
279
 21
197
  0
LINE
  8
_1-2_HOJO
  6
CONTINUOUS
 62
    5
 10
279
 20
197
 11
18
 21
197
  0
LINE
  8
_1-2_HOJO
  6
CONTINUOUS
 62
    5
 10
18
 20
197
 11
18
 21
13
  0
ENDBLK
  0
BLOCK
  2
-004-_D2
 70
   64
 10
0
 20
0
 30
0
  0
LINE
  8
_1-5_SUNPO
  6
CONTINUOUS
 62
    7
 10
3567.9254
 20
2510.9061
 11
3567.9254
 21
2686.6364
  0
LINE
  8
_1-5_SUNPO
  6
CONTINUOUS
 62
    7
 10
4167.9254
 20
2510.9061
 11
4167.9254
 21
2686.6364
  0
LINE
  8
_1-5_SUNPO
  6
CONTINUOUS
 62
    7
 10
3617.9254
 20
2676.6364
 11
4117.9254
 21
2676.6364
  0
SOLID
  8
_1-5_SUNPO
  6
CONTINUOUS
 62
    7
 10
3617.9254
 20
2684.9697
 11
3617.9254
 21
2668.303
 12
3567.9254
 22
2676.6364
 13
3567.9254
 23
2676.6364
  0
SOLID
  8
_1-5_SUNPO
  6
CONTINUOUS
 62
    7
 10
4117.9254
 20
2684.9697
 11
4117.9254
 21
2668.303
 12
4167.9254
 22
2676.6364
 13
4167.9254
 23
2676.6364
  0
TEXT
  8
_1-5_SUNPO
 62
    7
 10
3826.1754
 20
2689.1364
 40
50
 41
1
 50
0
  1
600
  0
CIRCLE
  8
_0-2_DEFPOINTS
 62
    7
 10
3567.9254
 20
2490.9061
 40
8
  0
CIRCLE
  8
_0-2_DEFPOINTS
 62
    7
 10
4167.9254
 20
2490.9061
 40
8
  0
CIRCLE
  8
_0-2_DEFPOINTS
 62
    7
 10
4167.9254
 20
2676.6364
 40
8
  0
ENDBLK
  0
BLOCK
  2
-005-_D3
 70
   64
 10
0
 20
0
 30
0
  0
LINE
  8
_1-5_SUNPO
  6
CONTINUOUS
 62
    7
 10
3547.9254
 20
2315.9061
 11
3376.1959
 21
2315.9061
  0
LINE
  8
_1-5_SUNPO
  6
CONTINUOUS
 62
    7
 10
3547.9254
 20
2490.9061
 11
3376.1959
 21
2490.9061
  0
LINE
  8
_1-5_SUNPO
  6
CONTINUOUS
 62
    7
 10
3386.1959
 20
2365.9061
 11
3386.1959
 21
2440.9061
  0
SOLID
  8
_1-5_SUNPO
  6
CONTINUOUS
 62
    7
 10
3377.8625
 20
2365.9061
 11
3394.5292
 21
2365.9061
 12
3386.1959
 22
2315.9061
 13
3386.1959
 23
2315.9061
  0
SOLID
  8
_1-5_SUNPO
  6
CONTINUOUS
 62
    7
 10
3377.8625
 20
2440.9061
 11
3394.5292
 21
2440.9061
 12
3386.1959
 22
2490.9061
 13
3386.1959
 23
2490.9061
  0
TEXT
  8
_1-5_SUNPO
 62
    7
 10
3373.6959
 20
2361.6561
 40
50
 41
1
 50
90
  1
175
  0
CIRCLE
  8
_0-2_DEFPOINTS
 62
    7
 10
3567.9254
 20
2315.9061
 40
8
  0
CIRCLE
  8
_0-2_DEFPOINTS
 62
    7
 10
3567.9254
 20
2490.9061
 40
8
  0
CIRCLE
  8
_0-2_DEFPOINTS
 62
    7
 10
3386.1959
 20
2490.9061
 40
8
  0
ENDBLK
  0
BLOCK
  2
-006-_D4
 70
   64
 10
0
 20
0
 30
0
  0
LINE
  8
_1-5_SUNPO
  6
CONTINUOUS
 62
    7
 10
2392.0746
 20
2309.3025
 11
2569.5447
 21
2309.3025
  0
LINE
  8
_1-5_SUNPO
  6
CONTINUOUS
 62
    7
 10
2392.0746
 20
2409.3025
 11
2569.5447
 21
2409.3025
  0
LINE
  8
_1-5_SUNPO
  6
CONTINUOUS
 62
    7
 10
2559.5447
 20
2259.3025
 11
2559.5447
 21
2209.3025
  0
LINE
  8
_1-5_SUNPO
  6
CONTINUOUS
 62
    7
 10
2559.5447
 20
2459.3025
 11
2559.5447
 21
2509.3025
  0
LINE
  8
_1-5_SUNPO
  6
CONTINUOUS
 62
    7
 10
2559.5447
 20
2309.3025
 11
2559.5447
 21
2409.3025
  0
SOLID
  8
_1-5_SUNPO
  6
CONTINUOUS
 62
    7
 10
2551.2114
 20
2259.3025
 11
2567.8781
 21
2259.3025
 12
2559.5447
 22
2309.3025
 13
2559.5447
 23
2309.3025
  0
SOLID
  8
_1-5_SUNPO
  6
CONTINUOUS
 62
    7
 10
2551.2114
 20
2459.3025
 11
2567.8781
 21
2459.3025
 12
2559.5447
 22
2409.3025
 13
2559.5447
 23
2409.3025
  0
TEXT
  8
_1-5_SUNPO
 62
    7
 10
2547.0447
 20
2317.5525
 40
50
 41
1
 50
90
  1
100
  0
CIRCLE
  8
_0-2_DEFPOINTS
 62
    7
 10
2372.0746
 20
2309.3025
 40
8
  0
CIRCLE
  8
_0-2_DEFPOINTS
 62
    7
 10
2372.0746
 20
2409.3025
 40
8
  0
CIRCLE
  8
_0-2_DEFPOINTS
 62
    7
 10
2559.5447
 20
2409.3025
 40
8
  0
ENDBLK
  0
BLOCK
  2
-007-_D8
 70
   64
 10
0
 20
0
 30
0
  0
LINE
  8
_1-5_SUNPO
  6
CONTINUOUS
 62
    7
 10
2002.0746
 20
2309.3025
 11
1688.4498
 21
2309.3025
  0
LINE
  8
_1-5_SUNPO
  6
CONTINUOUS
 62
    7
 10
2002.0746
 20
2484.3025
 11
1688.4498
 21
2484.3025
  0
LINE
  8
_1-5_SUNPO
  6
CONTINUOUS
 62
    7
 10
1698.4498
 20
2359.3025
 11
1698.4498
 21
2434.3025
  0
SOLID
  8
_1-5_SUNPO
  6
CONTINUOUS
 62
    7
 10
1690.1164
 20
2359.3025
 11
1706.7831
 21
2359.3025
 12
1698.4498
 22
2309.3025
 13
1698.4498
 23
2309.3025
  0
SOLID
  8
_1-5_SUNPO
  6
CONTINUOUS
 62
    7
 10
1690.1164
 20
2434.3025
 11
1706.7831
 21
2434.3025
 12
1698.4498
 22
2484.3025
 13
1698.4498
 23
2484.3025
  0
TEXT
  8
_1-5_SUNPO
 62
    7
 10
1685.9498
 20
2355.0525
 40
50
 41
1
 50
90
  1
175
  0
CIRCLE
  8
_0-2_DEFPOINTS
 62
    7
 10
2022.0746
 20
2309.3025
 40
8
  0
CIRCLE
  8
_0-2_DEFPOINTS
 62
    7
 10
2022.0746
 20
2484.3025
 40
8
  0
CIRCLE
  8
_0-2_DEFPOINTS
 62
    7
 10
1698.4498
 20
2484.3025
 40
8
  0
ENDBLK
  0
BLOCK
  2
-008-_D9
 70
   64
 10
0
 20
0
 30
0
  0
LINE
  8
_1-5_SUNPO
  6
CONTINUOUS
 62
    7
 10
2002.0746
 20
2309.3025
 11
1837.7062
 21
2309.3025
  0
LINE
  8
_1-5_SUNPO
  6
CONTINUOUS
 62
    7
 10
2002.0746
 20
2384.3025
 11
1837.7062
 21
2384.3025
  0
LINE
  8
_1-5_SUNPO
  6
CONTINUOUS
 62
    7
 10
1847.7062
 20
2259.3025
 11
1847.7062
 21
2209.3025
  0
LINE
  8
_1-5_SUNPO
  6
CONTINUOUS
 62
    7
 10
1847.7062
 20
2434.3025
 11
1847.7062
 21
2484.3025
  0
LINE
  8
_1-5_SUNPO
  6
CONTINUOUS
 62
    7
 10
1847.7062
 20
2309.3025
 11
1847.7062
 21
2384.3025
  0
SOLID
  8
_1-5_SUNPO
  6
CONTINUOUS
 62
    7
 10
1839.3729
 20
2259.3025
 11
1856.0396
 21
2259.3025
 12
1847.7062
 22
2309.3025
 13
1847.7062
 23
2309.3025
  0
SOLID
  8
_1-5_SUNPO
  6
CONTINUOUS
 62
    7
 10
1839.3729
 20
2434.3025
 11
1856.0396
 21
2434.3025
 12
1847.7062
 22
2384.3025
 13
1847.7062
 23
2384.3025
  0
TEXT
  8
_1-5_SUNPO
 62
    7
 10
1835.2062
 20
2319.6775
 40
50
 41
1
 50
90
  1
75
  0
CIRCLE
  8
_0-2_DEFPOINTS
 62
    7
 10
2022.0746
 20
2309.3025
 40
8
  0
CIRCLE
  8
_0-2_DEFPOINTS
 62
    7
 10
2022.0746
 20
2384.3025
 40
8
  0
CIRCLE
  8
_0-2_DEFPOINTS
 62
    7
 10
1847.7062
 20
2384.3025
 40
8
  0
ENDBLK
  0
BLOCK
  2
-009-_D10
 70
   64
 10
0
 20
0
 30
0
  0
LINE
  8
_1-5_SUNPO
  6
CONTINUOUS
 62
    7
 10
2002.0746
 20
2384.3025
 11
1837.7062
 21
2384.3025
  0
LINE
  8
_1-5_SUNPO
  6
CONTINUOUS
 62
    7
 10
2002.0746
 20
2484.3025
 11
1837.7062
 21
2484.3025
  0
LINE
  8
_1-5_SUNPO
  6
CONTINUOUS
 62
    7
 10
1847.7062
 20
2334.3025
 11
1847.7062
 21
2284.3025
  0
LINE
  8
_1-5_SUNPO
  6
CONTINUOUS
 62
    7
 10
1847.7062
 20
2534.3025
 11
1847.7062
 21
2584.3025
  0
LINE
  8
_1-5_SUNPO
  6
CONTINUOUS
 62
    7
 10
1847.7062
 20
2384.3025
 11
1847.7062
 21
2484.3025
  0
SOLID
  8
_1-5_SUNPO
  6
CONTINUOUS
 62
    7
 10
1839.3729
 20
2334.3025
 11
1856.0396
 21
2334.3025
 12
1847.7062
 22
2384.3025
 13
1847.7062
 23
2384.3025
  0
SOLID
  8
_1-5_SUNPO
  6
CONTINUOUS
 62
    7
 10
1839.3729
 20
2534.3025
 11
1856.0396
 21
2534.3025
 12
1847.7062
 22
2484.3025
 13
1847.7062
 23
2484.3025
  0
TEXT
  8
_1-5_SUNPO
 62
    7
 10
1835.2062
 20
2392.5525
 40
50
 41
1
 50
90
  1
100
  0
CIRCLE
  8
_0-2_DEFPOINTS
 62
    7
 10
2022.0746
 20
2384.3025
 40
8
  0
CIRCLE
  8
_0-2_DEFPOINTS
 62
    7
 10
2022.0746
 20
2484.3025
 40
8
  0
CIRCLE
  8
_0-2_DEFPOINTS
 62
    7
 10
1847.7062
 20
2484.3025
 40
8
  0
ENDBLK
  0
BLOCK
  2
-010-_D11
 70
   64
 10
0
 20
0
 30
0
  0
LINE
  8
_1-4_MOJI
  6
CONTINUOUS
 62
    7
 10
1987.2062
 20
2180.8871
 11
2102.4477
 21
2348.6987
  0
TEXT
  8
_1-4_MOJI
 62
    7
 10
1996.7357
 20
2216.8445
 40
50
 41
1
 50
55.521403
  1
R20
  0
LINE
  8
_1-4_MOJI
  6
CONTINUOUS
 62
    7
 10
2142.0746
 20
2406.4023
 11
2130.7526
 21
2389.9155
  0
SOLID
  8
_1-4_MOJI
  6
CONTINUOUS
 62
    7
 10
2095.5782
 20
2353.4161
 11
2109.3172
 21
2343.9812
 12
2130.7526
 22
2389.9155
 13
2130.7526
 23
2389.9155
  0
CIRCLE
  8
_0-2_DEFPOINTS
 62
    7
 10
2130.7526
 20
2389.9155
 40
8
  0
CIRCLE
  8
_0-2_DEFPOINTS
 62
    7
 10
2142.0746
 20
2406.4023
 40
8
  0
ENDBLK
  0
BLOCK
  2
-011-_D12
 70
   64
 10
0
 20
0
 30
0
  0
LINE
  8
_1-4_MOJI
  6
CONTINUOUS
 62
    7
 10
2369.8387
 20
2520.3714
 11
2170.5886
 21
2478.6491
  0
TEXT
  8
_1-4_MOJI
 62
    7
 10
2251.2573
 20
2508.312
 40
50
 41
1
 50
11.826654
  1
R20
  0
LINE
  8
_1-4_MOJI
  6
CONTINUOUS
 62
    7
 10
2102.0746
 20
2464.3025
 11
2121.65
 21
2468.4016
  0
SOLID
  8
_1-4_MOJI
  6
CONTINUOUS
 62
    7
 10
2168.8807
 20
2486.8056
 11
2172.2965
 21
2470.4927
 12
2121.65
 22
2468.4016
 13
2121.65
 23
2468.4016
  0
CIRCLE
  8
_0-2_DEFPOINTS
 62
    7
 10
2121.65
 20
2468.4016
 40
8
  0
CIRCLE
  8
_0-2_DEFPOINTS
 62
    7
 10
2102.0746
 20
2464.3025
 40
8
  0
ENDBLK
  0
BLOCK
  2
-012-_D13
 70
   64
 10
0
 20
0
 30
0
  0
LINE
  8
_1-5_SUNPO
  6
CONTINUOUS
 62
    7
 10
2022.0746
 20
2504.3025
 11
2022.0746
 21
2628.9211
  0
LINE
  8
_1-5_SUNPO
  6
CONTINUOUS
 62
    7
 10
2122.0746
 20
2504.3025
 11
2122.0746
 21
2628.9211
  0
LINE
  8
_1-5_SUNPO
  6
CONTINUOUS
 62
    7
 10
1972.0746
 20
2618.9211
 11
1922.0746
 21
2618.9211
  0
LINE
  8
_1-5_SUNPO
  6
CONTINUOUS
 62
    7
 10
2172.0746
 20
2618.9211
 11
2222.0746
 21
2618.9211
  0
LINE
  8
_1-5_SUNPO
  6
CONTINUOUS
 62
    7
 10
2022.0746
 20
2618.9211
 11
2122.0746
 21
2618.9211
  0
SOLID
  8
_1-5_SUNPO
  6
CONTINUOUS
 62
    7
 10
1972.0746
 20
2627.2544
 11
1972.0746
 21
2610.5877
 12
2022.0746
 22
2618.9211
 13
2022.0746
 23
2618.9211
  0
SOLID
  8
_1-5_SUNPO
  6
CONTINUOUS
 62
    7
 10
2172.0746
 20
2627.2544
 11
2172.0746
 21
2610.5877
 12
2122.0746
 22
2618.9211
 13
2122.0746
 23
2618.9211
  0
TEXT
  8
_1-5_SUNPO
 62
    7
 10
2030.3246
 20
2631.4211
 40
50
 41
1
 50
0
  1
100
  0
CIRCLE
  8
_0-2_DEFPOINTS
 62
    7
 10
2022.0746
 20
2484.3025
 40
8
  0
CIRCLE
  8
_0-2_DEFPOINTS
 62
    7
 10
2122.0746
 20
2484.3025
 40
8
  0
CIRCLE
  8
_0-2_DEFPOINTS
 62
    7
 10
2122.0746
 20
2618.9211
 40
8
  0
ENDBLK
  0
BLOCK
  2
-013-_D14
 70
   64
 10
0
 20
0
 30
0
  0
LINE
  8
_1-5_SUNPO
  6
CONTINUOUS
 62
    7
 10
2122.0746
 20
2504.3025
 11
2122.0746
 21
2628.9211
  0
LINE
  8
_1-5_SUNPO
  6
CONTINUOUS
 62
    7
 10
2372.0746
 20
2429.3025
 11
2372.0746
 21
2628.9211
  0
LINE
  8
_1-5_SUNPO
  6
CONTINUOUS
 62
    7
 10
2172.0746
 20
2618.9211
 11
2322.0746
 21
2618.9211
  0
SOLID
  8
_1-5_SUNPO
  6
CONTINUOUS
 62
    7
 10
2172.0746
 20
2627.2544
 11
2172.0746
 21
2610.5877
 12
2122.0746
 22
2618.9211
 13
2122.0746
 23
2618.9211
  0
SOLID
  8
_1-5_SUNPO
  6
CONTINUOUS
 62
    7
 10
2322.0746
 20
2627.2544
 11
2322.0746
 21
2610.5877
 12
2372.0746
 22
2618.9211
 13
2372.0746
 23
2618.9211
  0
TEXT
  8
_1-5_SUNPO
 62
    7
 10
2205.3246
 20
2631.4211
 40
50
 41
1
 50
0
  1
250
  0
CIRCLE
  8
_0-2_DEFPOINTS
 62
    7
 10
2122.0746
 20
2484.3025
 40
8
  0
CIRCLE
  8
_0-2_DEFPOINTS
 62
    7
 10
2372.0746
 20
2409.3025
 40
8
  0
CIRCLE
  8
_0-2_DEFPOINTS
 62
    7
 10
2372.0746
 20
2618.9211
 40
8
  0
ENDBLK
  0
BLOCK
  2
-014-_D15
 70
   64
 10
0
 20
0
 30
0
  0
LINE
  8
_1-5_SUNPO
  6
CONTINUOUS
 62
    7
 10
2022.0746
 20
2504.3025
 11
2022.0746
 21
2762.3198
  0
LINE
  8
_1-5_SUNPO
  6
CONTINUOUS
 62
    7
 10
2372.0746
 20
2429.3025
 11
2372.0746
 21
2762.3198
  0
LINE
  8
_1-5_SUNPO
  6
CONTINUOUS
 62
    7
 10
2072.0746
 20
2752.3198
 11
2322.0746
 21
2752.3198
  0
SOLID
  8
_1-5_SUNPO
  6
CONTINUOUS
 62
    7
 10
2072.0746
 20
2760.6532
 11
2072.0746
 21
2743.9865
 12
2022.0746
 22
2752.3198
 13
2022.0746
 23
2752.3198
  0
SOLID
  8
_1-5_SUNPO
  6
CONTINUOUS
 62
    7
 10
2322.0746
 20
2760.6532
 11
2322.0746
 21
2743.9865
 12
2372.0746
 22
2752.3198
 13
2372.0746
 23
2752.3198
  0
TEXT
  8
_1-5_SUNPO
 62
    7
 10
2155.3246
 20
2764.8198
 40
50
 41
1
 50
0
  1
350
  0
CIRCLE
  8
_0-2_DEFPOINTS
 62
    7
 10
2022.0746
 20
2484.3025
 40
8
  0
CIRCLE
  8
_0-2_DEFPOINTS
 62
    7
 10
2372.0746
 20
2409.3025
 40
8
  0
CIRCLE
  8
_0-2_DEFPOINTS
 62
    7
 10
2372.0746
 20
2752.3198
 40
8
  0
ENDBLK
  0
ENDSEC
  0
SECTION
  2
ENTITIES
  0
LINE
  8
_1-2_HOJO
  6
CONTINUOUS
 62
    5
 10
359.99995
 20
259.99997
 11
5579.9999
 21
259.99997
  0
LINE
  8
_1-2_HOJO
  6
CONTINUOUS
 62
    5
 10
359.99995
 20
559.99997
 11
5579.9999
 21
559.99997
  0
LINE
  8
_1-2_HOJO
  6
CONTINUOUS
 62
    5
 10
359.99995
 20
259.99997
 11
359.99995
 21
559.99997
  0
LINE
  8
_1-2_HOJO
  6
CONTINUOUS
 62
    5
 10
2359.9999
 20
259.99997
 11
2359.9999
 21
559.99997
  0
LINE
  8
_1-2_HOJO
  6
CONTINUOUS
 62
    5
 10
3159.9999
 20
259.99997
 11
3159.9999
 21
559.99997
  0
LINE
  8
_1-2_HOJO
  6
CONTINUOUS
 62
    5
 10
3659.9999
 20
259.99997
 11
3659.9999
 21
559.99997
  0
LINE
  8
_0-a_3C1
  6
CONTINUOUS
 62
    7
 10
3567.9254
 20
2315.906
 11
4167.9254
 21
2315.906
  0
LINE
  8
_0-a_3C1
  6
CONTINUOUS
 62
    7
 10
4167.9254
 20
2315.906
 11
4167.9254
 21
2415.906
  0
LINE
  8
_0-a_3C1
  6
CONTINUOUS
 62
    7
 10
3567.9254
 20
2315.906
 11
3567.9254
 21
2415.906
  0
LINE
  8
_0-a_3C1
  6
CONTINUOUS
 62
    7
 10
3567.9254
 20
2415.906
 11
4167.9254
 21
2415.906
  0
LINE
  8
_0-a_3C1
  6
CONTINUOUS
 62
    7
 10
3567.9254
 20
2415.906
 11
3567.9254
 21
2490.906
  0
LINE
  8
_0-a_3C1
  6
CONTINUOUS
 62
    7
 10
4167.9254
 20
2415.906
 11
4167.9254
 21
2490.906
  0
LINE
  8
_0-a_3C1
  6
CONTINUOUS
 62
    7
 10
3567.9254
 20
2490.906
 11
4167.9254
 21
2490.906
  0
LINE
  8
_0-a_3C1
  6
CONTINUOUS
 62
    7
 10
2372.0745
 20
2309.3025
 11
2022.0745
 21
2309.3025
  0
LINE
  8
_0-a_3C1
  6
CONTINUOUS
 62
    7
 10
2372.0745
 20
2309.3025
 11
2372.0745
 21
2409.3025
  0
LINE
  8
_0-a_3C1
  6
CONTINUOUS
 62
    7
 10
2022.0745
 20
2309.3025
 11
2022.0745
 21
2484.3025
  0
LINE
  8
_0-a_3C1
  6
CONTINUOUS
 62
    7
 10
2022.0745
 20
2484.3025
 11
2102.0745
 21
2484.3025
  0
LINE
  8
_0-a_3C1
  6
CONTINUOUS
 62
    7
 10
2122.0745
 20
2464.3025
 11
2122.0745
 21
2406.4023
  0
LINE
  8
_0-a_3C1
  6
CONTINUOUS
 62
    7
 10
2144.0646
 20
2386.5015
 11
2372.0745
 21
2409.3025
  0
ARC
  8
_0-a_3C1
  6
CONTINUOUS
 62
    7
 10
2102.0745
 20
2464.3025
 40
20
 50
0
 51
90
  0
ARC
  8
_0-a_3C1
  6
CONTINUOUS
 62
    7
 10
2142.0745
 20
2406.4023
 40
20
 50
180
 51
275.71059
  0
LINE
  8
_1-5_SUNPO
  6
CONTINUOUS
 62
    7
 10
2022.0745
 20
2504.3025
 11
2022.0745
 21
2762.3198
  0
LINE
  8
_1-5_SUNPO
  6
CONTINUOUS
 62
    7
 10
2372.0745
 20
2429.3025
 11
2372.0745
 21
2762.3198
  0
LINE
  8
_1-5_SUNPO
  6
CONTINUOUS
 62
    7
 10
2072.0745
 20
2752.3198
 11
2322.0745
 21
2752.3198
  0
SOLID
  8
_1-5_SUNPO
  6
CONTINUOUS
 62
    7
 10
2072.0745
 20
2760.6531
 11
2072.0745
 21
2743.9865
 12
2022.0745
 22
2752.3198
 13
2022.0745
 23
2752.3198
  0
SOLID
  8
_1-5_SUNPO
  6
CONTINUOUS
 62
    7
 10
2322.0745
 20
2760.6531
 11
2322.0745
 21
2743.9865
 12
2372.0745
 22
2752.3198
 13
2372.0745
 23
2752.3198
  0
LINE
  8
_1-5_SUNPO
  6
CONTINUOUS
 62
    7
 10
2122.0745
 20
2504.3025
 11
2122.0745
 21
2628.9211
  0
LINE
  8
_1-5_SUNPO
  6
CONTINUOUS
 62
    7
 10
2372.0745
 20
2429.3025
 11
2372.0745
 21
2628.9211
  0
LINE
  8
_1-5_SUNPO
  6
CONTINUOUS
 62
    7
 10
2172.0745
 20
2618.9211
 11
2322.0745
 21
2618.9211
  0
SOLID
  8
_1-5_SUNPO
  6
CONTINUOUS
 62
    7
 10
2172.0745
 20
2627.2544
 11
2172.0745
 21
2610.5877
 12
2122.0745
 22
2618.9211
 13
2122.0745
 23
2618.9211
  0
SOLID
  8
_1-5_SUNPO
  6
CONTINUOUS
 62
    7
 10
2322.0745
 20
2627.2544
 11
2322.0745
 21
2610.5877
 12
2372.0745
 22
2618.9211
 13
2372.0745
 23
2618.9211
  0
LINE
  8
_1-5_SUNPO
  6
CONTINUOUS
 62
    7
 10
2022.0745
 20
2504.3025
 11
2022.0745
 21
2628.9211
  0
LINE
  8
_1-5_SUNPO
  6
CONTINUOUS
 62
    7
 10
2122.0745
 20
2504.3025
 11
2122.0745
 21
2628.9211
  0
LINE
  8
_1-5_SUNPO
  6
CONTINUOUS
 62
    7
 10
1972.0745
 20
2618.9211
 11
1922.0745
 21
2618.9211
  0
LINE
  8
_1-5_SUNPO
  6
CONTINUOUS
 62
    7
 10
2172.0745
 20
2618.9211
 11
2222.0745
 21
2618.9211
  0
LINE
  8
_1-5_SUNPO
  6
CONTINUOUS
 62
    7
 10
2022.0745
 20
2618.9211
 11
2122.0745
 21
2618.9211
  0
SOLID
  8
_1-5_SUNPO
  6
CONTINUOUS
 62
    7
 10
1972.0745
 20
2627.2544
 11
1972.0745
 21
2610.5877
 12
2022.0745
 22
2618.9211
 13
2022.0745
 23
2618.9211
  0
SOLID
  8
_1-5_SUNPO
  6
CONTINUOUS
 62
    7
 10
2172.0745
 20
2627.2544
 11
2172.0745
 21
2610.5877
 12
2122.0745
 22
2618.9211
 13
2122.0745
 23
2618.9211
  0
LINE
  8
_1-4_MOJI
  6
CONTINUOUS
 62
    7
 10
2369.8386
 20
2520.3714
 11
2170.5886
 21
2478.6491
  0
LINE
  8
_1-4_MOJI
  6
CONTINUOUS
 62
    7
 10
2102.0745
 20
2464.3025
 11
2121.65
 21
2468.4015
  0
SOLID
  8
_1-4_MOJI
  6
CONTINUOUS
 62
    7
 10
2168.8806
 20
2486.8056
 11
2172.2965
 21
2470.4927
 12
2121.65
 22
2468.4015
 13
2121.65
 23
2468.4015
  0
LINE
  8
_1-4_MOJI
  6
CONTINUOUS
 62
    7
 10
1987.2062
 20
2180.887
 11
2102.4476
 21
2348.6986
  0
LINE
  8
_1-4_MOJI
  6
CONTINUOUS
 62
    7
 10
2142.0745
 20
2406.4023
 11
2130.7526
 21
2389.9155
  0
SOLID
  8
_1-4_MOJI
  6
CONTINUOUS
 62
    7
 10
2095.5782
 20
2353.4161
 11
2109.3171
 21
2343.9811
 12
2130.7526
 22
2389.9155
 13
2130.7526
 23
2389.9155
  0
TEXT
  8
_1-5_SUNPO
 62
    7
 10
2496.3977
 20
356.15584
 40
100
 41
1
 50
0
  1
Ｃ250Ａ
  0
TEXT
  8
_1-5_SUNPO
 62
    7
 10
613.47016
 20
379.10655
 40
100
 41
1
 50
0
  1
道路用コンクリートＬ型側溝
  0
LINE
  8
_1-5_SUNPO
  6
CONTINUOUS
 62
    7
 10
2002.0745
 20
2384.3025
 11
1837.7062
 21
2384.3025
  0
LINE
  8
_1-5_SUNPO
  6
CONTINUOUS
 62
    7
 10
2002.0745
 20
2484.3025
 11
1837.7062
 21
2484.3025
  0
LINE
  8
_1-5_SUNPO
  6
CONTINUOUS
 62
    7
 10
1847.7062
 20
2334.3025
 11
1847.7062
 21
2284.3025
  0
LINE
  8
_1-5_SUNPO
  6
CONTINUOUS
 62
    7
 10
1847.7062
 20
2534.3025
 11
1847.7062
 21
2584.3025
  0
LINE
  8
_1-5_SUNPO
  6
CONTINUOUS
 62
    7
 10
1847.7062
 20
2384.3025
 11
1847.7062
 21
2484.3025
  0
SOLID
  8
_1-5_SUNPO
  6
CONTINUOUS
 62
    7
 10
1839.3729
 20
2334.3025
 11
1856.0395
 21
2334.3025
 12
1847.7062
 22
2384.3025
 13
1847.7062
 23
2384.3025
  0
SOLID
  8
_1-5_SUNPO
  6
CONTINUOUS
 62
    7
 10
1839.3729
 20
2534.3025
 11
1856.0395
 21
2534.3025
 12
1847.7062
 22
2484.3025
 13
1847.7062
 23
2484.3025
  0
LINE
  8
_1-5_SUNPO
  6
CONTINUOUS
 62
    7
 10
2002.0745
 20
2309.3025
 11
1837.7062
 21
2309.3025
  0
LINE
  8
_1-5_SUNPO
  6
CONTINUOUS
 62
    7
 10
2002.0745
 20
2384.3025
 11
1837.7062
 21
2384.3025
  0
LINE
  8
_1-5_SUNPO
  6
CONTINUOUS
 62
    7
 10
1847.7062
 20
2259.3025
 11
1847.7062
 21
2209.3025
  0
LINE
  8
_1-5_SUNPO
  6
CONTINUOUS
 62
    7
 10
1847.7062
 20
2434.3025
 11
1847.7062
 21
2484.3025
  0
LINE
  8
_1-5_SUNPO
  6
CONTINUOUS
 62
    7
 10
1847.7062
 20
2309.3025
 11
1847.7062
 21
2384.3025
  0
SOLID
  8
_1-5_SUNPO
  6
CONTINUOUS
 62
    7
 10
1839.3729
 20
2259.3025
 11
1856.0395
 21
2259.3025
 12
1847.7062
 22
2309.3025
 13
1847.7062
 23
2309.3025
  0
SOLID
  8
_1-5_SUNPO
  6
CONTINUOUS
 62
    7
 10
1839.3729
 20
2434.3025
 11
1856.0395
 21
2434.3025
 12
1847.7062
 22
2384.3025
 13
1847.7062
 23
2384.3025
  0
LINE
  8
_1-5_SUNPO
  6
CONTINUOUS
 62
    7
 10
2002.0745
 20
2309.3025
 11
1688.4497
 21
2309.3025
  0
LINE
  8
_1-5_SUNPO
  6
CONTINUOUS
 62
    7
 10
2002.0745
 20
2484.3025
 11
1688.4497
 21
2484.3025
  0
LINE
  8
_1-5_SUNPO
  6
CONTINUOUS
 62
    7
 10
1698.4497
 20
2359.3025
 11
1698.4497
 21
2434.3025
  0
SOLID
  8
_1-5_SUNPO
  6
CONTINUOUS
 62
    7
 10
1690.1164
 20
2359.3025
 11
1706.7831
 21
2359.3025
 12
1698.4497
 22
2309.3025
 13
1698.4497
 23
2309.3025
  0
SOLID
  8
_1-5_SUNPO
  6
CONTINUOUS
 62
    7
 10
1690.1164
 20
2434.3025
 11
1706.7831
 21
2434.3025
 12
1698.4497
 22
2484.3025
 13
1698.4497
 23
2484.3025
  0
LINE
  8
_1-5_SUNPO
  6
CONTINUOUS
 62
    7
 10
2392.0745
 20
2309.3025
 11
2569.5447
 21
2309.3025
  0
LINE
  8
_1-5_SUNPO
  6
CONTINUOUS
 62
    7
 10
2392.0745
 20
2409.3025
 11
2569.5447
 21
2409.3025
  0
LINE
  8
_1-5_SUNPO
  6
CONTINUOUS
 62
    7
 10
2559.5447
 20
2259.3025
 11
2559.5447
 21
2209.3025
  0
LINE
  8
_1-5_SUNPO
  6
CONTINUOUS
 62
    7
 10
2559.5447
 20
2459.3025
 11
2559.5447
 21
2509.3025
  0
LINE
  8
_1-5_SUNPO
  6
CONTINUOUS
 62
    7
 10
2559.5447
 20
2309.3025
 11
2559.5447
 21
2409.3025
  0
SOLID
  8
_1-5_SUNPO
  6
CONTINUOUS
 62
    7
 10
2551.2113
 20
2259.3025
 11
2567.878
 21
2259.3025
 12
2559.5447
 22
2309.3025
 13
2559.5447
 23
2309.3025
  0
SOLID
  8
_1-5_SUNPO
  6
CONTINUOUS
 62
    7
 10
2551.2113
 20
2459.3025
 11
2567.878
 21
2459.3025
 12
2559.5447
 22
2409.3025
 13
2559.5447
 23
2409.3025
  0
LINE
  8
_1-5_SUNPO
  6
CONTINUOUS
 62
    7
 10
3547.9254
 20
2315.906
 11
3376.1958
 21
2315.906
  0
LINE
  8
_1-5_SUNPO
  6
CONTINUOUS
 62
    7
 10
3547.9254
 20
2490.906
 11
3376.1958
 21
2490.906
  0
LINE
  8
_1-5_SUNPO
  6
CONTINUOUS
 62
    7
 10
3386.1958
 20
2365.906
 11
3386.1958
 21
2440.906
  0
SOLID
  8
_1-5_SUNPO
  6
CONTINUOUS
 62
    7
 10
3377.8625
 20
2365.906
 11
3394.5291
 21
2365.906
 12
3386.1958
 22
2315.906
 13
3386.1958
 23
2315.906
  0
SOLID
  8
_1-5_SUNPO
  6
CONTINUOUS
 62
    7
 10
3377.8625
 20
2440.906
 11
3394.5291
 21
2440.906
 12
3386.1958
 22
2490.906
 13
3386.1958
 23
2490.906
  0
LINE
  8
_1-5_SUNPO
  6
CONTINUOUS
 62
    7
 10
3567.9254
 20
2510.906
 11
3567.9254
 21
2686.6364
  0
LINE
  8
_1-5_SUNPO
  6
CONTINUOUS
 62
    7
 10
4167.9254
 20
2510.906
 11
4167.9254
 21
2686.6364
  0
LINE
  8
_1-5_SUNPO
  6
CONTINUOUS
 62
    7
 10
3617.9254
 20
2676.6364
 11
4117.9254
 21
2676.6364
  0
SOLID
  8
_1-5_SUNPO
  6
CONTINUOUS
 62
    7
 10
3617.9254
 20
2684.9697
 11
3617.9254
 21
2668.303
 12
3567.9254
 22
2676.6364
 13
3567.9254
 23
2676.6364
  0
SOLID
  8
_1-5_SUNPO
  6
CONTINUOUS
 62
    7
 10
4117.9254
 20
2684.9697
 11
4117.9254
 21
2668.303
 12
4167.9254
 22
2676.6364
 13
4167.9254
 23
2676.6364
  0
TEXT
  8
_1-5_SUNPO
 62
    7
 10
3246.6802
 20
359.22744
 40
70
 41
1
 50
0
  1
１／２０
  0
TEXT
  8
_1-5_SUNPO
 62
    7
 10
381.88621
 20
488.69186
 40
50
 41
1
 50
0
  1
製品名
  0
TEXT
  8
_1-5_SUNPO
 62
    7
 10
2376.2901
 20
494.45314
 40
50
 41
1
 50
0
  1
型式
  0
TEXT
  8
_1-5_SUNPO
 62
    7
 10
3177.5102
 20
488.69186
 40
50
 41
1
 50
0
  1
縮尺
  0
TEXT
  8
_1-5_SUNPO
 62
    7
 10
3730.8708
 20
352.27258
 40
100
 41
1
 50
0
  1
千葉県コンクリート製品協同組合
  0
LINE
  8
_1-2_HOJO
  6
CONTINUOUS
 62
    5
 10
359.99995
 20
259.99997
 11
5579.9999
 21
259.99997
  0
LINE
  8
_1-2_HOJO
  6
CONTINUOUS
 62
    5
 10
5579.9999
 20
259.99997
 11
5579.9999
 21
3939.9999
  0
LINE
  8
_1-2_HOJO
  6
CONTINUOUS
 62
    5
 10
5579.9999
 20
3939.9999
 11
359.99995
 21
3939.9999
  0
LINE
  8
_1-2_HOJO
  6
CONTINUOUS
 62
    5
 10
359.99995
 20
3939.9999
 11
359.99995
 21
259.99997
  0
LINE
  8
_1-2_HOJO
  6
CONTINUOUS
 62
    5
 10
-0.0000414
 20
-0.0000293
 11
5939.9999
 21
-0.0000293
  0
LINE
  8
_1-2_HOJO
  6
CONTINUOUS
 62
    5
 10
5939.9999
 20
-0.0000293
 11
5939.9999
 21
4199.9999
  0
LINE
  8
_1-2_HOJO
  6
CONTINUOUS
 62
    5
 10
5939.9999
 20
4199.9999
 11
-0.0000414
 21
4199.9999
  0
LINE
  8
_1-2_HOJO
  6
CONTINUOUS
 62
    5
 10
-0.0000414
 20
4199.9999
 11
-0.0000414
 21
-0.0000293
  0
TEXT
  8
_1-5_SUNPO
 62
    7
 10
2165.36
 20
2762.5334
 40
50
 41
1
 50
0
  1
350
  0
TEXT
  8
_1-5_SUNPO
 62
    7
 10
2207.5418
 20
2628.9578
 40
50
 41
1
 50
0
  1
250
  0
TEXT
  8
_1-5_SUNPO
 62
    7
 10
2023.3481
 20
2628.9578
 40
50
 41
1
 50
0
  1
100
  0
TEXT
  8
_1-5_SUNPO
 62
    7
 10
2250.6099
 20
2499.48
 40
50
 41
1
 50
11.826654
  1
R20
  0
TEXT
  8
_1-5_SUNPO
 62
    7
 10
1986.6271
 20
2179.7542
 40
50
 41
1
 50
55.521403
  1
R20
  0
TEXT
  8
_1-5_SUNPO
 62
    7
 10
1839.3729
 20
2392.5525
 40
50
 41
1
 50
90
  1
100
  0
TEXT
  8
_1-5_SUNPO
 62
    7
 10
1839.3729
 20
2307.1775
 40
50
 41
1
 50
90
  1
75
  0
TEXT
  8
_1-5_SUNPO
 62
    7
 10
1689.6802
 20
2348.1777
 40
50
 41
1
 50
90
  1
175
  0
TEXT
  8
_1-5_SUNPO
 62
    7
 10
2551.5945
 20
2314.4323
 40
50
 41
1
 50
90
  1
100
  0
TEXT
  8
_1-5_SUNPO
 62
    7
 10
3840.4842
 20
2683.7027
 40
50
 41
1
 50
0
  1
600
  0
TEXT
  8
_1-5_SUNPO
 62
    7
 10
3374.65
 20
2356.5563
 40
50
 41
1
 50
90
  1
175
  0
ENDSEC
  0
EOF
