  0
SECTION
  2
HEADER
  9
$ACADVER
  1
AC1009
  9
$INSBASE
 10
0
 20
0
 30
0
  9
$EXTMIN
 10
0
 20
0
  9
$EXTMAX
 10
5940
 20
4200
  9
$LIMMIN
 10
0
 20
0
  9
$LIMMAX
 10
5940
 20
4200
  9
$LTSCALE
 40
20
  0
ENDSEC
  0
SECTION
  2
TABLES
  0
TABLE
  2
LTYPE
 70
     9
  0
LTYPE
  2
CONTINUOUS
 70
    64
  3
実線
 72
    65
 73
     0
 40
0.0
  0
LTYPE
  2
DASHED1
 70
    64
  3
--  --  --  --  --  --  --  --  
 72
    65
 73
     2
 40
2.5
 49
1.25
 49
-1.25
  0
LTYPE
  2
DASHED2
 70
    64
  3
----    ----    ----    ----    
 72
    65
 73
     2
 40
5.0
 49
2.5
 49
-2.5
  0
LTYPE
  2
DASHED3
 70
    64
  3
------  ------  ------  ------  
 72
    65
 73
     2
 40
5.0
 49
3.75
 49
-1.25
  0
LTYPE
  2
CENTER1
 70
    64
  3
----- - ----- - ----- - ----- - 
 72
    65
 73
     4
 40
10.0
 49
6.25
 49
-1.25
 49
1.25
 49
-1.25
  0
LTYPE
  2
CENTER2
 70
    64
  3
----------  --  ----------  --  
 72
    65
 73
     4
 40
20.0
 49
12.5
 49
-2.5
 49
2.5
 49
-2.5
  0
LTYPE
  2
PHANTOM1
 70
    64
  3
--- - - --- - - --- - - --- - - 
 72
    65
 73
     6
 40
10.0
 49
3.25
 49
-1.25
 49
1.25
 49
-1.25
 49
1.25
 49
-1.25
  0
LTYPE
  2
PHANTOM2
 70
    64
  3
--------  -  -  --------  -  -  
 72
    65
 73
     6
 40
20.0
 49
10.0
 49
-2.5
 49
1.25
 49
-2.5
 49
1.25
 49
-2.5
  0
LTYPE
  2
DOT
 70
    64
  3
-   -   -   -   -   -   -   -   
 72
    65
 73
     2
 40
2.5
 49
0.625
 49
-1.875
  0
LTYPE
  2
DUMMY
 70
    64
  3
ダミー
 72
    65
 73
     0
 40
0.0
  0
LTYPE
  2
RAND1
 70
    64
  3
----- - ----- - ----- - ----- - 
 72
    65
 73
     4
 40
10.0
 49
6.25
 49
-1.25
 49
1.25
 49
-1.25
  0
LTYPE
  2
RAND2
 70
    64
  3
----------  --  ----------  --  
 72
    65
 73
     4
 40
20.0
 49
12.5
 49
-2.5
 49
2.5
 49
-2.5
  0
LTYPE
  2
RAND3
 70
    64
  3
--- - - --- - - --- - - --- - - 
 72
    65
 73
     6
 40
10.0
 49
3.25
 49
-1.25
 49
1.25
 49
-1.25
 49
1.25
 49
-1.25
  0
LTYPE
  2
RAND4
 70
    64
  3
--------  -  -  --------  -  -  
 72
    65
 73
     6
 40
20.0
 49
10.0
 49
-2.5
 49
1.25
 49
-2.5
 49
1.25
 49
-2.5
  0
LTYPE
  2
RAND5
 70
    64
  3
----- - ----- - ----- - ----- - 
 72
    65
 73
     4
 40
10.0
 49
6.25
 49
-1.25
 49
1.25
 49
-1.25
  0
LTYPE
  2
LONG1
 70
    64
  3
----------  --  ----------  --  
 72
    65
 73
     4
 40
20.0
 49
12.5
 49
-2.5
 49
2.5
 49
-2.5
  0
LTYPE
  2
LONG2
 70
    64
  3
--- - - --- - - --- - - --- - - 
 72
    65
 73
     6
 40
10.0
 49
3.25
 49
-1.25
 49
1.25
 49
-1.25
 49
1.25
 49
-1.25
  0
LTYPE
  2
LONG3
 70
    64
  3
--------  -  -  --------  -  -  
 72
    65
 73
     6
 40
20.0
 49
10.0
 49
-2.5
 49
1.25
 49
-2.5
 49
1.25
 49
-2.5
  0
LTYPE
  2
LONG4
 70
    64
  3
----- - ----- - ----- - ----- - 
 72
    65
 73
     4
 40
10.0
 49
6.25
 49
-1.25
 49
1.25
 49
-1.25
  0
LTYPE
  2
LONG5
 70
    64
  3
----------  --  ----------  --  
 72
    65
 73
     4
 40
20.0
 49
12.5
 49
-2.5
 49
2.5
 49
-2.5
  0
ENDTAB
  0
TABLE
  2
STYLE
  5
3
100
AcDbSymbolTable
 70
     1
  0
STYLE
  5
10
100
AcDbSymbolTableRecord
100
AcDbTextStyleTableRecord
  2
STANDARD
 70
     0
 40
0.0
 41
1.0
 50
0.0
 71
     0
 42
0.2
  3
txt
  4
bigfont.shx
  0
ENDTAB
  0
TABLE
  2
LAYER
 70
    5
  0
LAYER
  2
_0-2_DEFPOINTS
 70
   64
 62
    7
  6
CONTINUOUS
  0
LAYER
  2
_0-a_3C1
 70
   64
 62
    7
  6
CONTINUOUS
  0
LAYER
  2
_1-2_HOJO
 70
   64
 62
    7
  6
CONTINUOUS
  0
LAYER
  2
_1-5_SUNPO
 70
   64
 62
    7
  6
CONTINUOUS
  0
LAYER
  2
ADD_LINE
 70
   64
 62
    7
  6
CONTINUOUS
  0
ENDTAB
  0
ENDSEC
  0
SECTION
  2
BLOCKS
  0
BLOCK
  2
-000-_MODEL_SPACE
 70
   64
 10
0
 20
0
 30
0
  0
ENDBLK
  0
BLOCK
  2
-001-_PAPER_SPACE
 70
   64
 10
0
 20
0
 30
0
  0
ENDBLK
  0
BLOCK
  2
-002-_DOT
 70
   64
 10
0
 20
0
 30
0
  0
CIRCLE
  8
_0-0_0
  6
CONTINUOUS
 62
    7
 10
0
 20
0
 40
0.25
  0
CIRCLE
  8
_0-0_0
  6
CONTINUOUS
 62
    7
 10
0
 20
-0
 40
0.25
  0
LINE
  8
_0-0_0
  6
CONTINUOUS
 62
    7
 10
-0.5
 20
0
 11
-1
 21
0
  0
ENDBLK
  0
BLOCK
  2
-003-A4
 70
   64
 10
0
 20
0
 30
0
  0
LINE
  8
_1-2_HOJO
  6
CONTINUOUS
 62
    5
 10
0
 20
0
 11
297
 21
0
  0
LINE
  8
_1-2_HOJO
  6
CONTINUOUS
 62
    5
 10
297
 20
0
 11
297
 21
210
  0
LINE
  8
_1-2_HOJO
  6
CONTINUOUS
 62
    5
 10
297
 20
210
 11
0
 21
210
  0
LINE
  8
_1-2_HOJO
  6
CONTINUOUS
 62
    5
 10
0
 20
210
 11
0
 21
0
  0
LINE
  8
_1-2_HOJO
  6
CONTINUOUS
 62
    5
 10
18
 20
13
 11
279
 21
13
  0
LINE
  8
_1-2_HOJO
  6
CONTINUOUS
 62
    5
 10
279
 20
13
 11
279
 21
197
  0
LINE
  8
_1-2_HOJO
  6
CONTINUOUS
 62
    5
 10
279
 20
197
 11
18
 21
197
  0
LINE
  8
_1-2_HOJO
  6
CONTINUOUS
 62
    5
 10
18
 20
197
 11
18
 21
13
  0
ENDBLK
  0
BLOCK
  2
-004-_D2
 70
   64
 10
0
 20
0
 30
0
  0
LINE
  8
_1-5_SUNPO
  6
CONTINUOUS
 62
    7
 10
1908.6815
 20
2315.9061
 11
1550.6746
 21
2315.9061
  0
LINE
  8
_1-5_SUNPO
  6
CONTINUOUS
 62
    7
 10
1908.6815
 20
2490.9061
 11
1550.6746
 21
2490.9061
  0
LINE
  8
_1-5_SUNPO
  6
CONTINUOUS
 62
    7
 10
1560.6746
 20
2365.9061
 11
1560.6746
 21
2440.9061
  0
SOLID
  8
_1-5_SUNPO
  6
CONTINUOUS
 62
    7
 10
1552.3413
 20
2365.9061
 11
1569.0079
 21
2365.9061
 12
1560.6746
 22
2315.9061
 13
1560.6746
 23
2315.9061
  0
SOLID
  8
_1-5_SUNPO
  6
CONTINUOUS
 62
    7
 10
1552.3413
 20
2440.9061
 11
1569.0079
 21
2440.9061
 12
1560.6746
 22
2490.9061
 13
1560.6746
 23
2490.9061
  0
TEXT
  8
_1-5_SUNPO
 62
    7
 10
1548.1746
 20
2361.6561
 40
50
 41
1
 50
90
  1
175
  0
CIRCLE
  8
_0-2_DEFPOINTS
 62
    7
 10
1928.6815
 20
2315.9061
 40
8
  0
CIRCLE
  8
_0-2_DEFPOINTS
 62
    7
 10
1928.6815
 20
2490.9061
 40
8
  0
CIRCLE
  8
_0-2_DEFPOINTS
 62
    7
 10
1560.6746
 20
2490.9061
 40
8
  0
ENDBLK
  0
BLOCK
  2
-005-_D7
 70
   64
 10
0
 20
0
 30
0
  0
LINE
  8
_1-5_SUNPO
  6
CONTINUOUS
 62
    7
 10
2398.6815
 20
2315.9061
 11
2544.7546
 21
2315.9061
  0
LINE
  8
_1-5_SUNPO
  6
CONTINUOUS
 62
    7
 10
2398.6815
 20
2415.9061
 11
2544.7546
 21
2415.9061
  0
LINE
  8
_1-5_SUNPO
  6
CONTINUOUS
 62
    7
 10
2534.7546
 20
2265.9061
 11
2534.7546
 21
2215.9061
  0
LINE
  8
_1-5_SUNPO
  6
CONTINUOUS
 62
    7
 10
2534.7546
 20
2465.9061
 11
2534.7546
 21
2515.9061
  0
LINE
  8
_1-5_SUNPO
  6
CONTINUOUS
 62
    7
 10
2534.7546
 20
2315.9061
 11
2534.7546
 21
2415.9061
  0
SOLID
  8
_1-5_SUNPO
  6
CONTINUOUS
 62
    7
 10
2526.4213
 20
2265.9061
 11
2543.088
 21
2265.9061
 12
2534.7546
 22
2315.9061
 13
2534.7546
 23
2315.9061
  0
SOLID
  8
_1-5_SUNPO
  6
CONTINUOUS
 62
    7
 10
2526.4213
 20
2465.9061
 11
2543.088
 21
2465.9061
 12
2534.7546
 22
2415.9061
 13
2534.7546
 23
2415.9061
  0
TEXT
  8
_1-5_SUNPO
 62
    7
 10
2522.2546
 20
2324.1561
 40
50
 41
1
 50
90
  1
100
  0
CIRCLE
  8
_0-2_DEFPOINTS
 62
    7
 10
2378.6815
 20
2315.9061
 40
8
  0
CIRCLE
  8
_0-2_DEFPOINTS
 62
    7
 10
2378.6815
 20
2415.9061
 40
8
  0
CIRCLE
  8
_0-2_DEFPOINTS
 62
    7
 10
2534.7546
 20
2415.9061
 40
8
  0
ENDBLK
  0
BLOCK
  2
-006-_D8
 70
   64
 10
0
 20
0
 30
0
  0
LINE
  8
_1-5_SUNPO
  6
CONTINUOUS
 62
    7
 10
2398.6815
 20
2315.9061
 11
2700.8428
 21
2315.9061
  0
LINE
  8
_1-5_SUNPO
  6
CONTINUOUS
 62
    7
 10
2398.6815
 20
2420.9061
 11
2700.8428
 21
2420.9061
  0
LINE
  8
_1-5_SUNPO
  6
CONTINUOUS
 62
    7
 10
2690.8428
 20
2265.9061
 11
2690.8428
 21
2215.9061
  0
LINE
  8
_1-5_SUNPO
  6
CONTINUOUS
 62
    7
 10
2690.8428
 20
2470.9061
 11
2690.8428
 21
2520.9061
  0
LINE
  8
_1-5_SUNPO
  6
CONTINUOUS
 62
    7
 10
2690.8428
 20
2315.9061
 11
2690.8428
 21
2420.9061
  0
SOLID
  8
_1-5_SUNPO
  6
CONTINUOUS
 62
    7
 10
2682.5095
 20
2265.9061
 11
2699.1761
 21
2265.9061
 12
2690.8428
 22
2315.9061
 13
2690.8428
 23
2315.9061
  0
SOLID
  8
_1-5_SUNPO
  6
CONTINUOUS
 62
    7
 10
2682.5095
 20
2470.9061
 11
2699.1761
 21
2470.9061
 12
2690.8428
 22
2420.9061
 13
2690.8428
 23
2420.9061
  0
TEXT
  8
_1-5_SUNPO
 62
    7
 10
2678.3428
 20
2326.6561
 40
50
 41
1
 50
90
  1
105
  0
CIRCLE
  8
_0-2_DEFPOINTS
 62
    7
 10
2378.6815
 20
2315.9061
 40
8
  0
CIRCLE
  8
_0-2_DEFPOINTS
 62
    7
 10
2378.6815
 20
2420.9061
 40
8
  0
CIRCLE
  8
_0-2_DEFPOINTS
 62
    7
 10
2690.8428
 20
2420.9061
 40
8
  0
ENDBLK
  0
BLOCK
  2
-007-_D9
 70
   64
 10
0
 20
0
 30
0
  0
LINE
  8
_1-5_SUNPO
  6
CONTINUOUS
 62
    7
 10
1908.6815
 20
2315.9061
 11
1734.3748
 21
2315.9061
  0
LINE
  8
_1-5_SUNPO
  6
CONTINUOUS
 62
    7
 10
1908.6815
 20
2390.9061
 11
1734.3748
 21
2390.9061
  0
LINE
  8
_1-5_SUNPO
  6
CONTINUOUS
 62
    7
 10
1744.3748
 20
2265.9061
 11
1744.3748
 21
2215.9061
  0
LINE
  8
_1-5_SUNPO
  6
CONTINUOUS
 62
    7
 10
1744.3748
 20
2440.9061
 11
1744.3748
 21
2490.9061
  0
LINE
  8
_1-5_SUNPO
  6
CONTINUOUS
 62
    7
 10
1744.3748
 20
2315.9061
 11
1744.3748
 21
2390.9061
  0
SOLID
  8
_1-5_SUNPO
  6
CONTINUOUS
 62
    7
 10
1736.0415
 20
2265.9061
 11
1752.7082
 21
2265.9061
 12
1744.3748
 22
2315.9061
 13
1744.3748
 23
2315.9061
  0
SOLID
  8
_1-5_SUNPO
  6
CONTINUOUS
 62
    7
 10
1736.0415
 20
2440.9061
 11
1752.7082
 21
2440.9061
 12
1744.3748
 22
2390.9061
 13
1744.3748
 23
2390.9061
  0
TEXT
  8
_1-5_SUNPO
 62
    7
 10
1731.8748
 20
2326.2811
 40
50
 41
1
 50
90
  1
75
  0
CIRCLE
  8
_0-2_DEFPOINTS
 62
    7
 10
1928.6815
 20
2315.9061
 40
8
  0
CIRCLE
  8
_0-2_DEFPOINTS
 62
    7
 10
1928.6815
 20
2390.9061
 40
8
  0
CIRCLE
  8
_0-2_DEFPOINTS
 62
    7
 10
1744.3748
 20
2390.9061
 40
8
  0
ENDBLK
  0
BLOCK
  2
-008-_D10
 70
   64
 10
0
 20
0
 30
0
  0
LINE
  8
_1-5_SUNPO
  6
CONTINUOUS
 62
    7
 10
1908.6815
 20
2390.9061
 11
1734.3748
 21
2390.9061
  0
LINE
  8
_1-5_SUNPO
  6
CONTINUOUS
 62
    7
 10
1908.6815
 20
2490.9061
 11
1734.3748
 21
2490.9061
  0
LINE
  8
_1-5_SUNPO
  6
CONTINUOUS
 62
    7
 10
1744.3748
 20
2340.9061
 11
1744.3748
 21
2290.9061
  0
LINE
  8
_1-5_SUNPO
  6
CONTINUOUS
 62
    7
 10
1744.3748
 20
2540.9061
 11
1744.3748
 21
2590.9061
  0
LINE
  8
_1-5_SUNPO
  6
CONTINUOUS
 62
    7
 10
1744.3748
 20
2390.9061
 11
1744.3748
 21
2490.9061
  0
SOLID
  8
_1-5_SUNPO
  6
CONTINUOUS
 62
    7
 10
1736.0415
 20
2340.9061
 11
1752.7082
 21
2340.9061
 12
1744.3748
 22
2390.9061
 13
1744.3748
 23
2390.9061
  0
SOLID
  8
_1-5_SUNPO
  6
CONTINUOUS
 62
    7
 10
1736.0415
 20
2540.9061
 11
1752.7082
 21
2540.9061
 12
1744.3748
 22
2490.9061
 13
1744.3748
 23
2490.9061
  0
TEXT
  8
_1-5_SUNPO
 62
    7
 10
1731.8748
 20
2399.1561
 40
50
 41
1
 50
90
  1
100
  0
CIRCLE
  8
_0-2_DEFPOINTS
 62
    7
 10
1928.6815
 20
2390.9061
 40
8
  0
CIRCLE
  8
_0-2_DEFPOINTS
 62
    7
 10
1928.6815
 20
2490.9061
 40
8
  0
CIRCLE
  8
_0-2_DEFPOINTS
 62
    7
 10
1744.3748
 20
2490.9061
 40
8
  0
ENDBLK
  0
BLOCK
  2
-009-_D11
 70
   64
 10
0
 20
0
 30
0
  0
LINE
  8
_1-5_SUNPO
  6
CONTINUOUS
 62
    7
 10
3547.9254
 20
2315.9061
 11
3376.1959
 21
2315.9061
  0
LINE
  8
_1-5_SUNPO
  6
CONTINUOUS
 62
    7
 10
3547.9254
 20
2490.9061
 11
3376.1959
 21
2490.9061
  0
LINE
  8
_1-5_SUNPO
  6
CONTINUOUS
 62
    7
 10
3386.1959
 20
2365.9061
 11
3386.1959
 21
2440.9061
  0
SOLID
  8
_1-5_SUNPO
  6
CONTINUOUS
 62
    7
 10
3377.8625
 20
2365.9061
 11
3394.5292
 21
2365.9061
 12
3386.1959
 22
2315.9061
 13
3386.1959
 23
2315.9061
  0
SOLID
  8
_1-5_SUNPO
  6
CONTINUOUS
 62
    7
 10
3377.8625
 20
2440.9061
 11
3394.5292
 21
2440.9061
 12
3386.1959
 22
2490.9061
 13
3386.1959
 23
2490.9061
  0
TEXT
  8
_1-5_SUNPO
 62
    7
 10
3373.6959
 20
2361.6561
 40
50
 41
1
 50
90
  1
175
  0
CIRCLE
  8
_0-2_DEFPOINTS
 62
    7
 10
3567.9254
 20
2315.9061
 40
8
  0
CIRCLE
  8
_0-2_DEFPOINTS
 62
    7
 10
3567.9254
 20
2490.9061
 40
8
  0
CIRCLE
  8
_0-2_DEFPOINTS
 62
    7
 10
3386.1959
 20
2490.9061
 40
8
  0
ENDBLK
  0
BLOCK
  2
-010-_D12
 70
   64
 10
0
 20
0
 30
0
  0
LINE
  8
_1-5_SUNPO
  6
CONTINUOUS
 62
    7
 10
3567.9254
 20
2510.9061
 11
3567.9254
 21
2692.3741
  0
LINE
  8
_1-5_SUNPO
  6
CONTINUOUS
 62
    7
 10
4167.9254
 20
2510.9061
 11
4167.9254
 21
2692.3741
  0
LINE
  8
_1-5_SUNPO
  6
CONTINUOUS
 62
    7
 10
3617.9254
 20
2682.3741
 11
4117.9254
 21
2682.3741
  0
SOLID
  8
_1-5_SUNPO
  6
CONTINUOUS
 62
    7
 10
3617.9254
 20
2690.7074
 11
3617.9254
 21
2674.0407
 12
3567.9254
 22
2682.3741
 13
3567.9254
 23
2682.3741
  0
SOLID
  8
_1-5_SUNPO
  6
CONTINUOUS
 62
    7
 10
4117.9254
 20
2690.7074
 11
4117.9254
 21
2674.0407
 12
4167.9254
 22
2682.3741
 13
4167.9254
 23
2682.3741
  0
TEXT
  8
_1-5_SUNPO
 62
    7
 10
3826.1754
 20
2694.8741
 40
50
 41
1
 50
0
  1
600
  0
CIRCLE
  8
_0-2_DEFPOINTS
 62
    7
 10
3567.9254
 20
2490.9061
 40
8
  0
CIRCLE
  8
_0-2_DEFPOINTS
 62
    7
 10
4167.9254
 20
2490.9061
 40
8
  0
CIRCLE
  8
_0-2_DEFPOINTS
 62
    7
 10
4167.9254
 20
2682.3741
 40
8
  0
ENDBLK
  0
BLOCK
  2
-011-_D13
 70
   64
 10
0
 20
0
 30
0
  0
LINE
  8
_1-5_SUNPO
  6
CONTINUOUS
 62
    7
 10
1887.7341
 20
2191.7881
 11
2007.4991
 21
2356.4018
  0
TEXT
  8
_1-5_SUNPO
 62
    7
 10
1898.2384
 20
2227.473
 40
50
 41
1
 50
53.962153
  1
R20
  0
LINE
  8
_1-5_SUNPO
  6
CONTINUOUS
 62
    7
 10
2048.6815
 20
2413.0058
 11
2036.9151
 21
2396.8332
  0
SOLID
  8
_1-5_SUNPO
  6
CONTINUOUS
 62
    7
 10
2000.7605
 20
2361.3045
 11
2014.2377
 21
2351.4991
 12
2036.9151
 22
2396.8332
 13
2036.9151
 23
2396.8332
  0
CIRCLE
  8
_0-2_DEFPOINTS
 62
    7
 10
2036.9151
 20
2396.8332
 40
8
  0
CIRCLE
  8
_0-2_DEFPOINTS
 62
    7
 10
2048.6815
 20
2413.0058
 40
8
  0
ENDBLK
  0
BLOCK
  2
-012-_D17
 70
   64
 10
0
 20
0
 30
0
  0
LINE
  8
_1-5_SUNPO
  6
CONTINUOUS
 62
    7
 10
2265.3821
 20
2565.4899
 11
2074.3647
 21
2495.1077
  0
TEXT
  8
_1-5_SUNPO
 62
    7
 10
2149.8346
 20
2536.2368
 40
50
 41
1
 50
20.226798
  1
R20
  0
LINE
  8
_1-5_SUNPO
  6
CONTINUOUS
 62
    7
 10
2008.6815
 20
2470.9061
 11
2027.4481
 21
2477.8208
  0
SOLID
  8
_1-5_SUNPO
  6
CONTINUOUS
 62
    7
 10
2071.4835
 20
2502.9271
 11
2077.2458
 21
2487.2882
 12
2027.4481
 22
2477.8208
 13
2027.4481
 23
2477.8208
  0
CIRCLE
  8
_0-2_DEFPOINTS
 62
    7
 10
2027.4481
 20
2477.8208
 40
8
  0
CIRCLE
  8
_0-2_DEFPOINTS
 62
    7
 10
2008.6815
 20
2470.9061
 40
8
  0
ENDBLK
  0
BLOCK
  2
-013-_D18
 70
   64
 10
0
 20
0
 30
0
  0
LINE
  8
_1-5_SUNPO
  6
CONTINUOUS
 62
    7
 10
1928.6815
 20
2510.9061
 11
1928.6815
 21
2656.2904
  0
LINE
  8
_1-5_SUNPO
  6
CONTINUOUS
 62
    7
 10
2028.6815
 20
2510.9061
 11
2028.6815
 21
2656.2904
  0
LINE
  8
_1-5_SUNPO
  6
CONTINUOUS
 62
    7
 10
1878.6815
 20
2646.2904
 11
1828.6815
 21
2646.2904
  0
LINE
  8
_1-5_SUNPO
  6
CONTINUOUS
 62
    7
 10
2078.6815
 20
2646.2904
 11
2128.6815
 21
2646.2904
  0
LINE
  8
_1-5_SUNPO
  6
CONTINUOUS
 62
    7
 10
1928.6815
 20
2646.2904
 11
2028.6815
 21
2646.2904
  0
SOLID
  8
_1-5_SUNPO
  6
CONTINUOUS
 62
    7
 10
1878.6815
 20
2654.6237
 11
1878.6815
 21
2637.9571
 12
1928.6815
 22
2646.2904
 13
1928.6815
 23
2646.2904
  0
SOLID
  8
_1-5_SUNPO
  6
CONTINUOUS
 62
    7
 10
2078.6815
 20
2654.6237
 11
2078.6815
 21
2637.9571
 12
2028.6815
 22
2646.2904
 13
2028.6815
 23
2646.2904
  0
TEXT
  8
_1-5_SUNPO
 62
    7
 10
1936.9315
 20
2658.7904
 40
50
 41
1
 50
0
  1
100
  0
CIRCLE
  8
_0-2_DEFPOINTS
 62
    7
 10
1928.6815
 20
2490.9061
 40
8
  0
CIRCLE
  8
_0-2_DEFPOINTS
 62
    7
 10
2028.6815
 20
2490.9061
 40
8
  0
CIRCLE
  8
_0-2_DEFPOINTS
 62
    7
 10
2028.6815
 20
2646.2904
 40
8
  0
ENDBLK
  0
BLOCK
  2
-014-_D19
 70
   64
 10
0
 20
0
 30
0
  0
LINE
  8
_1-5_SUNPO
  6
CONTINUOUS
 62
    7
 10
2028.6815
 20
2510.9061
 11
2028.6815
 21
2656.2904
  0
LINE
  8
_1-5_SUNPO
  6
CONTINUOUS
 62
    7
 10
2278.6815
 20
2435.9061
 11
2278.6815
 21
2656.2904
  0
LINE
  8
_1-5_SUNPO
  6
CONTINUOUS
 62
    7
 10
2078.6815
 20
2646.2904
 11
2228.6815
 21
2646.2904
  0
SOLID
  8
_1-5_SUNPO
  6
CONTINUOUS
 62
    7
 10
2078.6815
 20
2654.6237
 11
2078.6815
 21
2637.9571
 12
2028.6815
 22
2646.2904
 13
2028.6815
 23
2646.2904
  0
SOLID
  8
_1-5_SUNPO
  6
CONTINUOUS
 62
    7
 10
2228.6815
 20
2654.6237
 11
2228.6815
 21
2637.9571
 12
2278.6815
 22
2646.2904
 13
2278.6815
 23
2646.2904
  0
TEXT
  8
_1-5_SUNPO
 62
    7
 10
2111.9315
 20
2658.7904
 40
50
 41
1
 50
0
  1
250
  0
CIRCLE
  8
_0-2_DEFPOINTS
 62
    7
 10
2028.6815
 20
2490.9061
 40
8
  0
CIRCLE
  8
_0-2_DEFPOINTS
 62
    7
 10
2278.6815
 20
2415.9061
 40
8
  0
CIRCLE
  8
_0-2_DEFPOINTS
 62
    7
 10
2278.6815
 20
2646.2904
 40
8
  0
ENDBLK
  0
BLOCK
  2
-015-_D20
 70
   64
 10
0
 20
0
 30
0
  0
LINE
  8
_1-5_SUNPO
  6
CONTINUOUS
 62
    7
 10
2278.6815
 20
2435.9061
 11
2278.6815
 21
2656.2904
  0
LINE
  8
_1-5_SUNPO
  6
CONTINUOUS
 62
    7
 10
2378.6815
 20
2440.9061
 11
2378.6815
 21
2656.2904
  0
LINE
  8
_1-5_SUNPO
  6
CONTINUOUS
 62
    7
 10
2228.6815
 20
2646.2904
 11
2178.6815
 21
2646.2904
  0
LINE
  8
_1-5_SUNPO
  6
CONTINUOUS
 62
    7
 10
2428.6815
 20
2646.2904
 11
2478.6815
 21
2646.2904
  0
LINE
  8
_1-5_SUNPO
  6
CONTINUOUS
 62
    7
 10
2278.6815
 20
2646.2904
 11
2378.6815
 21
2646.2904
  0
SOLID
  8
_1-5_SUNPO
  6
CONTINUOUS
 62
    7
 10
2228.6815
 20
2654.6237
 11
2228.6815
 21
2637.9571
 12
2278.6815
 22
2646.2904
 13
2278.6815
 23
2646.2904
  0
SOLID
  8
_1-5_SUNPO
  6
CONTINUOUS
 62
    7
 10
2428.6815
 20
2654.6237
 11
2428.6815
 21
2637.9571
 12
2378.6815
 22
2646.2904
 13
2378.6815
 23
2646.2904
  0
TEXT
  8
_1-5_SUNPO
 62
    7
 10
2286.9315
 20
2658.7904
 40
50
 41
1
 50
0
  1
100
  0
CIRCLE
  8
_0-2_DEFPOINTS
 62
    7
 10
2278.6815
 20
2415.9061
 40
8
  0
CIRCLE
  8
_0-2_DEFPOINTS
 62
    7
 10
2378.6815
 20
2420.9061
 40
8
  0
CIRCLE
  8
_0-2_DEFPOINTS
 62
    7
 10
2378.6815
 20
2646.2904
 40
8
  0
ENDBLK
  0
BLOCK
  2
-016-_D21
 70
   64
 10
0
 20
0
 30
0
  0
LINE
  8
_1-5_SUNPO
  6
CONTINUOUS
 62
    7
 10
1928.6815
 20
2510.9061
 11
1928.6815
 21
2791.2065
  0
LINE
  8
_1-5_SUNPO
  6
CONTINUOUS
 62
    7
 10
2378.6815
 20
2435.9061
 11
2378.6815
 21
2791.2065
  0
LINE
  8
_1-5_SUNPO
  6
CONTINUOUS
 62
    7
 10
1978.6815
 20
2781.2065
 11
2328.6815
 21
2781.2065
  0
SOLID
  8
_1-5_SUNPO
  6
CONTINUOUS
 62
    7
 10
1978.6815
 20
2789.5398
 11
1978.6815
 21
2772.8731
 12
1928.6815
 22
2781.2065
 13
1928.6815
 23
2781.2065
  0
SOLID
  8
_1-5_SUNPO
  6
CONTINUOUS
 62
    7
 10
2328.6815
 20
2789.5398
 11
2328.6815
 21
2772.8731
 12
2378.6815
 22
2781.2065
 13
2378.6815
 23
2781.2065
  0
TEXT
  8
_1-5_SUNPO
 62
    7
 10
2111.9315
 20
2793.7065
 40
50
 41
1
 50
0
  1
450
  0
CIRCLE
  8
_0-2_DEFPOINTS
 62
    7
 10
1928.6815
 20
2490.9061
 40
8
  0
CIRCLE
  8
_0-2_DEFPOINTS
 62
    7
 10
2378.6815
 20
2415.9061
 40
8
  0
CIRCLE
  8
_0-2_DEFPOINTS
 62
    7
 10
2378.6815
 20
2781.2065
 40
8
  0
ENDBLK
  0
ENDSEC
  0
SECTION
  2
ENTITIES
  0
LINE
  8
_1-2_HOJO
  6
CONTINUOUS
 62
    5
 10
359.99997
 20
259.99998
 11
5579.9999
 21
259.99998
  0
LINE
  8
_1-2_HOJO
  6
CONTINUOUS
 62
    5
 10
359.99997
 20
559.99998
 11
5579.9999
 21
559.99998
  0
LINE
  8
_1-2_HOJO
  6
CONTINUOUS
 62
    5
 10
359.99997
 20
259.99998
 11
359.99997
 21
559.99998
  0
LINE
  8
_1-2_HOJO
  6
CONTINUOUS
 62
    5
 10
2359.9999
 20
259.99998
 11
2359.9999
 21
559.99998
  0
LINE
  8
_1-2_HOJO
  6
CONTINUOUS
 62
    5
 10
3159.9999
 20
259.99998
 11
3159.9999
 21
559.99998
  0
LINE
  8
_1-2_HOJO
  6
CONTINUOUS
 62
    5
 10
3659.9999
 20
259.99998
 11
3659.9999
 21
559.99998
  0
LINE
  8
_0-a_3C1
  6
CONTINUOUS
 62
    7
 10
3567.9254
 20
2315.906
 11
4167.9254
 21
2315.906
  0
LINE
  8
_0-a_3C1
  6
CONTINUOUS
 62
    7
 10
3567.9254
 20
2315.906
 11
3567.9254
 21
2420.906
  0
LINE
  8
_0-a_3C1
  6
CONTINUOUS
 62
    7
 10
4167.9254
 20
2315.906
 11
4167.9254
 21
2420.906
  0
LINE
  8
_0-a_3C1
  6
CONTINUOUS
 62
    7
 10
4167.9254
 20
2420.906
 11
3567.9254
 21
2420.906
  0
LINE
  8
_0-a_3C1
  6
CONTINUOUS
 62
    7
 10
4167.9254
 20
2420.906
 11
4167.9254
 21
2490.906
  0
LINE
  8
_0-a_3C1
  6
CONTINUOUS
 62
    7
 10
3567.9254
 20
2420.906
 11
3567.9254
 21
2490.906
  0
LINE
  8
_0-a_3C1
  6
CONTINUOUS
 62
    7
 10
3567.9254
 20
2490.906
 11
4167.9254
 21
2490.906
  0
LINE
  8
_0-a_3C1
  6
CONTINUOUS
 62
    7
 10
2378.6814
 20
2315.906
 11
1928.6814
 21
2315.906
  0
LINE
  8
_0-a_3C1
  6
CONTINUOUS
 62
    7
 10
1928.6814
 20
2315.906
 11
1928.6814
 21
2490.906
  0
LINE
  8
_0-2_DEFPOINTS
  6
CONTINUOUS
 62
    6
 10
2378.6814
 20
2315.906
 11
2378.6814
 21
2415.906
  0
LINE
  8
_0-2_DEFPOINTS
  6
CONTINUOUS
 62
    6
 10
2378.6814
 20
2415.906
 11
2378.6814
 21
2420.906
  0
LINE
  8
_0-a_3C1
  6
CONTINUOUS
 62
    7
 10
1928.6814
 20
2490.906
 11
2008.6814
 21
2490.906
  0
LINE
  8
_0-a_3C1
  6
CONTINUOUS
 62
    7
 10
2028.6814
 20
2470.906
 11
2028.6814
 21
2413.0058
  0
LINE
  8
_0-a_3C1
  6
CONTINUOUS
 62
    7
 10
2050.6715
 20
2393.105
 11
2278.6814
 21
2415.906
  0
LINE
  8
_0-a_3C1
  6
CONTINUOUS
 62
    7
 10
2278.6814
 20
2415.906
 11
2378.6814
 21
2420.906
  0
LINE
  8
_0-a_3C1
  6
CONTINUOUS
 62
    7
 10
2378.6814
 20
2315.906
 11
2378.6814
 21
2420.906
  0
ARC
  8
_0-a_3C1
  6
CONTINUOUS
 62
    7
 10
2008.6814
 20
2470.906
 40
20
 50
0
 51
90
  0
ARC
  8
_0-a_3C1
  6
CONTINUOUS
 62
    7
 10
2048.6814
 20
2413.0058
 40
20
 50
180
 51
275.71059
  0
LINE
  8
_1-5_SUNPO
  6
CONTINUOUS
 62
    7
 10
1928.6814
 20
2510.906
 11
1928.6814
 21
2791.2064
  0
LINE
  8
_1-5_SUNPO
  6
CONTINUOUS
 62
    7
 10
2378.6814
 20
2435.906
 11
2378.6814
 21
2791.2064
  0
LINE
  8
_1-5_SUNPO
  6
CONTINUOUS
 62
    7
 10
1978.6814
 20
2781.2064
 11
2328.6814
 21
2781.2064
  0
SOLID
  8
_1-5_SUNPO
  6
CONTINUOUS
 62
    7
 10
1978.6814
 20
2789.5398
 11
1978.6814
 21
2772.8731
 12
1928.6814
 22
2781.2064
 13
1928.6814
 23
2781.2064
  0
SOLID
  8
_1-5_SUNPO
  6
CONTINUOUS
 62
    7
 10
2328.6814
 20
2789.5398
 11
2328.6814
 21
2772.8731
 12
2378.6814
 22
2781.2064
 13
2378.6814
 23
2781.2064
  0
LINE
  8
_1-5_SUNPO
  6
CONTINUOUS
 62
    7
 10
2278.6814
 20
2435.906
 11
2278.6814
 21
2656.2904
  0
LINE
  8
_1-5_SUNPO
  6
CONTINUOUS
 62
    7
 10
2378.6814
 20
2440.906
 11
2378.6814
 21
2656.2904
  0
LINE
  8
_1-5_SUNPO
  6
CONTINUOUS
 62
    7
 10
2228.6814
 20
2646.2904
 11
2178.6814
 21
2646.2904
  0
LINE
  8
_1-5_SUNPO
  6
CONTINUOUS
 62
    7
 10
2428.6814
 20
2646.2904
 11
2478.6814
 21
2646.2904
  0
LINE
  8
_1-5_SUNPO
  6
CONTINUOUS
 62
    7
 10
2278.6814
 20
2646.2904
 11
2378.6814
 21
2646.2904
  0
SOLID
  8
_1-5_SUNPO
  6
CONTINUOUS
 62
    7
 10
2228.6814
 20
2654.6237
 11
2228.6814
 21
2637.9571
 12
2278.6814
 22
2646.2904
 13
2278.6814
 23
2646.2904
  0
SOLID
  8
_1-5_SUNPO
  6
CONTINUOUS
 62
    7
 10
2428.6814
 20
2654.6237
 11
2428.6814
 21
2637.9571
 12
2378.6814
 22
2646.2904
 13
2378.6814
 23
2646.2904
  0
LINE
  8
_1-5_SUNPO
  6
CONTINUOUS
 62
    7
 10
2028.6814
 20
2510.906
 11
2028.6814
 21
2656.2904
  0
LINE
  8
_1-5_SUNPO
  6
CONTINUOUS
 62
    7
 10
2278.6814
 20
2435.906
 11
2278.6814
 21
2656.2904
  0
LINE
  8
_1-5_SUNPO
  6
CONTINUOUS
 62
    7
 10
2078.6814
 20
2646.2904
 11
2228.6814
 21
2646.2904
  0
SOLID
  8
_1-5_SUNPO
  6
CONTINUOUS
 62
    7
 10
2078.6814
 20
2654.6237
 11
2078.6814
 21
2637.9571
 12
2028.6814
 22
2646.2904
 13
2028.6814
 23
2646.2904
  0
SOLID
  8
_1-5_SUNPO
  6
CONTINUOUS
 62
    7
 10
2228.6814
 20
2654.6237
 11
2228.6814
 21
2637.9571
 12
2278.6814
 22
2646.2904
 13
2278.6814
 23
2646.2904
  0
LINE
  8
_1-5_SUNPO
  6
CONTINUOUS
 62
    7
 10
1928.6814
 20
2510.906
 11
1928.6814
 21
2656.2904
  0
LINE
  8
_1-5_SUNPO
  6
CONTINUOUS
 62
    7
 10
2028.6814
 20
2510.906
 11
2028.6814
 21
2656.2904
  0
LINE
  8
_1-5_SUNPO
  6
CONTINUOUS
 62
    7
 10
1878.6814
 20
2646.2904
 11
1828.6814
 21
2646.2904
  0
LINE
  8
_1-5_SUNPO
  6
CONTINUOUS
 62
    7
 10
2078.6814
 20
2646.2904
 11
2128.6814
 21
2646.2904
  0
LINE
  8
_1-5_SUNPO
  6
CONTINUOUS
 62
    7
 10
1928.6814
 20
2646.2904
 11
2028.6814
 21
2646.2904
  0
SOLID
  8
_1-5_SUNPO
  6
CONTINUOUS
 62
    7
 10
1878.6814
 20
2654.6237
 11
1878.6814
 21
2637.9571
 12
1928.6814
 22
2646.2904
 13
1928.6814
 23
2646.2904
  0
SOLID
  8
_1-5_SUNPO
  6
CONTINUOUS
 62
    7
 10
2078.6814
 20
2654.6237
 11
2078.6814
 21
2637.9571
 12
2028.6814
 22
2646.2904
 13
2028.6814
 23
2646.2904
  0
LINE
  8
_1-5_SUNPO
  6
CONTINUOUS
 62
    7
 10
2265.3821
 20
2565.4898
 11
2074.3646
 21
2495.1076
  0
LINE
  8
_1-5_SUNPO
  6
CONTINUOUS
 62
    7
 10
2008.6814
 20
2470.906
 11
2027.4481
 21
2477.8208
  0
SOLID
  8
_1-5_SUNPO
  6
CONTINUOUS
 62
    7
 10
2071.4835
 20
2502.9271
 11
2077.2458
 21
2487.2882
 12
2027.4481
 22
2477.8208
 13
2027.4481
 23
2477.8208
  0
LINE
  8
_1-5_SUNPO
  6
CONTINUOUS
 62
    7
 10
1887.734
 20
2191.7881
 11
2007.4991
 21
2356.4018
  0
LINE
  8
_1-5_SUNPO
  6
CONTINUOUS
 62
    7
 10
2048.6814
 20
2413.0058
 11
2036.915
 21
2396.8332
  0
SOLID
  8
_1-5_SUNPO
  6
CONTINUOUS
 62
    7
 10
2000.7605
 20
2361.3045
 11
2014.2376
 21
2351.4991
 12
2036.915
 22
2396.8332
 13
2036.915
 23
2396.8332
  0
TEXT
  8
_1-5_SUNPO
 62
    7
 10
2565.2853
 20
384.84423
 40
100
 41
1
 50
0
  1
Ｃ250Ｂ
  0
TEXT
  8
_1-5_SUNPO
 62
    7
 10
699.57966
 20
373.36888
 40
100
 41
1
 50
0
  1
道路用コンクリートＬ型側溝
  0
LINE
  8
_1-5_SUNPO
  6
CONTINUOUS
 62
    7
 10
3567.9254
 20
2510.906
 11
3567.9254
 21
2692.374
  0
LINE
  8
_1-5_SUNPO
  6
CONTINUOUS
 62
    7
 10
4167.9254
 20
2510.906
 11
4167.9254
 21
2692.374
  0
LINE
  8
_1-5_SUNPO
  6
CONTINUOUS
 62
    7
 10
3617.9254
 20
2682.374
 11
4117.9254
 21
2682.374
  0
SOLID
  8
_1-5_SUNPO
  6
CONTINUOUS
 62
    7
 10
3617.9254
 20
2690.7074
 11
3617.9254
 21
2674.0407
 12
3567.9254
 22
2682.374
 13
3567.9254
 23
2682.374
  0
SOLID
  8
_1-5_SUNPO
  6
CONTINUOUS
 62
    7
 10
4117.9254
 20
2690.7074
 11
4117.9254
 21
2674.0407
 12
4167.9254
 22
2682.374
 13
4167.9254
 23
2682.374
  0
LINE
  8
_1-5_SUNPO
  6
CONTINUOUS
 62
    7
 10
3547.9254
 20
2315.906
 11
3376.1958
 21
2315.906
  0
LINE
  8
_1-5_SUNPO
  6
CONTINUOUS
 62
    7
 10
3547.9254
 20
2490.906
 11
3376.1958
 21
2490.906
  0
LINE
  8
_1-5_SUNPO
  6
CONTINUOUS
 62
    7
 10
3386.1958
 20
2365.906
 11
3386.1958
 21
2440.906
  0
SOLID
  8
_1-5_SUNPO
  6
CONTINUOUS
 62
    7
 10
3377.8625
 20
2365.906
 11
3394.5292
 21
2365.906
 12
3386.1958
 22
2315.906
 13
3386.1958
 23
2315.906
  0
SOLID
  8
_1-5_SUNPO
  6
CONTINUOUS
 62
    7
 10
3377.8625
 20
2440.906
 11
3394.5292
 21
2440.906
 12
3386.1958
 22
2490.906
 13
3386.1958
 23
2490.906
  0
LINE
  8
_1-5_SUNPO
  6
CONTINUOUS
 62
    7
 10
1908.6814
 20
2390.906
 11
1734.3748
 21
2390.906
  0
LINE
  8
_1-5_SUNPO
  6
CONTINUOUS
 62
    7
 10
1908.6814
 20
2490.906
 11
1734.3748
 21
2490.906
  0
LINE
  8
_1-5_SUNPO
  6
CONTINUOUS
 62
    7
 10
1744.3748
 20
2340.906
 11
1744.3748
 21
2290.906
  0
LINE
  8
_1-5_SUNPO
  6
CONTINUOUS
 62
    7
 10
1744.3748
 20
2540.906
 11
1744.3748
 21
2590.906
  0
LINE
  8
_1-5_SUNPO
  6
CONTINUOUS
 62
    7
 10
1744.3748
 20
2390.906
 11
1744.3748
 21
2490.906
  0
SOLID
  8
_1-5_SUNPO
  6
CONTINUOUS
 62
    7
 10
1736.0415
 20
2340.906
 11
1752.7082
 21
2340.906
 12
1744.3748
 22
2390.906
 13
1744.3748
 23
2390.906
  0
SOLID
  8
_1-5_SUNPO
  6
CONTINUOUS
 62
    7
 10
1736.0415
 20
2540.906
 11
1752.7082
 21
2540.906
 12
1744.3748
 22
2490.906
 13
1744.3748
 23
2490.906
  0
LINE
  8
_1-5_SUNPO
  6
CONTINUOUS
 62
    7
 10
1908.6814
 20
2315.906
 11
1734.3748
 21
2315.906
  0
LINE
  8
_1-5_SUNPO
  6
CONTINUOUS
 62
    7
 10
1908.6814
 20
2390.906
 11
1734.3748
 21
2390.906
  0
LINE
  8
_1-5_SUNPO
  6
CONTINUOUS
 62
    7
 10
1744.3748
 20
2265.906
 11
1744.3748
 21
2215.906
  0
LINE
  8
_1-5_SUNPO
  6
CONTINUOUS
 62
    7
 10
1744.3748
 20
2440.906
 11
1744.3748
 21
2490.906
  0
LINE
  8
_1-5_SUNPO
  6
CONTINUOUS
 62
    7
 10
1744.3748
 20
2315.906
 11
1744.3748
 21
2390.906
  0
SOLID
  8
_1-5_SUNPO
  6
CONTINUOUS
 62
    7
 10
1736.0415
 20
2265.906
 11
1752.7082
 21
2265.906
 12
1744.3748
 22
2315.906
 13
1744.3748
 23
2315.906
  0
SOLID
  8
_1-5_SUNPO
  6
CONTINUOUS
 62
    7
 10
1736.0415
 20
2440.906
 11
1752.7082
 21
2440.906
 12
1744.3748
 22
2390.906
 13
1744.3748
 23
2390.906
  0
LINE
  8
_1-5_SUNPO
  6
CONTINUOUS
 62
    7
 10
2398.6814
 20
2315.906
 11
2700.8428
 21
2315.906
  0
LINE
  8
_1-5_SUNPO
  6
CONTINUOUS
 62
    7
 10
2398.6814
 20
2420.906
 11
2700.8428
 21
2420.906
  0
LINE
  8
_1-5_SUNPO
  6
CONTINUOUS
 62
    7
 10
2690.8428
 20
2265.906
 11
2690.8428
 21
2215.906
  0
LINE
  8
_1-5_SUNPO
  6
CONTINUOUS
 62
    7
 10
2690.8428
 20
2470.906
 11
2690.8428
 21
2520.906
  0
LINE
  8
_1-5_SUNPO
  6
CONTINUOUS
 62
    7
 10
2690.8428
 20
2315.906
 11
2690.8428
 21
2420.906
  0
SOLID
  8
_1-5_SUNPO
  6
CONTINUOUS
 62
    7
 10
2682.5094
 20
2265.906
 11
2699.1761
 21
2265.906
 12
2690.8428
 22
2315.906
 13
2690.8428
 23
2315.906
  0
SOLID
  8
_1-5_SUNPO
  6
CONTINUOUS
 62
    7
 10
2682.5094
 20
2470.906
 11
2699.1761
 21
2470.906
 12
2690.8428
 22
2420.906
 13
2690.8428
 23
2420.906
  0
LINE
  8
_1-5_SUNPO
  6
CONTINUOUS
 62
    7
 10
2398.6814
 20
2315.906
 11
2544.7546
 21
2315.906
  0
LINE
  8
_1-5_SUNPO
  6
CONTINUOUS
 62
    7
 10
2398.6814
 20
2415.906
 11
2544.7546
 21
2415.906
  0
LINE
  8
_1-5_SUNPO
  6
CONTINUOUS
 62
    7
 10
2534.7546
 20
2265.906
 11
2534.7546
 21
2215.906
  0
LINE
  8
_1-5_SUNPO
  6
CONTINUOUS
 62
    7
 10
2534.7546
 20
2465.906
 11
2534.7546
 21
2515.906
  0
LINE
  8
_1-5_SUNPO
  6
CONTINUOUS
 62
    7
 10
2534.7546
 20
2315.906
 11
2534.7546
 21
2415.906
  0
SOLID
  8
_1-5_SUNPO
  6
CONTINUOUS
 62
    7
 10
2526.4213
 20
2265.906
 11
2543.0879
 21
2265.906
 12
2534.7546
 22
2315.906
 13
2534.7546
 23
2315.906
  0
SOLID
  8
_1-5_SUNPO
  6
CONTINUOUS
 62
    7
 10
2526.4213
 20
2465.906
 11
2543.0879
 21
2465.906
 12
2534.7546
 22
2415.906
 13
2534.7546
 23
2415.906
  0
LINE
  8
_1-5_SUNPO
  6
CONTINUOUS
 62
    7
 10
1908.6814
 20
2315.906
 11
1550.6746
 21
2315.906
  0
LINE
  8
_1-5_SUNPO
  6
CONTINUOUS
 62
    7
 10
1908.6814
 20
2490.906
 11
1550.6746
 21
2490.906
  0
LINE
  8
_1-5_SUNPO
  6
CONTINUOUS
 62
    7
 10
1560.6746
 20
2365.906
 11
1560.6746
 21
2440.906
  0
SOLID
  8
_1-5_SUNPO
  6
CONTINUOUS
 62
    7
 10
1552.3412
 20
2365.906
 11
1569.0079
 21
2365.906
 12
1560.6746
 22
2315.906
 13
1560.6746
 23
2315.906
  0
SOLID
  8
_1-5_SUNPO
  6
CONTINUOUS
 62
    7
 10
1552.3412
 20
2440.906
 11
1569.0079
 21
2440.906
 12
1560.6746
 22
2490.906
 13
1560.6746
 23
2490.906
  0
TEXT
  8
_1-5_SUNPO
 62
    7
 10
3246.6802
 20
359.22745
 40
70
 41
1
 50
0
  1
１／２０
  0
TEXT
  8
_1-5_SUNPO
 62
    7
 10
381.88622
 20
488.69187
 40
50
 41
1
 50
0
  1
製品名
  0
TEXT
  8
_1-5_SUNPO
 62
    7
 10
2376.2901
 20
494.45315
 40
50
 41
1
 50
0
  1
型式
  0
TEXT
  8
_1-5_SUNPO
 62
    7
 10
3177.5102
 20
488.69187
 40
50
 41
1
 50
0
  1
縮尺
  0
TEXT
  8
_1-5_SUNPO
 62
    7
 10
3730.8708
 20
352.27259
 40
100
 41
1
 50
0
  1
千葉県コンクリート製品協同組合
  0
LINE
  8
_1-2_HOJO
  6
CONTINUOUS
 62
    5
 10
359.99997
 20
259.99998
 11
5579.9999
 21
259.99998
  0
LINE
  8
_1-2_HOJO
  6
CONTINUOUS
 62
    5
 10
5579.9999
 20
259.99998
 11
5579.9999
 21
3939.9999
  0
LINE
  8
_1-2_HOJO
  6
CONTINUOUS
 62
    5
 10
5579.9999
 20
3939.9999
 11
359.99997
 21
3939.9999
  0
LINE
  8
_1-2_HOJO
  6
CONTINUOUS
 62
    5
 10
359.99997
 20
3939.9999
 11
359.99997
 21
259.99998
  0
LINE
  8
_1-2_HOJO
  6
CONTINUOUS
 62
    5
 10
-0.0000276
 20
-0.0000195
 11
5939.9999
 21
-0.0000195
  0
LINE
  8
_1-2_HOJO
  6
CONTINUOUS
 62
    5
 10
5939.9999
 20
-0.0000195
 11
5939.9999
 21
4199.9999
  0
LINE
  8
_1-2_HOJO
  6
CONTINUOUS
 62
    5
 10
5939.9999
 20
4199.9999
 11
-0.0000276
 21
4199.9999
  0
LINE
  8
_1-2_HOJO
  6
CONTINUOUS
 62
    5
 10
-0.0000276
 20
4199.9999
 11
-0.0000276
 21
-0.0000195
  0
TEXT
  8
_1-5_SUNPO
 62
    7
 10
2115.7327
 20
2787.7767
 40
50
 41
1
 50
0
  1
450
  0
TEXT
  8
_1-5_SUNPO
 62
    7
 10
2120.1606
 20
2656.4171
 40
50
 41
1
 50
0
  1
250
  0
TEXT
  8
_1-5_SUNPO
 62
    7
 10
2288.419
 20
2657.893
 40
50
 41
1
 50
0
  1
100
  0
TEXT
  8
_1-5_SUNPO
 62
    7
 10
1932.7148
 20
2659.369
 40
50
 41
1
 50
0
  1
100
  0
TEXT
  8
_1-5_SUNPO
 62
    7
 10
2152.2543
 20
2528.3343
 40
50
 41
1
 50
20.226798
  1
R20
  0
TEXT
  8
_1-5_SUNPO
 62
    7
 10
1736.8367
 20
2400.6542
 40
50
 41
1
 50
90
  1
100
  0
TEXT
  8
_1-5_SUNPO
 62
    7
 10
1736.8367
 20
2326.7221
 40
50
 41
1
 50
90
  1
75
  0
TEXT
  8
_1-5_SUNPO
 62
    7
 10
1550.8668
 20
2357.8516
 40
50
 41
1
 50
90
  1
175
  0
TEXT
  8
_1-5_SUNPO
 62
    7
 10
1890.8644
 20
2199.0589
 40
50
 41
1
 50
53.962153
  1
R20
  0
TEXT
  8
_1-5_SUNPO
 62
    7
 10
2532.3743
 20
2322.4287
 40
50
 41
1
 50
90
  1
100
  0
TEXT
  8
_1-5_SUNPO
 62
    7
 10
2682.9213
 20
2325.3806
 40
50
 41
1
 50
90
  1
105
  0
TEXT
  8
_1-5_SUNPO
 62
    7
 10
3837.37
 20
2691.7782
 40
50
 41
1
 50
0
  1
600
  0
TEXT
  8
_1-5_SUNPO
 62
    7
 10
3374.9121
 20
2356.9759
 40
50
 41
1
 50
90
  1
175
  0
ENDSEC
  0
EOF
