  0
SECTION
  2
HEADER
  9
$ACADVER
  1
AC1012
  9
$DWGCODEPAGE
  3
dos932
  9
$INSBASE
 10
0.0
 20
0.0
 30
0.0
  9
$EXTMIN
 10
0.0
 20
0.0
 30
0.0
  9
$EXTMAX
 10
5940.0
 20
4200.0
 30
0.0
  9
$LIMMIN
 10
0.0
 20
0.0
  9
$LIMMAX
 10
5940.0
 20
4200.0
  9
$ORTHOMODE
 70
     0
  9
$REGENMODE
 70
     1
  9
$FILLMODE
 70
     1
  9
$QTEXTMODE
 70
     0
  9
$MIRRTEXT
 70
     0
  9
$DRAGMODE
 70
     2
  9
$LTSCALE
 40
10.0
  9
$OSMODE
 70
    39
  9
$ATTMODE
 70
     1
  9
$TEXTSIZE
 40
50.0
  9
$TRACEWID
 40
1.0
  9
$TEXTSTYLE
  7
ADD
  9
$CLAYER
  8
MOJI
  9
$CELTYPE
  6
BYLAYER
  9
$CECOLOR
 62
   256
  9
$CELTSCALE
 40
1.0
  9
$DELOBJ
 70
     1
  9
$DISPSILH
 70
     0
  9
$DIMSCALE
 40
20.0
  9
$DIMASZ
 40
1.0
  9
$DIMEXO
 40
1.0
  9
$DIMDLI
 40
7.0
  9
$DIMRND
 40
0.0
  9
$DIMDLE
 40
0.0
  9
$DIMEXE
 40
0.5
  9
$DIMTP
 40
0.0
  9
$DIMTM
 40
0.0
  9
$DIMTXT
 40
2.0
  9
$DIMCEN
 40
1.0
  9
$DIMTSZ
 40
0.0
  9
$DIMTOL
 70
     0
  9
$DIMLIM
 70
     0
  9
$DIMTIH
 70
     0
  9
$DIMTOH
 70
     0
  9
$DIMSE1
 70
     0
  9
$DIMSE2
 70
     0
  9
$DIMTAD
 70
     1
  9
$DIMZIN
 70
     8
  9
$DIMBLK
  1

  9
$DIMASO
 70
     1
  9
$DIMSHO
 70
     1
  9
$DIMPOST
  1

  9
$DIMAPOST
  1

  9
$DIMALT
 70
     0
  9
$DIMALTD
 70
     3
  9
$DIMALTF
 40
0.03937007874016
  9
$DIMLFAC
 40
1.0
  9
$DIMTOFL
 70
     1
  9
$DIMTVP
 40
0.7
  9
$DIMTIX
 70
     1
  9
$DIMSOXD
 70
     0
  9
$DIMSAH
 70
     0
  9
$DIMBLK1
  1

  9
$DIMBLK2
  1

  9
$DIMSTYLE
  2
ADD
  9
$DIMCLRD
 70
   144
  9
$DIMCLRE
 70
   144
  9
$DIMCLRT
 70
     7
  9
$DIMTFAC
 40
1.0
  9
$DIMGAP
 40
0.625
  9
$DIMJUST
 70
     0
  9
$DIMSD1
 70
     0
  9
$DIMSD2
 70
     0
  9
$DIMTOLJ
 70
     2
  9
$DIMTZIN
 70
     8
  9
$DIMALTZ
 70
     0
  9
$DIMALTTZ
 70
     0
  9
$DIMFIT
 70
     5
  9
$DIMUPT
 70
     0
  9
$DIMUNIT
 70
     2
  9
$DIMDEC
 70
     1
  9
$DIMTDEC
 70
     1
  9
$DIMALTU
 70
     2
  9
$DIMALTTD
 70
     3
  9
$DIMTXSTY
  7
ADD
  9
$DIMAUNIT
 70
     0
  9
$LUNITS
 70
     2
  9
$LUPREC
 70
     4
  9
$SKETCHINC
 40
1.0
  9
$FILLETRAD
 40
20.0
  9
$AUNITS
 70
     0
  9
$AUPREC
 70
     1
  9
$MENU
  1
.
  9
$ELEVATION
 40
0.0
  9
$PELEVATION
 40
0.0
  9
$THICKNESS
 40
0.0
  9
$LIMCHECK
 70
     0
  9
$BLIPMODE
 70
     0
  9
$CHAMFERA
 40
10.0
  9
$CHAMFERB
 40
10.0
  9
$CHAMFERC
 40
20.0
  9
$CHAMFERD
 40
0.0
  9
$SKPOLY
 70
     0
  9
$TDCREATE
 40
2451801.142532870
  9
$TDUPDATE
 40
2452179.690612442
  9
$TDINDWG
 40
0.1052407407
  9
$TDUSRTIMER
 40
0.1052407407
  9
$USRTIMER
 70
     1
  9
$ANGBASE
 50
0.0
  9
$ANGDIR
 70
     0
  9
$PDMODE
 70
     0
  9
$PDSIZE
 40
0.0
  9
$PLINEWID
 40
0.0
  9
$COORDS
 70
     1
  9
$SPLFRAME
 70
     0
  9
$SPLINETYPE
 70
     6
  9
$SPLINESEGS
 70
     8
  9
$ATTDIA
 70
     0
  9
$ATTREQ
 70
     1
  9
$HANDLING
 70
-16383
  9
$HANDSEED
  5
B7F
  9
$SURFTAB1
 70
     6
  9
$SURFTAB2
 70
     6
  9
$SURFTYPE
 70
     6
  9
$SURFU
 70
     6
  9
$SURFV
 70
     6
  9
$UCSNAME
  2

  9
$UCSORG
 10
0.0
 20
0.0
 30
0.0
  9
$UCSXDIR
 10
1.0
 20
0.0
 30
0.0
  9
$UCSYDIR
 10
0.0
 20
1.0
 30
0.0
  9
$PUCSNAME
  2

  9
$PUCSORG
 10
0.0
 20
0.0
 30
0.0
  9
$PUCSXDIR
 10
1.0
 20
0.0
 30
0.0
  9
$PUCSYDIR
 10
0.0
 20
1.0
 30
0.0
  9
$USERI1
 70
     0
  9
$USERI2
 70
     0
  9
$USERI3
 70
     0
  9
$USERI4
 70
     0
  9
$USERI5
 70
     0
  9
$USERR1
 40
841.0
  9
$USERR2
 40
594.0
  9
$USERR3
 40
1.0
  9
$USERR4
 40
0.0
  9
$USERR5
 40
0.0
  9
$WORLDVIEW
 70
     1
  9
$SHADEDGE
 70
     3
  9
$SHADEDIF
 70
    70
  9
$TILEMODE
 70
     1
  9
$MAXACTVP
 70
    48
  9
$PINSBASE
 10
0.0
 20
0.0
 30
0.0
  9
$PLIMCHECK
 70
     0
  9
$PEXTMIN
 10
-5.662975978526674
 20
-6.331907780761866
 30
-0.0015258207003583
  9
$PEXTMAX
 10
834.4213426047982
 20
560.9663709967471
 30
0.0000000349246037
  9
$PLIMMIN
 10
-7.500000000000001
 20
-20.0
  9
$PLIMMAX
 10
833.5000000000002
 20
574.0000000000001
  9
$UNITMODE
 70
     0
  9
$VISRETAIN
 70
     1
  9
$PLINEGEN
 70
     0
  9
$PSLTSCALE
 70
     1
  9
$TREEDEPTH
 70
  3020
  9
$PICKSTYLE
 70
     1
  9
$CMLSTYLE
  2
STANDARD
  9
$CMLJUST
 70
     0
  9
$CMLSCALE
 40
20.0
  9
$SAVEIMAGES
 70
     1
  0
ENDSEC
  0
SECTION
  2
CLASSES
  0
CLASS
  1
ACDBDICTIONARYWDFLT
  2
AcDbDictionaryWithDefault
  3
AutoCAD 2000
 90
    32768
280
     0
281
     0
  0
CLASS
  1
ACDBPLACEHOLDER
  2
AcDbPlaceHolder
  3
AutoCAD 2000
 90
    32768
280
     0
281
     0
  0
CLASS
  1
LAYOUT
  2
AcDbLayout
  3
AutoCAD 2000
 90
    32768
280
     0
281
     0
  0
CLASS
  1
RTEXT
  2
RText
  3
RText|AutoCAD Express Tool|expresstools@autodesk.com
 90
    32768
280
     0
281
     1
  0
CLASS
  1
DICTIONARYVAR
  2
AcDbDictionaryVar
  3
AutoCAD 2000
 90
    32768
280
     0
281
     0
  0
CLASS
  1
LONG_TRANSACTION
  2
AcDbLongTransaction
  3
AutoCAD 2000
 90
    32768
280
     0
281
     0
  0
CLASS
  1
LWPOLYLINE
  2
AcDbPolyline
  3
AutoCAD 2000
 90
    32768
280
     0
281
     1
  0
CLASS
  1
HATCH
  2
AcDbHatch
  3
AutoCAD 2000
 90
    32768
280
     0
281
     1
  0
CLASS
  1
XRECORD
  2
AcDbXrecord
  3
AutoCAD 2000
 90
    32768
280
     0
281
     0
  0
CLASS
  1
LONG_TRANSACTION
  2
AcDbLongTransaction
  3
AutoCAD 2000
 90
    32768
280
     0
281
     0
  0
CLASS
  1
LWPOLYLINE
  2
AcDbPolyline
  3
AutoCAD 2000
 90
    32768
280
     0
281
     1
  0
CLASS
  1
HATCH
  2
AcDbHatch
  3
AutoCAD 2000
 90
    32768
280
     0
281
     1
  0
CLASS
  1
XRECORD
  2
AcDbXrecord
  3
AutoCAD 2000
 90
    32768
280
     0
281
     0
  0
CLASS
  1
LONG_TRANSACTION
  2
AcDbLongTransaction
  3
AutoCAD 2000
 90
    32768
280
     0
281
     0
  0
CLASS
  1
LWPOLYLINE
  2
AcDbPolyline
  3
AutoCAD 2000
 90
    32768
280
     0
281
     1
  0
CLASS
  1
HATCH
  2
AcDbHatch
  3
AutoCAD 2000
 90
    32768
280
     0
281
     1
  0
CLASS
  1
XRECORD
  2
AcDbXrecord
  3
AutoCAD 2000
 90
    32768
280
     0
281
     0
  0
CLASS
  1
LONG_TRANSACTION
  2
AcDbLongTransaction
  3
AutoCAD 2000
 90
    32768
280
     0
281
     0
  0
CLASS
  1
LWPOLYLINE
  2
AcDbPolyline
  3
AutoCAD 2000
 90
    32768
280
     0
281
     1
  0
CLASS
  1
HATCH
  2
AcDbHatch
  3
AutoCAD 2000
 90
    32768
280
     0
281
     1
  0
CLASS
  1
XRECORD
  2
AcDbXrecord
  3
AutoCAD 2000
 90
    32768
280
     0
281
     0
  0
CLASS
  1
LONG_TRANSACTION
  2
AcDbLongTransaction
  3
AutoCAD 2000
 90
    32768
280
     0
281
     0
  0
CLASS
  1
LWPOLYLINE
  2
AcDbPolyline
  3
AutoCAD 2000
 90
    32768
280
     0
281
     1
  0
CLASS
  1
HATCH
  2
AcDbHatch
  3
AutoCAD 2000
 90
    32768
280
     0
281
     1
  0
CLASS
  1
XRECORD
  2
AcDbXrecord
  3
AutoCAD 2000
 90
    32768
280
     0
281
     0
  0
CLASS
  1
LONG_TRANSACTION
  2
AcDbLongTransaction
  3
AutoCAD 2000
 90
    32768
280
     0
281
     0
  0
CLASS
  1
LWPOLYLINE
  2
AcDbPolyline
  3
AutoCAD 2000
 90
    32768
280
     0
281
     1
  0
CLASS
  1
HATCH
  2
AcDbHatch
  3
AutoCAD 2000
 90
    32768
280
     0
281
     1
  0
CLASS
  1
XRECORD
  2
AcDbXrecord
  3
AutoCAD 2000
 90
    32768
280
     0
281
     0
  0
CLASS
  1
LONG_TRANSACTION
  2
AcDbLongTransaction
  3
AutoCAD 2000
 90
    32768
280
     0
281
     0
  0
CLASS
  1
LWPOLYLINE
  2
AcDbPolyline
  3
AutoCAD 2000
 90
    32768
280
     0
281
     1
  0
CLASS
  1
HATCH
  2
AcDbHatch
  3
AutoCAD 2000
 90
    32768
280
     0
281
     1
  0
CLASS
  1
XRECORD
  2
AcDbXrecord
  3
AutoCAD 2000
 90
    32768
280
     0
281
     0
  0
ENDSEC
  0
SECTION
  2
TABLES
  0
TABLE
  2
VPORT
  5
8
330
0
100
AcDbSymbolTable
 70
     2
  0
VPORT
  5
B6F
330
8
100
AcDbSymbolTableRecord
100
AcDbViewportTableRecord
  2
*ACTIVE
 70
     0
 10
0.0
 20
0.0
 11
1.0
 21
1.0
 12
2970.000013830139
 22
2100.000009778887
 13
0.0
 23
0.0
 14
10.0
 24
10.0
 15
10.0
 25
10.0
 16
0.0
 26
0.0
 36
1.0
 17
0.0
 27
0.0
 37
0.0
 40
4234.404773247251
 41
1.613297150610583
 42
50.0
 43
0.0
 44
0.0
 50
0.0
 51
0.0
 71
     0
 72
   100
 73
     1
 74
     1
 75
     0
 76
     0
 77
     0
 78
     0
  0
ENDTAB
  0
TABLE
  2
LTYPE
  5
5
330
0
100
AcDbSymbolTable
 70
     5
  0
LTYPE
  5
14
330
5
100
AcDbSymbolTableRecord
100
AcDbLinetypeTableRecord
  2
BYBLOCK
 70
     0
  3

 72
    65
 73
     0
 40
0.0
  0
LTYPE
  5
15
330
5
100
AcDbSymbolTableRecord
100
AcDbLinetypeTableRecord
  2
BYLAYER
 70
     0
  3

 72
    65
 73
     0
 40
0.0
  0
LTYPE
  5
16
330
5
100
AcDbSymbolTableRecord
100
AcDbLinetypeTableRecord
  2
CONTINUOUS
 70
     0
  3
Solid line
 72
    65
 73
     0
 40
0.0
  0
LTYPE
  5
555
330
5
100
AcDbSymbolTableRecord
100
AcDbLinetypeTableRecord
  2
CENTER
 70
     0
  3
Center ____ _ ____ _ ____ _ ____ _ ____ _ ____
 72
    65
 73
     4
 40
50.8
 49
31.75
 74
     0
 49
-6.349999999999999
 74
     0
 49
6.349999999999999
 74
     0
 49
-6.349999999999999
 74
     0
  0
LTYPE
  5
556
330
5
100
AcDbSymbolTableRecord
100
AcDbLinetypeTableRecord
  2
HIDDEN
 70
     0
  3
Hidden __ __ __ __ __ __ __ __ __ __ __ __ __ _
 72
    65
 73
     2
 40
9.524999999999998
 49
6.349999999999999
 74
     0
 49
-3.174999999999999
 74
     0
  0
LTYPE
  5
557
330
5
100
AcDbSymbolTableRecord
100
AcDbLinetypeTableRecord
  2
HIDDEN2
 70
     0
  3
Hidden (.5x) _ _ _ _ _ _ _ _ _ _ _ _ _ _ _ _ _
 72
    65
 73
     2
 40
4.762499999999999
 49
3.174999999999999
 74
     0
 49
-1.587499999999999
 74
     0
  0
LTYPE
  5
558
330
5
100
AcDbSymbolTableRecord
100
AcDbLinetypeTableRecord
  2
PHANTOM
 70
     0
  3
Phantom ______  __  __  ______  __  __  ______
 72
    65
 73
     6
 40
63.5
 49
31.75
 74
     0
 49
-6.349999999999999
 74
     0
 49
6.349999999999999
 74
     0
 49
-6.349999999999999
 74
     0
 49
6.349999999999999
 74
     0
 49
-6.349999999999999
 74
     0
  0
ENDTAB
  0
TABLE
  2
LAYER
  5
2
330
0
100
AcDbSymbolTable
 70
    22
  0
LAYER
  5
10
330
2
100
AcDbSymbolTableRecord
100
AcDbLayerTableRecord
  2
0
 70
     0
 62
     7
  6
CONTINUOUS
  0
LAYER
  5
75
330
2
100
AcDbSymbolTableRecord
100
AcDbLayerTableRecord
  2
VIEWPORT
 70
     0
 62
     1
  6
CONTINUOUS
  0
LAYER
  5
504
330
2
100
AcDbSymbolTableRecord
100
AcDbLayerTableRecord
  2
DEFPOINTS
 70
     4
 62
     6
  6
CONTINUOUS
  0
LAYER
  5
505
330
2
100
AcDbSymbolTableRecord
100
AcDbLayerTableRecord
  2
1C1
 70
     0
 62
   254
  6
CONTINUOUS
  0
LAYER
  5
506
330
2
100
AcDbSymbolTableRecord
100
AcDbLayerTableRecord
  2
1C2
 70
     0
 62
   254
  6
CONTINUOUS
  0
LAYER
  5
507
330
2
100
AcDbSymbolTableRecord
100
AcDbLayerTableRecord
  2
2C1
 70
     0
 62
   144
  6
CONTINUOUS
  0
LAYER
  5
508
330
2
100
AcDbSymbolTableRecord
100
AcDbLayerTableRecord
  2
2C2
 70
     0
 62
   144
  6
CONTINUOUS
  0
LAYER
  5
509
330
2
100
AcDbSymbolTableRecord
100
AcDbLayerTableRecord
  2
2H1
 70
     0
 62
   144
  6
HIDDEN
  0
LAYER
  5
50A
330
2
100
AcDbSymbolTableRecord
100
AcDbLayerTableRecord
  2
2H2
 70
     0
 62
   144
  6
HIDDEN2
  0
LAYER
  5
50B
330
2
100
AcDbSymbolTableRecord
100
AcDbLayerTableRecord
  2
2P1
 70
     0
 62
   144
  6
PHANTOM
  0
LAYER
  5
50C
330
2
100
AcDbSymbolTableRecord
100
AcDbLayerTableRecord
  2
3C1
 70
     0
 62
     7
  6
CONTINUOUS
  0
LAYER
  5
50D
330
2
100
AcDbSymbolTableRecord
100
AcDbLayerTableRecord
  2
3C2
 70
     0
 62
     7
  6
CONTINUOUS
  0
LAYER
  5
50E
330
2
100
AcDbSymbolTableRecord
100
AcDbLayerTableRecord
  2
3C3
 70
     0
 62
     7
  6
CONTINUOUS
  0
LAYER
  5
50F
330
2
100
AcDbSymbolTableRecord
100
AcDbLayerTableRecord
  2
4H1
 70
     0
 62
     6
  6
HIDDEN
  0
LAYER
  5
510
330
2
100
AcDbSymbolTableRecord
100
AcDbLayerTableRecord
  2
4H2
 70
     0
 62
     6
  6
HIDDEN2
  0
LAYER
  5
511
330
2
100
AcDbSymbolTableRecord
100
AcDbLayerTableRecord
  2
5C1
 70
     0
 62
    55
  6
CONTINUOUS
  0
LAYER
  5
512
330
2
100
AcDbSymbolTableRecord
100
AcDbLayerTableRecord
  2
5C2
 70
     0
 62
    55
  6
CONTINUOUS
  0
LAYER
  5
513
330
2
100
AcDbSymbolTableRecord
100
AcDbLayerTableRecord
  2
8C1
 70
     0
 62
    92
  6
CONTINUOUS
  0
LAYER
  5
514
330
2
100
AcDbSymbolTableRecord
100
AcDbLayerTableRecord
  2
HOJO
 70
     0
 62
     5
  6
CONTINUOUS
  0
LAYER
  5
515
330
2
100
AcDbSymbolTableRecord
100
AcDbLayerTableRecord
  2
KIJUN
 70
     0
 62
     1
  6
CENTER
  0
LAYER
  5
516
330
2
100
AcDbSymbolTableRecord
100
AcDbLayerTableRecord
  2
MOJI
 70
     0
 62
     7
  6
CONTINUOUS
  0
LAYER
  5
517
330
2
100
AcDbSymbolTableRecord
100
AcDbLayerTableRecord
  2
SUNPO
 70
     0
 62
   144
  6
CONTINUOUS
  0
ENDTAB
  0
TABLE
  2
STYLE
  5
3
330
0
100
AcDbSymbolTable
 70
     6
  0
STYLE
  5
11
330
3
100
AcDbSymbolTableRecord
100
AcDbTextStyleTableRecord
  2
STANDARD
 70
     0
 40
0.0
 41
1.0
 50
0.0
 71
     0
 42
2.5
  3
txt
  4

  0
STYLE
  5
2C
330
3
100
AcDbSymbolTableRecord
100
AcDbTextStyleTableRecord
  2

 70
     1
 40
0.0
 41
1.0
 50
0.0
 71
     0
 42
2.5
  3
ltypeshp.shx
  4

  0
STYLE
  5
18E
330
3
100
AcDbSymbolTableRecord
100
AcDbTextStyleTableRecord
  2
ADD
 70
     0
 40
0.0
 41
1.0
 50
0.0
 71
     0
 42
50.0
  3
romans.shx
  4
bigfont.shx
  0
STYLE
  5
191
330
3
100
AcDbSymbolTableRecord
100
AcDbTextStyleTableRecord
  2
MSG
 70
     0
 40
0.0
 41
1.0
 50
0.0
 71
     0
 42
2.5
  3
MS Gothic.ttf
  4

1001
ACAD
1000
MS Gothic
1071
    32817
  0
STYLE
  5
5C8
330
3
100
AcDbSymbolTableRecord
100
AcDbTextStyleTableRecord
  2
STANDARD15
 70
     0
 40
0.0
 41
1.0
 50
15.0
 71
     0
 42
2.5
  3
ROMANS
  4
bigfont
  0
STYLE
  5
5C9
330
3
100
AcDbSymbolTableRecord
100
AcDbTextStyleTableRecord
  2
ROMANS15
 70
     0
 40
0.0
 41
1.0
 50
15.0
 71
     0
 42
2.5
  3
romans
  4

  0
ENDTAB
  0
TABLE
  2
VIEW
  5
6
330
0
100
AcDbSymbolTable
 70
     1
  0
VIEW
  5
54D
330
6
100
AcDbSymbolTableRecord
100
AcDbViewTableRecord
  2
ALL
 70
     0
 40
594.0
 10
420.5
 20
297.0
 41
865.125
 11
0.0
 21
0.0
 31
1.0
 12
0.0
 22
0.0
 32
0.0
 42
50.0
 43
0.0
 44
0.0
 50
0.0
 71
     0
  0
ENDTAB
  0
TABLE
  2
UCS
  5
7
330
0
100
AcDbSymbolTable
 70
     0
  0
ENDTAB
  0
TABLE
  2
APPID
  5
9
330
0
100
AcDbSymbolTable
 70
     4
  0
APPID
  5
12
330
9
100
AcDbSymbolTableRecord
100
AcDbRegAppTableRecord
  2
ACAD
 70
     0
  0
APPID
  5
5CB
330
9
100
AcDbSymbolTableRecord
100
AcDbRegAppTableRecord
  2
ARAIGUMI_YOHEKI
 70
     0
  0
APPID
  5
5CC
330
9
100
AcDbSymbolTableRecord
100
AcDbRegAppTableRecord
  2
CONTENTTABDATA
 70
     0
  0
APPID
  5
5CD
330
9
100
AcDbSymbolTableRecord
100
AcDbRegAppTableRecord
  2
CONTENTCURRENTTAB
 70
     0
  0
ENDTAB
  0
TABLE
  2
DIMSTYLE
  5
A
330
0
100
AcDbSymbolTable
 70
    10
  0
DIMSTYLE
105
27
330
A
100
AcDbSymbolTableRecord
100
AcDbDimStyleTableRecord
  2
ISO-25
 70
     0
  3

  4

  5

  6

  7

 40
1.0
 41
2.5
 42
0.625
 43
3.75
 44
1.25
 45
0.0
 46
0.0
 47
0.0
 48
0.0
140
2.5
141
2.5
142
0.0
143
0.03937007874016
144
1.0
145
0.0
146
1.0
147
0.625
 71
     0
 72
     0
 73
     0
 74
     0
 75
     0
 76
     0
 77
     1
 78
     8
170
     0
171
     3
172
     1
173
     0
174
     0
175
     0
176
     0
177
     0
178
     0
270
     2
271
     2
272
     2
273
     2
274
     3
340
11
275
     0
280
     0
281
     0
282
     0
283
     0
284
     8
285
     0
286
     0
287
     3
288
     0
  0
DIMSTYLE
105
197
330
A
100
AcDbSymbolTableRecord
100
AcDbDimStyleTableRecord
  2
ADD
 70
     0
  3

  4

  5

  6

  7

 40
1.0
 41
2.5
 42
1.0
 43
7.0
 44
0.5
 45
0.0
 46
0.0
 47
0.0
 48
0.0
140
2.5
141
2.5
142
0.0
143
0.03937007874016
144
1.0
145
0.7
146
1.0
147
0.625
 71
     0
 72
     0
 73
     0
 74
     0
 75
     0
 76
     0
 77
     1
 78
     8
170
     0
171
     3
172
     1
173
     0
174
     1
175
     0
176
   144
177
   144
178
     7
270
     2
271
     1
272
     1
273
     2
274
     3
340
18E
275
     0
280
     0
281
     0
282
     0
283
     2
284
     8
285
     0
286
     0
287
     5
288
     0
  0
DIMSTYLE
105
3E6
330
A
100
AcDbSymbolTableRecord
100
AcDbDimStyleTableRecord
  2
ADD$2
 70
     0
  3

  4

  5

  6

  7

 40
1.0
 41
2.5
 42
1.0
 43
7.0
 44
0.5
 45
0.0
 46
0.0
 47
0.0
 48
0.0
140
2.5
141
2.5
142
0.0
143
0.03937007874016
144
1.0
145
0.7
146
1.0
147
0.625
 71
     0
 72
     0
 73
     0
 74
     0
 75
     0
 76
     0
 77
     1
 78
     8
170
     0
171
     3
172
     1
173
     0
174
     1
175
     0
176
   144
177
   144
178
     7
270
     2
271
     1
272
     1
273
     2
274
     3
340
18E
275
     0
280
     0
281
     0
282
     0
283
     2
284
     8
285
     0
286
     0
287
     5
288
     0
  0
DIMSTYLE
105
3E7
330
A
100
AcDbSymbolTableRecord
100
AcDbDimStyleTableRecord
  2
ADD$4
 70
     0
  3

  4

  5

  6

  7

 40
1.0
 41
2.5
 42
1.0
 43
7.0
 44
0.5
 45
0.0
 46
0.0
 47
0.0
 48
0.0
140
2.5
141
2.5
142
0.0
143
0.03937007874016
144
1.0
145
0.0
146
1.0
147
0.625
 71
     0
 72
     0
 73
     0
 74
     0
 75
     0
 76
     0
 77
     1
 78
     8
170
     0
171
     3
172
     1
173
     0
174
     1
175
     0
176
   144
177
   144
178
     7
270
     2
271
     1
272
     1
273
     2
274
     3
340
18E
275
     0
280
     0
281
     0
282
     0
283
     2
284
     8
285
     0
286
     0
287
     5
288
     0
  0
DIMSTYLE
105
3E8
330
A
100
AcDbSymbolTableRecord
100
AcDbDimStyleTableRecord
  2
ADD$3
 70
     0
  3

  4

  5

  6

  7

 40
1.0
 41
2.5
 42
1.0
 43
7.0
 44
0.5
 45
0.0
 46
0.0
 47
0.0
 48
0.0
140
2.5
141
2.5
142
0.0
143
0.03937007874016
144
1.0
145
0.0
146
1.0
147
0.625
 71
     0
 72
     0
 73
     0
 74
     0
 75
     0
 76
     0
 77
     1
 78
     8
170
     0
171
     3
172
     1
173
     0
174
     1
175
     0
176
   144
177
   144
178
     7
270
     2
271
     1
272
     1
273
     2
274
     3
340
18E
275
     0
280
     0
281
     0
282
     0
283
     2
284
     8
285
     0
286
     0
287
     5
288
     0
  0
DIMSTYLE
105
3E9
330
A
100
AcDbSymbolTableRecord
100
AcDbDimStyleTableRecord
  2
ADD$6
 70
     0
  3

  4

  5

  6

  7

 40
1.0
 41
2.5
 42
1.0
 43
7.0
 44
0.5
 45
0.0
 46
0.0
 47
0.0
 48
0.0
140
2.5
141
2.5
142
0.0
143
0.03937007874016
144
1.0
145
0.0
146
1.0
147
0.625
 71
     0
 72
     0
 73
     0
 74
     0
 75
     0
 76
     0
 77
     1
 78
     8
170
     0
171
     3
172
     1
173
     0
174
     1
175
     0
176
   144
177
   144
178
     7
270
     2
271
     1
272
     1
273
     2
274
     3
340
18E
275
     0
280
     0
281
     0
282
     0
283
     2
284
     8
285
     0
286
     0
287
     5
288
     0
  0
DIMSTYLE
105
3EA
330
A
100
AcDbSymbolTableRecord
100
AcDbDimStyleTableRecord
  2
ADD$7
 70
     0
  3

  4

  5

  6

  7

 40
1.0
 41
2.5
 42
1.0
 43
7.0
 44
0.5
 45
0.0
 46
0.0
 47
0.0
 48
0.0
140
2.5
141
2.5
142
0.0
143
0.03937007874016
144
1.0
145
0.0
146
1.0
147
0.625
 71
     0
 72
     0
 73
     0
 74
     0
 75
     0
 76
     0
 77
     0
 78
     8
170
     0
171
     3
172
     1
173
     0
174
     1
175
     0
176
   144
177
   144
178
     7
270
     2
271
     1
272
     1
273
     2
274
     3
340
18E
275
     0
280
     0
281
     0
282
     0
283
     2
284
     8
285
     0
286
     0
287
     5
288
     0
  0
DIMSTYLE
105
518
330
A
100
AcDbSymbolTableRecord
100
AcDbDimStyleTableRecord
  2
STANDARD
 70
     0
  3

  4

  5

  6

  7

 40
1.0
 41
0.18
 42
0.0625
 43
0.38
 44
0.18
 45
0.0
 46
0.0
 47
0.0
 48
0.0
140
0.18
141
0.09
142
0.0
143
25.4
144
1.0
145
0.0
146
1.0
147
0.09
 71
     0
 72
     0
 73
     1
 74
     1
 75
     0
 76
     0
 77
     0
 78
     0
170
     0
171
     2
172
     0
173
     0
174
     0
175
     0
176
     0
177
     0
178
     0
270
     2
271
     4
272
     4
273
     2
274
     2
340
11
275
     0
280
     0
281
     0
282
     0
283
     1
284
     0
285
     0
286
     0
287
     3
288
     0
  0
DIMSTYLE
105
550
330
A
100
AcDbSymbolTableRecord
100
AcDbDimStyleTableRecord
  2
ADD$0
 70
     0
  3

  4

  5

  6

  7

 40
1.0
 41
2.5
 42
1.0
 43
7.0
 44
0.5
 45
0.0
 46
0.0
 47
0.0
 48
0.0
140
2.5
141
2.5
142
0.0
143
0.03937007874016
144
1.0
145
0.7
146
1.0
147
0.625
 71
     0
 72
     0
 73
     0
 74
     0
 75
     0
 76
     0
 77
     1
 78
     8
170
     0
171
     3
172
     1
173
     0
174
     1
175
     0
176
   144
177
   144
178
     7
270
     2
271
     1
272
     1
273
     2
274
     3
340
18E
275
     0
280
     0
281
     0
282
     0
283
     2
284
     8
285
     0
286
     0
287
     5
288
     0
  0
DIMSTYLE
105
59B
330
A
100
AcDbSymbolTableRecord
100
AcDbDimStyleTableRecord
  2
ADD_M
 70
     0
  3

  4

  5

  6

  7

 40
1.0
 41
2.5
 42
1.0
 43
7.0
 44
0.5
 45
0.0
 46
0.0
 47
0.0
 48
0.0
140
2.5
141
2.5
142
0.0
143
0.03937007874016
144
1.0
145
0.7
146
1.0
147
0.625
 71
     0
 72
     0
 73
     0
 74
     0
 75
     0
 76
     0
 77
     1
 78
     8
170
     0
171
     3
172
     1
173
     0
174
     1
175
     0
176
   144
177
   144
178
     7
270
     2
271
     1
272
     1
273
     2
274
     3
340
18E
275
     0
280
     0
281
     0
282
     0
283
     2
284
     8
285
     0
286
     0
287
     5
288
     0
  0
ENDTAB
  0
TABLE
  2
BLOCK_RECORD
  5
1
330
0
100
AcDbSymbolTable
 70
    15
  0
BLOCK_RECORD
  5
1F
102
{ACAD_XDICTIONARY
360
65D
102
}
330
1
100
AcDbSymbolTableRecord
100
AcDbBlockTableRecord
  2
*MODEL_SPACE
  0
BLOCK_RECORD
  5
1B
102
{ACAD_XDICTIONARY
360
65F
102
}
330
1
100
AcDbSymbolTableRecord
100
AcDbBlockTableRecord
  2
*PAPER_SPACE
  0
BLOCK_RECORD
  5
192
330
1
100
AcDbSymbolTableRecord
100
AcDbBlockTableRecord
  2
_DOT
  0
BLOCK_RECORD
  5
5CE
330
1
100
AcDbSymbolTableRecord
100
AcDbBlockTableRecord
  2
A4
  0
BLOCK_RECORD
  5
94A
330
1
100
AcDbSymbolTableRecord
100
AcDbBlockTableRecord
  2
*D3
  0
BLOCK_RECORD
  5
959
330
1
100
AcDbSymbolTableRecord
100
AcDbBlockTableRecord
  2
*D4
  0
BLOCK_RECORD
  5
97A
330
1
100
AcDbSymbolTableRecord
100
AcDbBlockTableRecord
  2
*D5
  0
BLOCK_RECORD
  5
989
330
1
100
AcDbSymbolTableRecord
100
AcDbBlockTableRecord
  2
*D6
  0
BLOCK_RECORD
  5
998
330
1
100
AcDbSymbolTableRecord
100
AcDbBlockTableRecord
  2
*D7
  0
BLOCK_RECORD
  5
9A5
330
1
100
AcDbSymbolTableRecord
100
AcDbBlockTableRecord
  2
*D8
  0
BLOCK_RECORD
  5
9D7
330
1
100
AcDbSymbolTableRecord
100
AcDbBlockTableRecord
  2
*D11
  0
BLOCK_RECORD
  5
9EB
330
1
100
AcDbSymbolTableRecord
100
AcDbBlockTableRecord
  2
*D12
  0
BLOCK_RECORD
  5
A12
330
1
100
AcDbSymbolTableRecord
100
AcDbBlockTableRecord
  2
*D13
  0
BLOCK_RECORD
  5
A1C
330
1
100
AcDbSymbolTableRecord
100
AcDbBlockTableRecord
  2
*D14
  0
ENDTAB
  0
ENDSEC
  0
SECTION
  2
BLOCKS
  0
BLOCK
  5
20
330
1F
100
AcDbEntity
  8
0
100
AcDbBlockBegin
  2
*MODEL_SPACE
 70
     0
 10
0.0
 20
0.0
 30
0.0
  3
*MODEL_SPACE
  1

  0
ENDBLK
  5
21
330
1F
100
AcDbEntity
  8
0
100
AcDbBlockEnd
  0
BLOCK
  5
1C
330
1B
100
AcDbEntity
 67
     1
  8
0
100
AcDbBlockBegin
  2
*PAPER_SPACE
 70
     0
 10
0.0
 20
0.0
 30
0.0
  3
*PAPER_SPACE
  1

  0
ENDBLK
  5
1D
330
1B
100
AcDbEntity
 67
     1
  8
0
100
AcDbBlockEnd
  0
BLOCK
  5
195
330
192
100
AcDbEntity
  8
0
100
AcDbBlockBegin
  2
_DOT
 70
     0
 10
0.0
 20
0.0
 30
0.0
  3
_DOT
  1

  0
POLYLINE
  5
193
330
192
100
AcDbEntity
  8
0
 62
     0
100
AcDb2dPolyline
 66
     1
 10
0.0
 20
0.0
 30
0.0
 70
     1
 40
0.5
 41
0.5
  0
VERTEX
  5
B72
330
193
100
AcDbEntity
  8
0
 62
     0
100
AcDbVertex
100
AcDb2dVertex
 10
-0.25
 20
0.0
 30
0.0
 42
1.0
  0
VERTEX
  5
B73
330
193
100
AcDbEntity
  8
0
 62
     0
100
AcDbVertex
100
AcDb2dVertex
 10
0.25
 20
0.0
 30
0.0
 42
1.0
  0
SEQEND
  5
B74
330
193
100
AcDbEntity
  8
0
 62
     0
  0
LINE
  5
194
330
192
100
AcDbEntity
  8
0
 62
     0
100
AcDbLine
 10
-0.5
 20
0.0
 30
0.0
 11
-1.0
 21
0.0
 31
0.0
  0
ENDBLK
  5
196
330
192
100
AcDbEntity
  8
0
100
AcDbBlockEnd
  0
BLOCK
  5
5D1
330
5CE
100
AcDbEntity
  8
0
100
AcDbBlockBegin
  2
A4
 70
     0
 10
0.0
 20
0.0
 30
0.0
  3
A4
  1

  0
POLYLINE
  5
5CF
330
5CE
100
AcDbEntity
  8
HOJO
100
AcDb2dPolyline
 66
     1
 10
0.0
 20
0.0
 30
0.0
 70
     1
  0
VERTEX
  5
B75
330
5CF
100
AcDbEntity
  8
HOJO
100
AcDbVertex
100
AcDb2dVertex
 10
0.0
 20
0.0
 30
0.0
  0
VERTEX
  5
B76
330
5CF
100
AcDbEntity
  8
HOJO
100
AcDbVertex
100
AcDb2dVertex
 10
297.0
 20
0.0
 30
0.0
  0
VERTEX
  5
B77
330
5CF
100
AcDbEntity
  8
HOJO
100
AcDbVertex
100
AcDb2dVertex
 10
297.0
 20
210.0
 30
0.0
  0
VERTEX
  5
B78
330
5CF
100
AcDbEntity
  8
HOJO
100
AcDbVertex
100
AcDb2dVertex
 10
0.0
 20
210.0
 30
0.0
  0
SEQEND
  5
B79
330
5CF
100
AcDbEntity
  8
HOJO
  0
POLYLINE
  5
5D0
330
5CE
100
AcDbEntity
  8
HOJO
100
AcDb2dPolyline
 66
     1
 10
0.0
 20
0.0
 30
0.0
 70
     1
  0
VERTEX
  5
B7A
330
5D0
100
AcDbEntity
  8
HOJO
100
AcDbVertex
100
AcDb2dVertex
 10
18.0
 20
13.0
 30
0.0
  0
VERTEX
  5
B7B
330
5D0
100
AcDbEntity
  8
HOJO
100
AcDbVertex
100
AcDb2dVertex
 10
279.0
 20
13.0
 30
0.0
  0
VERTEX
  5
B7C
330
5D0
100
AcDbEntity
  8
HOJO
100
AcDbVertex
100
AcDb2dVertex
 10
279.0
 20
197.0
 30
0.0
  0
VERTEX
  5
B7D
330
5D0
100
AcDbEntity
  8
HOJO
100
AcDbVertex
100
AcDb2dVertex
 10
18.0
 20
197.0
 30
0.0
  0
SEQEND
  5
B7E
330
5D0
100
AcDbEntity
  8
HOJO
  0
ENDBLK
  5
5D2
330
5CE
100
AcDbEntity
  8
0
100
AcDbBlockEnd
  0
BLOCK
  5
956
330
94A
100
AcDbEntity
  8
0
100
AcDbBlockBegin
  2
*D3
 70
     1
 10
0.0
 20
0.0
 30
0.0
  3
*D3
  1

  0
LINE
  5
94B
330
94A
100
AcDbEntity
  8
SUNPO
 62
   144
100
AcDbLine
 10
2013.46943212366
 20
2312.611406092286
 30
0.0
 11
2013.46943212366
 21
2421.219928851998
 31
0.0
  0
LINE
  5
94C
330
94A
100
AcDbEntity
  8
SUNPO
 62
   144
100
AcDbLine
 10
2113.46943212366
 20
2292.611406092285
 30
0.0
 11
2113.46943212366
 21
2421.219928851998
 31
0.0
  0
LINE
  5
94D
330
94A
100
AcDbEntity
  8
SUNPO
 62
   144
100
AcDbLine
 10
1993.46943212366
 20
2411.219928851998
 30
0.0
 11
1973.46943212366
 21
2411.219928851998
 31
0.0
  0
LINE
  5
94E
330
94A
100
AcDbEntity
  8
SUNPO
 62
   144
100
AcDbLine
 10
2133.46943212366
 20
2411.219928851998
 30
0.0
 11
2153.46943212366
 21
2411.219928851998
 31
0.0
  0
LINE
  5
94F
330
94A
100
AcDbEntity
  8
SUNPO
 62
   144
100
AcDbLine
 10
2013.46943212366
 20
2411.219928851998
 30
0.0
 11
2113.46943212366
 21
2411.219928851998
 31
0.0
  0
SOLID
  5
950
330
94A
100
AcDbEntity
  8
SUNPO
 62
   144
100
AcDbTrace
 10
1993.46943212366
 20
2414.553262185332
 30
0.0
 11
1993.46943212366
 21
2407.886595518665
 31
0.0
 12
2013.46943212366
 22
2411.219928851998
 32
0.0
 13
2013.46943212366
 23
2411.219928851998
 33
0.0
  0
SOLID
  5
951
330
94A
100
AcDbEntity
  8
SUNPO
 62
   144
100
AcDbTrace
 10
2133.46943212366
 20
2414.553262185332
 30
0.0
 11
2133.46943212366
 21
2407.886595518665
 31
0.0
 12
2113.46943212366
 22
2411.219928851998
 32
0.0
 13
2113.46943212366
 23
2411.219928851998
 33
0.0
  0
MTEXT
  5
952
330
94A
100
AcDbEntity
  8
SUNPO
 62
     7
100
AcDbMText
 10
2063.46943212366
 20
2443.719928851999
 30
0.0
 40
40.0
 41
0.0
 71
     5
 72
     1
  1
\A2;100
  7
ADD
1001
ACAD
1000
MTEXTBEGIN
1070
    73
1070
     1
1070
    44
1040
1.0
1070
    74
1070
     0
1000
MTEXTEND
1000
MTEXTBEGIN
1070
    73
1070
     1
1070
    44
1040
1.0
1070
    74
1070
     0
1000
MTEXTEND
  0
POINT
  5
953
330
94A
100
AcDbEntity
  8
DEFPOINTS
 62
     0
100
AcDbPoint
 10
2013.46943212366
 20
2292.611406092286
 30
0.0
  0
POINT
  5
954
330
94A
100
AcDbEntity
  8
DEFPOINTS
 62
     0
100
AcDbPoint
 10
2113.46943212366
 20
2272.611406092285
 30
0.0
  0
POINT
  5
955
330
94A
100
AcDbEntity
  8
DEFPOINTS
 62
     0
100
AcDbPoint
 10
2113.46943212366
 20
2411.219928851998
 30
0.0
  0
ENDBLK
  5
957
330
94A
100
AcDbEntity
  8
0
100
AcDbBlockEnd
  0
BLOCK
  5
963
330
959
100
AcDbEntity
  8
0
100
AcDbBlockBegin
  2
*D4
 70
     1
 10
0.0
 20
0.0
 30
0.0
  3
*D4
  1

  0
LINE
  5
95A
330
959
100
AcDbEntity
  8
SUNPO
 62
   144
100
AcDbLine
 10
2113.46943212366
 20
2292.611406092285
 30
0.0
 11
2113.46943212366
 21
2421.219928851998
 31
0.0
  0
LINE
  5
95B
330
959
100
AcDbEntity
  8
SUNPO
 62
   144
100
AcDbLine
 10
2363.46943212366
 20
2237.611406092286
 30
0.0
 11
2363.46943212366
 21
2421.219928851998
 31
0.0
  0
LINE
  5
95C
330
959
100
AcDbEntity
  8
SUNPO
 62
   144
100
AcDbLine
 10
2133.46943212366
 20
2411.219928851998
 30
0.0
 11
2343.46943212366
 21
2411.219928851998
 31
0.0
  0
SOLID
  5
95D
330
959
100
AcDbEntity
  8
SUNPO
 62
   144
100
AcDbTrace
 10
2133.46943212366
 20
2414.553262185332
 30
0.0
 11
2133.46943212366
 21
2407.886595518665
 31
0.0
 12
2113.46943212366
 22
2411.219928851998
 32
0.0
 13
2113.46943212366
 23
2411.219928851998
 33
0.0
  0
SOLID
  5
95E
330
959
100
AcDbEntity
  8
SUNPO
 62
   144
100
AcDbTrace
 10
2343.46943212366
 20
2414.553262185332
 30
0.0
 11
2343.46943212366
 21
2407.886595518665
 31
0.0
 12
2363.46943212366
 22
2411.219928851998
 32
0.0
 13
2363.46943212366
 23
2411.219928851998
 33
0.0
  0
MTEXT
  5
95F
330
959
100
AcDbEntity
  8
SUNPO
 62
     7
100
AcDbMText
 10
2238.46943212366
 20
2443.719928851999
 30
0.0
 40
40.0
 41
0.0
 71
     5
 72
     1
  1
\A2;250
  7
ADD
1001
ACAD
1000
MTEXTBEGIN
1070
    73
1070
     1
1070
    44
1040
1.0
1070
    74
1070
     0
1000
MTEXTEND
1000
MTEXTBEGIN
1070
    73
1070
     1
1070
    44
1040
1.0
1070
    74
1070
     0
1000
MTEXTEND
  0
POINT
  5
960
330
959
100
AcDbEntity
  8
DEFPOINTS
 62
     0
100
AcDbPoint
 10
2113.46943212366
 20
2272.611406092285
 30
0.0
  0
POINT
  5
961
330
959
100
AcDbEntity
  8
DEFPOINTS
 62
     0
100
AcDbPoint
 10
2363.46943212366
 20
2217.611406092286
 30
0.0
  0
POINT
  5
962
330
959
100
AcDbEntity
  8
DEFPOINTS
 62
     0
100
AcDbPoint
 10
2363.46943212366
 20
2411.219928851998
 30
0.0
  0
ENDBLK
  5
964
330
959
100
AcDbEntity
  8
0
100
AcDbBlockEnd
  0
BLOCK
  5
986
330
97A
100
AcDbEntity
  8
0
100
AcDbBlockBegin
  2
*D5
 70
     1
 10
0.0
 20
0.0
 30
0.0
  3
*D5
  1

  0
LINE
  5
97B
330
97A
100
AcDbEntity
  8
SUNPO
 62
   144
100
AcDbLine
 10
2093.46943212366
 20
2192.611406092285
 30
0.0
 11
1887.270134070455
 21
2192.611406092285
 31
0.0
  0
LINE
  5
97C
330
97A
100
AcDbEntity
  8
SUNPO
 62
   144
100
AcDbLine
 10
2093.46943212366
 20
2292.611406092285
 30
0.0
 11
1887.270134070455
 21
2292.611406092285
 31
0.0
  0
LINE
  5
97D
330
97A
100
AcDbEntity
  8
SUNPO
 62
   144
100
AcDbLine
 10
1897.270134070455
 20
2172.611406092285
 30
0.0
 11
1897.270134070455
 21
2152.611406092285
 31
0.0
  0
LINE
  5
97E
330
97A
100
AcDbEntity
  8
SUNPO
 62
   144
100
AcDbLine
 10
1897.270134070455
 20
2312.611406092285
 30
0.0
 11
1897.270134070455
 21
2332.611406092286
 31
0.0
  0
LINE
  5
97F
330
97A
100
AcDbEntity
  8
SUNPO
 62
   144
100
AcDbLine
 10
1897.270134070455
 20
2192.611406092285
 30
0.0
 11
1897.270134070455
 21
2292.611406092285
 31
0.0
  0
SOLID
  5
980
330
97A
100
AcDbEntity
  8
SUNPO
 62
   144
100
AcDbTrace
 10
1893.936800737122
 20
2172.611406092285
 30
0.0
 11
1900.603467403788
 21
2172.611406092285
 31
0.0
 12
1897.270134070455
 22
2192.611406092285
 32
0.0
 13
1897.270134070455
 23
2192.611406092285
 33
0.0
  0
SOLID
  5
981
330
97A
100
AcDbEntity
  8
SUNPO
 62
   144
100
AcDbTrace
 10
1893.936800737122
 20
2312.611406092285
 30
0.0
 11
1900.603467403788
 21
2312.611406092285
 31
0.0
 12
1897.270134070455
 22
2292.611406092285
 32
0.0
 13
1897.270134070455
 23
2292.611406092285
 33
0.0
  0
MTEXT
  5
982
330
97A
100
AcDbEntity
  8
SUNPO
 62
     7
100
AcDbMText
 10
1864.770134070455
 20
2242.611406092286
 30
0.0
 40
40.0
 41
0.0
 71
     5
 72
     1
  1
\A2;100
  7
ADD
 11
0.0000000000000001
 21
1.0
 31
0.0
1001
ACAD
1000
MTEXTBEGIN
1070
    73
1070
     1
1070
    44
1040
1.0
1070
    74
1070
     0
1000
MTEXTEND
1000
MTEXTBEGIN
1070
    73
1070
     1
1070
    44
1040
1.0
1070
    74
1070
     0
1000
MTEXTEND
  0
POINT
  5
983
330
97A
100
AcDbEntity
  8
DEFPOINTS
 62
     0
100
AcDbPoint
 10
2113.46943212366
 20
2192.611406092285
 30
0.0
  0
POINT
  5
984
330
97A
100
AcDbEntity
  8
DEFPOINTS
 62
     0
100
AcDbPoint
 10
2113.46943212366
 20
2292.611406092285
 30
0.0
  0
POINT
  5
985
330
97A
100
AcDbEntity
  8
DEFPOINTS
 62
     0
100
AcDbPoint
 10
1897.270134070455
 20
2292.611406092285
 30
0.0
  0
ENDBLK
  5
987
330
97A
100
AcDbEntity
  8
0
100
AcDbBlockEnd
  0
BLOCK
  5
995
330
989
100
AcDbEntity
  8
0
100
AcDbBlockBegin
  2
*D6
 70
     1
 10
0.0
 20
0.0
 30
0.0
  3
*D6
  1

  0
LINE
  5
98A
330
989
100
AcDbEntity
  8
SUNPO
 62
   144
100
AcDbLine
 10
2073.46943212366
 20
2192.611406092285
 30
0.0
 11
1887.270134070455
 21
2192.611406092285
 31
0.0
  0
LINE
  5
98B
330
989
100
AcDbEntity
  8
SUNPO
 62
   144
100
AcDbLine
 10
1993.46943212366
 20
2137.611406092286
 30
0.0
 11
1887.270134070455
 21
2137.611406092286
 31
0.0
  0
LINE
  5
98C
330
989
100
AcDbEntity
  8
SUNPO
 62
   144
100
AcDbLine
 10
1897.270134070455
 20
2212.611406092285
 30
0.0
 11
1897.270134070455
 21
2232.611406092285
 31
0.0
  0
LINE
  5
98D
330
989
100
AcDbEntity
  8
SUNPO
 62
   144
100
AcDbLine
 10
1897.270134070455
 20
2117.611406092286
 30
0.0
 11
1897.270134070455
 21
2097.611406092286
 31
0.0
  0
LINE
  5
98E
330
989
100
AcDbEntity
  8
SUNPO
 62
   144
100
AcDbLine
 10
1897.270134070455
 20
2192.611406092285
 30
0.0
 11
1897.270134070455
 21
2137.611406092286
 31
0.0
  0
SOLID
  5
98F
330
989
100
AcDbEntity
  8
SUNPO
 62
   144
100
AcDbTrace
 10
1893.936800737122
 20
2212.611406092285
 30
0.0
 11
1900.603467403788
 21
2212.611406092285
 31
0.0
 12
1897.270134070455
 22
2192.611406092285
 32
0.0
 13
1897.270134070455
 23
2192.611406092285
 33
0.0
  0
SOLID
  5
990
330
989
100
AcDbEntity
  8
SUNPO
 62
   144
100
AcDbTrace
 10
1893.936800737122
 20
2117.611406092286
 30
0.0
 11
1900.603467403788
 21
2117.611406092286
 31
0.0
 12
1897.270134070455
 22
2137.611406092286
 32
0.0
 13
1897.270134070455
 23
2137.611406092286
 33
0.0
  0
MTEXT
  5
991
330
989
100
AcDbEntity
  8
SUNPO
 62
     7
100
AcDbMText
 10
1864.770134070455
 20
2165.111406092286
 30
0.0
 40
40.0
 41
0.0
 71
     5
 72
     1
  1
\A2;55
  7
ADD
 11
0.0000000000000001
 21
1.0
 31
0.0
1001
ACAD
1000
MTEXTBEGIN
1070
    73
1070
     1
1070
    44
1040
1.0
1070
    74
1070
     0
1000
MTEXTEND
1000
MTEXTBEGIN
1070
    73
1070
     1
1070
    44
1040
1.0
1070
    74
1070
     0
1000
MTEXTEND
  0
POINT
  5
992
330
989
100
AcDbEntity
  8
DEFPOINTS
 62
     0
100
AcDbPoint
 10
2093.46943212366
 20
2192.611406092285
 30
0.0
  0
POINT
  5
993
330
989
100
AcDbEntity
  8
DEFPOINTS
 62
     0
100
AcDbPoint
 10
2013.46943212366
 20
2137.611406092286
 30
0.0
  0
POINT
  5
994
330
989
100
AcDbEntity
  8
DEFPOINTS
 62
     0
100
AcDbPoint
 10
1897.270134070455
 20
2137.611406092286
 30
0.0
  0
ENDBLK
  5
996
330
989
100
AcDbEntity
  8
0
100
AcDbBlockEnd
  0
BLOCK
  5
9A2
330
998
100
AcDbEntity
  8
0
100
AcDbBlockBegin
  2
*D7
 70
     1
 10
0.0
 20
0.0
 30
0.0
  3
*D7
  1

  0
LINE
  5
999
330
998
100
AcDbEntity
  8
SUNPO
 62
   144
100
AcDbLine
 10
1993.46943212366
 20
2292.611406092285
 30
0.0
 11
1762.154988096033
 21
2292.611406092285
 31
0.0
  0
LINE
  5
99A
330
998
100
AcDbEntity
  8
SUNPO
 62
   144
100
AcDbLine
 10
1993.46943212366
 20
2137.611406092286
 30
0.0
 11
1762.154988096033
 21
2137.611406092286
 31
0.0
  0
LINE
  5
99B
330
998
100
AcDbEntity
  8
SUNPO
 62
   144
100
AcDbLine
 10
1772.154988096033
 20
2272.611406092285
 30
0.0
 11
1772.154988096033
 21
2157.611406092286
 31
0.0
  0
SOLID
  5
99C
330
998
100
AcDbEntity
  8
SUNPO
 62
   144
100
AcDbTrace
 10
1768.8216547627
 20
2272.611406092285
 30
0.0
 11
1775.488321429367
 21
2272.611406092285
 31
0.0
 12
1772.154988096033
 22
2292.611406092285
 32
0.0
 13
1772.154988096033
 23
2292.611406092285
 33
0.0
  0
SOLID
  5
99D
330
998
100
AcDbEntity
  8
SUNPO
 62
   144
100
AcDbTrace
 10
1768.8216547627
 20
2157.611406092286
 30
0.0
 11
1775.488321429367
 21
2157.611406092286
 31
0.0
 12
1772.154988096033
 22
2137.611406092286
 32
0.0
 13
1772.154988096033
 23
2137.611406092286
 33
0.0
  0
MTEXT
  5
99E
330
998
100
AcDbEntity
  8
SUNPO
 62
     7
100
AcDbMText
 10
1739.654988096033
 20
2215.111406092286
 30
0.0
 40
40.0
 41
0.0
 71
     5
 72
     1
  1
\A2;155
  7
ADD
 11
0.0000000000000001
 21
1.0
 31
0.0
1001
ACAD
1000
MTEXTBEGIN
1070
    73
1070
     1
1070
    44
1040
1.0
1070
    74
1070
     0
1000
MTEXTEND
1000
MTEXTBEGIN
1070
    73
1070
     1
1070
    44
1040
1.0
1070
    74
1070
     0
1000
MTEXTEND
  0
POINT
  5
99F
330
998
100
AcDbEntity
  8
DEFPOINTS
 62
     0
100
AcDbPoint
 10
2013.46943212366
 20
2292.611406092285
 30
0.0
  0
POINT
  5
9A0
330
998
100
AcDbEntity
  8
DEFPOINTS
 62
     0
100
AcDbPoint
 10
2013.46943212366
 20
2137.611406092286
 30
0.0
  0
POINT
  5
9A1
330
998
100
AcDbEntity
  8
DEFPOINTS
 62
     0
100
AcDbPoint
 10
1772.154988096033
 20
2137.611406092286
 30
0.0
  0
ENDBLK
  5
9A3
330
998
100
AcDbEntity
  8
0
100
AcDbBlockEnd
  0
BLOCK
  5
9AF
330
9A5
100
AcDbEntity
  8
0
100
AcDbBlockBegin
  2
*D8
 70
     1
 10
0.0
 20
0.0
 30
0.0
  3
*D8
  1

  0
LINE
  5
9A6
330
9A5
100
AcDbEntity
  8
SUNPO
 62
   144
100
AcDbLine
 10
2013.46943212366
 20
2117.611406092286
 30
0.0
 11
2013.46943212366
 21
2033.646643413798
 31
0.0
  0
LINE
  5
9A7
330
9A5
100
AcDbEntity
  8
SUNPO
 62
   144
100
AcDbLine
 10
2363.46943212366
 20
2117.611406092286
 30
0.0
 11
2363.46943212366
 21
2033.646643413798
 31
0.0
  0
LINE
  5
9A8
330
9A5
100
AcDbEntity
  8
SUNPO
 62
   144
100
AcDbLine
 10
2033.46943212366
 20
2043.646643413798
 30
0.0
 11
2343.46943212366
 21
2043.646643413798
 31
0.0
  0
SOLID
  5
9A9
330
9A5
100
AcDbEntity
  8
SUNPO
 62
   144
100
AcDbTrace
 10
2033.46943212366
 20
2046.979976747131
 30
0.0
 11
2033.46943212366
 21
2040.313310080465
 31
0.0
 12
2013.46943212366
 22
2043.646643413798
 32
0.0
 13
2013.46943212366
 23
2043.646643413798
 33
0.0
  0
SOLID
  5
9AA
330
9A5
100
AcDbEntity
  8
SUNPO
 62
   144
100
AcDbTrace
 10
2343.46943212366
 20
2046.979976747131
 30
0.0
 11
2343.46943212366
 21
2040.313310080465
 31
0.0
 12
2363.46943212366
 22
2043.646643413798
 32
0.0
 13
2363.46943212366
 23
2043.646643413798
 33
0.0
  0
MTEXT
  5
9AB
330
9A5
100
AcDbEntity
  8
SUNPO
 62
     7
100
AcDbMText
 10
2188.46943212366
 20
2076.146643413798
 30
0.0
 40
40.0
 41
0.0
 71
     5
 72
     1
  1
\A2;350
  7
ADD
1001
ACAD
1000
MTEXTBEGIN
1070
    73
1070
     1
1070
    44
1040
1.0
1070
    74
1070
     0
1000
MTEXTEND
1000
MTEXTBEGIN
1070
    73
1070
     1
1070
    44
1040
1.0
1070
    74
1070
     0
1000
MTEXTEND
  0
POINT
  5
9AC
330
9A5
100
AcDbEntity
  8
DEFPOINTS
 62
     0
100
AcDbPoint
 10
2013.46943212366
 20
2137.611406092286
 30
0.0
  0
POINT
  5
9AD
330
9A5
100
AcDbEntity
  8
DEFPOINTS
 62
     0
100
AcDbPoint
 10
2363.46943212366
 20
2137.611406092286
 30
0.0
  0
POINT
  5
9AE
330
9A5
100
AcDbEntity
  8
DEFPOINTS
 62
     0
100
AcDbPoint
 10
2363.46943212366
 20
2043.646643413798
 30
0.0
  0
ENDBLK
  5
9B0
330
9A5
100
AcDbEntity
  8
0
100
AcDbBlockEnd
  0
BLOCK
  5
9E3
330
9D7
100
AcDbEntity
  8
0
100
AcDbBlockBegin
  2
*D11
 70
     1
 10
0.0
 20
0.0
 30
0.0
  3
*D11
  1

  0
LINE
  5
9D8
330
9D7
100
AcDbEntity
  8
SUNPO
 62
   144
100
AcDbLine
 10
2383.46943212366
 20
2217.611406092286
 30
0.0
 11
2481.342817311412
 21
2217.611406092286
 31
0.0
  0
LINE
  5
9D9
330
9D7
100
AcDbEntity
  8
SUNPO
 62
   144
100
AcDbLine
 10
2383.46943212366
 20
2137.611406092286
 30
0.0
 11
2481.342817311412
 21
2137.611406092286
 31
0.0
  0
LINE
  5
9DA
330
9D7
100
AcDbEntity
  8
SUNPO
 62
   144
100
AcDbLine
 10
2471.342817311411
 20
2237.611406092286
 30
0.0
 11
2471.342817311411
 21
2257.611406092286
 31
0.0
  0
LINE
  5
9DB
330
9D7
100
AcDbEntity
  8
SUNPO
 62
   144
100
AcDbLine
 10
2471.342817311411
 20
2117.611406092286
 30
0.0
 11
2471.342817311411
 21
2097.611406092286
 31
0.0
  0
LINE
  5
9DC
330
9D7
100
AcDbEntity
  8
SUNPO
 62
   144
100
AcDbLine
 10
2471.342817311411
 20
2217.611406092286
 30
0.0
 11
2471.342817311411
 21
2137.611406092286
 31
0.0
  0
SOLID
  5
9DD
330
9D7
100
AcDbEntity
  8
SUNPO
 62
   144
100
AcDbTrace
 10
2468.009483978078
 20
2237.611406092286
 30
0.0
 11
2474.676150644745
 21
2237.611406092286
 31
0.0
 12
2471.342817311411
 22
2217.611406092286
 32
0.0
 13
2471.342817311411
 23
2217.611406092286
 33
0.0
  0
SOLID
  5
9DE
330
9D7
100
AcDbEntity
  8
SUNPO
 62
   144
100
AcDbTrace
 10
2468.009483978078
 20
2117.611406092286
 30
0.0
 11
2474.676150644745
 21
2117.611406092286
 31
0.0
 12
2471.342817311411
 22
2137.611406092286
 32
0.0
 13
2471.342817311411
 23
2137.611406092286
 33
0.0
  0
MTEXT
  5
9DF
330
9D7
100
AcDbEntity
  8
SUNPO
 62
     7
100
AcDbMText
 10
2438.842817311411
 20
2177.611406092287
 30
0.0
 40
40.0
 41
0.0
 71
     5
 72
     1
  1
\A2;80
  7
ADD
 11
0.0000000000000001
 21
1.0
 31
0.0
1001
ACAD
1000
MTEXTBEGIN
1070
    73
1070
     1
1070
    44
1040
1.0
1070
    74
1070
     0
1000
MTEXTEND
1000
MTEXTBEGIN
1070
    73
1070
     1
1070
    44
1040
1.0
1070
    74
1070
     0
1000
MTEXTEND
  0
POINT
  5
9E0
330
9D7
100
AcDbEntity
  8
DEFPOINTS
 62
     0
100
AcDbPoint
 10
2363.46943212366
 20
2217.611406092286
 30
0.0
  0
POINT
  5
9E1
330
9D7
100
AcDbEntity
  8
DEFPOINTS
 62
     0
100
AcDbPoint
 10
2363.46943212366
 20
2137.611406092286
 30
0.0
  0
POINT
  5
9E2
330
9D7
100
AcDbEntity
  8
DEFPOINTS
 62
     0
100
AcDbPoint
 10
2471.342817311411
 20
2137.611406092286
 30
0.0
  0
ENDBLK
  5
9E4
330
9D7
100
AcDbEntity
  8
0
100
AcDbBlockEnd
  0
BLOCK
  5
9F5
330
9EB
100
AcDbEntity
  8
0
100
AcDbBlockBegin
  2
*D12
 70
     1
 10
0.0
 20
0.0
 30
0.0
  3
*D12
  1

  0
LINE
  5
9EC
330
9EB
100
AcDbEntity
  8
SUNPO
 62
   144
100
AcDbLine
 10
3532.908644428374
 20
2117.611406092286
 30
0.0
 11
3532.908644428374
 21
2033.646643413798
 31
0.0
  0
LINE
  5
9ED
330
9EB
100
AcDbEntity
  8
SUNPO
 62
   144
100
AcDbLine
 10
2932.908644428374
 20
2117.611406092286
 30
0.0
 11
2932.908644428374
 21
2033.646643413798
 31
0.0
  0
LINE
  5
9EE
330
9EB
100
AcDbEntity
  8
SUNPO
 62
   144
100
AcDbLine
 10
3512.908644428375
 20
2043.646643413798
 30
0.0
 11
2952.908644428374
 21
2043.646643413798
 31
0.0
  0
SOLID
  5
9EF
330
9EB
100
AcDbEntity
  8
SUNPO
 62
   144
100
AcDbTrace
 10
3512.908644428375
 20
2046.979976747131
 30
0.0
 11
3512.908644428375
 21
2040.313310080465
 31
0.0
 12
3532.908644428374
 22
2043.646643413798
 32
0.0
 13
3532.908644428374
 23
2043.646643413798
 33
0.0
  0
SOLID
  5
9F0
330
9EB
100
AcDbEntity
  8
SUNPO
 62
   144
100
AcDbTrace
 10
2952.908644428374
 20
2046.979976747131
 30
0.0
 11
2952.908644428374
 21
2040.313310080465
 31
0.0
 12
2932.908644428374
 22
2043.646643413798
 32
0.0
 13
2932.908644428374
 23
2043.646643413798
 33
0.0
  0
MTEXT
  5
9F1
330
9EB
100
AcDbEntity
  8
SUNPO
 62
     7
100
AcDbMText
 10
3232.908644428374
 20
2076.146643413798
 30
0.0
 40
40.0
 41
0.0
 71
     5
 72
     1
  1
\A2;600
  7
ADD
1001
ACAD
1000
MTEXTBEGIN
1070
    73
1070
     1
1070
    44
1040
1.0
1070
    74
1070
     0
1000
MTEXTEND
1000
MTEXTBEGIN
1070
    73
1070
     1
1070
    44
1040
1.0
1070
    74
1070
     0
1000
MTEXTEND
  0
POINT
  5
9F2
330
9EB
100
AcDbEntity
  8
DEFPOINTS
 62
     0
100
AcDbPoint
 10
3532.908644428374
 20
2137.611406092286
 30
0.0
  0
POINT
  5
9F3
330
9EB
100
AcDbEntity
  8
DEFPOINTS
 62
     0
100
AcDbPoint
 10
2932.908644428374
 20
2137.611406092286
 30
0.0
  0
POINT
  5
9F4
330
9EB
100
AcDbEntity
  8
DEFPOINTS
 62
     0
100
AcDbPoint
 10
2932.908644428374
 20
2043.646643413798
 30
0.0
  0
ENDBLK
  5
9F6
330
9EB
100
AcDbEntity
  8
0
100
AcDbBlockEnd
  0
BLOCK
  5
A19
330
A12
100
AcDbEntity
  8
0
100
AcDbBlockBegin
  2
*D13
 70
     1
 10
0.0
 20
0.0
 30
0.0
  3
*D13
  1

  0
LINE
  5
A13
330
A12
100
AcDbEntity
  8
SUNPO
 62
   144
100
AcDbLine
 10
1991.312982120563
 20
2091.90297419934
 30
0.0
 11
2103.200378130605
 21
2188.5618864008
 31
0.0
  0
MTEXT
  5
A14
330
A12
100
AcDbEntity
  8
SUNPO
 62
     7
100
AcDbMText
 10
2018.443133993666
 20
2158.288718935995
 30
0.0
 40
40.0
 41
0.0
 71
     5
 72
     1
  1
\A2;R20
  7
ADD
 11
0.7567263498263714
 21
0.6537317733432087
 31
0.0
1001
ACAD
1000
MTEXTBEGIN
1070
    73
1070
     1
1070
    44
1040
1.0
1070
    74
1070
     0
1000
MTEXTEND
1000
MTEXTBEGIN
1070
    73
1070
     1
1070
    44
1040
1.0
1070
    74
1070
     0
1000
MTEXTEND
  0
LINE
  5
A15
330
A12
100
AcDbEntity
  8
SUNPO
 62
   144
100
AcDbLine
 10
2133.46943212366
 20
2214.711157334528
 30
0.0
 11
2118.334905127133
 21
2201.636521867665
 31
0.0
  0
SOLID
  5
A16
330
A12
100
AcDbEntity
  8
SUNPO
 62
   144
100
AcDbTrace
 10
2101.021272219461
 20
2191.084307566888
 30
0.0
 11
2105.379484041749
 21
2186.039465234713
 31
0.0
 12
2118.334905127133
 22
2201.636521867665
 32
0.0
 13
2118.334905127133
 23
2201.636521867665
 33
0.0
  0
POINT
  5
A17
330
A12
100
AcDbEntity
  8
DEFPOINTS
 62
     0
100
AcDbPoint
 10
2118.334905127133
 20
2201.636521867665
 30
0.0
  0
POINT
  5
A18
330
A12
100
AcDbEntity
  8
DEFPOINTS
 62
     0
100
AcDbPoint
 10
2133.46943212366
 20
2214.711157334528
 30
0.0
  0
ENDBLK
  5
A1A
330
A12
100
AcDbEntity
  8
0
100
AcDbBlockEnd
  0
BLOCK
  5
A23
330
A1C
100
AcDbEntity
  8
0
100
AcDbBlockBegin
  2
*D14
 70
     1
 10
0.0
 20
0.0
 30
0.0
  3
*D14
  1

  0
LINE
  5
A1D
330
A1C
100
AcDbEntity
  8
SUNPO
 62
   144
100
AcDbLine
 10
2257.23374287694
 20
2364.652465657851
 30
0.0
 11
2128.339399432343
 21
2292.209502425638
 31
0.0
  0
MTEXT
  5
A1E
330
A1C
100
AcDbEntity
  8
SUNPO
 62
     7
100
AcDbMText
 10
2185.580609710964
 20
2361.662356563388
 30
0.0
 40
40.0
 41
0.0
 71
     5
 72
     1
  1
\A2;R20
  7
ADD
 11
0.8717491827170819
 21
0.489952408333809
 31
0.0
1001
ACAD
1000
MTEXTBEGIN
1070
    73
1070
     1
1070
    44
1040
1.0
1070
    74
1070
     0
1000
MTEXTEND
1000
MTEXTBEGIN
1070
    73
1070
     1
1070
    44
1040
1.0
1070
    74
1070
     0
1000
MTEXTEND
  0
LINE
  5
A1F
330
A1C
100
AcDbEntity
  8
SUNPO
 62
   144
100
AcDbLine
 10
2093.469432123659
 20
2272.611406092285
 30
0.0
 11
2110.904415778001
 21
2282.410454258962
 31
0.0
  0
SOLID
  5
A20
330
A1C
100
AcDbEntity
  8
SUNPO
 62
   144
100
AcDbTrace
 10
2126.706224737897
 20
2295.115333034695
 30
0.0
 11
2129.972574126789
 21
2289.303671816581
 31
0.0
 12
2110.904415778001
 22
2282.410454258962
 32
0.0
 13
2110.904415778001
 23
2282.410454258962
 33
0.0
  0
POINT
  5
A21
330
A1C
100
AcDbEntity
  8
DEFPOINTS
 62
     0
100
AcDbPoint
 10
2110.904415778001
 20
2282.410454258962
 30
0.0
  0
POINT
  5
A22
330
A1C
100
AcDbEntity
  8
DEFPOINTS
 62
     0
100
AcDbPoint
 10
2093.469432123659
 20
2272.611406092285
 30
0.0
  0
ENDBLK
  5
A24
330
A1C
100
AcDbEntity
  8
0
100
AcDbBlockEnd
  0
ENDSEC
  0
SECTION
  2
ENTITIES
  0
LINE
  5
60A
330
1F
100
AcDbEntity
  8
HOJO
100
AcDbLine
 10
360.0
 20
260.0
 30
0.0
 11
5580.0
 21
260.0
 31
0.0
  0
LINE
  5
60B
330
1F
100
AcDbEntity
  8
HOJO
100
AcDbLine
 10
360.0
 20
560.0
 30
0.0
 11
5580.0
 21
560.0
 31
0.0
  0
LINE
  5
60C
330
1F
100
AcDbEntity
  8
HOJO
100
AcDbLine
 10
360.0
 20
260.0
 30
0.0
 11
360.0
 21
560.0
 31
0.0
  0
LINE
  5
60D
330
1F
100
AcDbEntity
  8
HOJO
100
AcDbLine
 10
2360.0
 20
260.0
 30
0.0
 11
2360.0
 21
560.0
 31
0.0
  0
LINE
  5
60F
330
1F
100
AcDbEntity
  8
HOJO
100
AcDbLine
 10
3160.0
 20
260.0
 30
0.0
 11
3160.0
 21
560.0
 31
0.0
  0
LINE
  5
610
330
1F
100
AcDbEntity
  8
HOJO
100
AcDbLine
 10
3660.0
 20
260.0
 30
0.0
 11
3660.0
 21
560.0
 31
0.0
  0
LINE
  5
928
330
1F
100
AcDbEntity
  8
3C1
100
AcDbLine
 10
2013.46943212366
 20
2137.611406092286
 30
0.0
 11
2363.46943212366
 21
2137.611406092286
 31
0.0
  0
LINE
  5
929
330
1F
100
AcDbEntity
  8
3C1
100
AcDbLine
 10
2013.46943212366
 20
2137.611406092286
 30
0.0
 11
2013.46943212366
 21
2292.611406092286
 31
0.0
  0
LINE
  5
92A
330
1F
100
AcDbEntity
  8
3C1
100
AcDbLine
 10
2013.46943212366
 20
2292.611406092286
 30
0.0
 11
2093.46943212366
 21
2292.611406092285
 31
0.0
  0
LINE
  5
92C
330
1F
100
AcDbEntity
  8
3C1
100
AcDbLine
 10
2113.46943212366
 20
2272.611406092285
 30
0.0
 11
2113.46943212366
 21
2214.711157334528
 31
0.0
  0
LINE
  5
92D
330
1F
100
AcDbEntity
  8
3C1
100
AcDbLine
 10
2363.46943212366
 20
2137.611406092286
 30
0.0
 11
2363.46943212366
 21
2217.611406092286
 31
0.0
  0
LINE
  5
92E
330
1F
100
AcDbEntity
  8
3C1
100
AcDbLine
 10
2363.46943212366
 20
2217.611406092286
 30
0.0
 11
2135.45950650408
 21
2194.810413530329
 31
0.0
  0
ARC
  5
92F
330
1F
100
AcDbEntity
  8
3C1
100
AcDbCircle
 10
2133.46943212366
 20
2214.711157334528
 30
0.0
 40
20.0
100
AcDbArc
 50
180.0
 51
275.7105931374996
  0
ARC
  5
930
330
1F
100
AcDbEntity
  8
3C1
100
AcDbCircle
 10
2093.46943212366
 20
2272.611406092285
 30
0.0
 40
20.0
100
AcDbArc
 50
0.0
 51
90.0
  0
LINE
  5
93B
330
1F
100
AcDbEntity
  8
3C1
100
AcDbLine
 10
3533.38160191469
 20
2292.611406092285
 30
0.0
 11
3532.908644428374
 21
2137.611406092286
 31
0.0
  0
LINE
  5
9E5
330
1F
100
AcDbEntity
  8
3C1
100
AcDbLine
 10
3532.908644428374
 20
2137.611406092286
 30
0.0
 11
2932.908644428374
 21
2137.611406092286
 31
0.0
  0
LINE
  5
9E6
330
1F
100
AcDbEntity
  8
3C1
100
AcDbLine
 10
3533.38160191469
 20
2292.611406092285
 30
0.0
 11
2933.381601914691
 21
2292.611406092285
 31
0.0
  0
LINE
  5
9E7
330
1F
100
AcDbEntity
  8
3C1
100
AcDbLine
 10
2932.908644428374
 20
2137.611406092286
 30
0.0
 11
2932.908644428374
 21
2217.611406092286
 31
0.0
  0
LINE
  5
9E8
330
1F
100
AcDbEntity
  8
3C1
100
AcDbLine
 10
2932.908644428374
 20
2217.611406092286
 30
0.0
 11
3532.908644428374
 21
2217.611406092286
 31
0.0
  0
LINE
  5
9E9
330
1F
100
AcDbEntity
  8
3C1
100
AcDbLine
 10
2932.908644428374
 20
2217.611406092286
 30
0.0
 11
2933.381601914691
 21
2292.611406092285
 31
0.0
  0
TEXT
  5
B16
330
1F
100
AcDbEntity
  8
MOJI
100
AcDbText
 10
2576.766649736178
 20
358.942846802196
 30
0.0
 40
80.0
  1
２５０Ａ
  7
ADD
100
AcDbText
1001
ACAD
1000
MTEXTBEGIN
1070
    73
1070
     1
1070
    44
1040
1.0
1070
    74
1070
     0
1000
MTEXTEND
  0
TEXT
  5
B17
330
1F
100
AcDbEntity
  8
MOJI
100
AcDbText
 10
479.769955436197
 20
364.6805196678378
 30
0.0
 40
80.0
  1
道路用鉄筋コンクリートＬ形側溝１種
  7
ADD
100
AcDbText
1001
ACAD
1000
MTEXTBEGIN
1070
    73
1070
     1
1070
    44
1040
1.0
1070
    74
1070
     0
1000
MTEXTEND
  0
LINE
  5
B18
330
1F
100
AcDbEntity
  8
SUNPO
 62
   144
100
AcDbLine
 10
2257.23374287694
 20
2364.652465657851
 30
0.0
 11
2128.339399432343
 21
2292.209502425638
 31
0.0
  0
LINE
  5
B1A
330
1F
100
AcDbEntity
  8
SUNPO
 62
   144
100
AcDbLine
 10
2093.469432123659
 20
2272.611406092285
 30
0.0
 11
2110.904415778001
 21
2282.410454258962
 31
0.0
  0
SOLID
  5
B1B
330
1F
100
AcDbEntity
  8
SUNPO
 62
   144
100
AcDbTrace
 10
2126.706224737897
 20
2295.115333034695
 30
0.0
 11
2129.972574126789
 21
2289.303671816581
 31
0.0
 12
2110.904415778001
 22
2282.410454258962
 32
0.0
 13
2110.904415778001
 23
2282.410454258962
 33
0.0
  0
LINE
  5
B1C
330
1F
100
AcDbEntity
  8
SUNPO
 62
   144
100
AcDbLine
 10
1991.312982120563
 20
2091.90297419934
 30
0.0
 11
2103.200378130605
 21
2188.5618864008
 31
0.0
  0
LINE
  5
B1E
330
1F
100
AcDbEntity
  8
SUNPO
 62
   144
100
AcDbLine
 10
2133.46943212366
 20
2214.711157334528
 30
0.0
 11
2118.334905127133
 21
2201.636521867665
 31
0.0
  0
SOLID
  5
B1F
330
1F
100
AcDbEntity
  8
SUNPO
 62
   144
100
AcDbTrace
 10
2101.021272219461
 20
2191.084307566888
 30
0.0
 11
2105.379484041749
 21
2186.039465234713
 31
0.0
 12
2118.334905127133
 22
2201.636521867665
 32
0.0
 13
2118.334905127133
 23
2201.636521867665
 33
0.0
  0
LINE
  5
B20
330
1F
100
AcDbEntity
  8
SUNPO
 62
   144
100
AcDbLine
 10
3532.908644428374
 20
2117.611406092286
 30
0.0
 11
3532.908644428374
 21
2033.646643413798
 31
0.0
  0
LINE
  5
B21
330
1F
100
AcDbEntity
  8
SUNPO
 62
   144
100
AcDbLine
 10
2932.908644428374
 20
2117.611406092286
 30
0.0
 11
2932.908644428374
 21
2033.646643413798
 31
0.0
  0
LINE
  5
B22
330
1F
100
AcDbEntity
  8
SUNPO
 62
   144
100
AcDbLine
 10
3512.908644428375
 20
2043.646643413798
 30
0.0
 11
2952.908644428374
 21
2043.646643413798
 31
0.0
  0
SOLID
  5
B23
330
1F
100
AcDbEntity
  8
SUNPO
 62
   144
100
AcDbTrace
 10
3512.908644428375
 20
2046.979976747131
 30
0.0
 11
3512.908644428375
 21
2040.313310080465
 31
0.0
 12
3532.908644428374
 22
2043.646643413798
 32
0.0
 13
3532.908644428374
 23
2043.646643413798
 33
0.0
  0
SOLID
  5
B24
330
1F
100
AcDbEntity
  8
SUNPO
 62
   144
100
AcDbTrace
 10
2952.908644428374
 20
2046.979976747131
 30
0.0
 11
2952.908644428374
 21
2040.313310080465
 31
0.0
 12
2932.908644428374
 22
2043.646643413798
 32
0.0
 13
2932.908644428374
 23
2043.646643413798
 33
0.0
  0
LINE
  5
B26
330
1F
100
AcDbEntity
  8
SUNPO
 62
   144
100
AcDbLine
 10
2383.46943212366
 20
2217.611406092286
 30
0.0
 11
2481.342817311412
 21
2217.611406092286
 31
0.0
  0
LINE
  5
B27
330
1F
100
AcDbEntity
  8
SUNPO
 62
   144
100
AcDbLine
 10
2383.46943212366
 20
2137.611406092286
 30
0.0
 11
2481.342817311412
 21
2137.611406092286
 31
0.0
  0
LINE
  5
B28
330
1F
100
AcDbEntity
  8
SUNPO
 62
   144
100
AcDbLine
 10
2471.342817311411
 20
2237.611406092286
 30
0.0
 11
2471.342817311411
 21
2257.611406092286
 31
0.0
  0
LINE
  5
B29
330
1F
100
AcDbEntity
  8
SUNPO
 62
   144
100
AcDbLine
 10
2471.342817311411
 20
2117.611406092286
 30
0.0
 11
2471.342817311411
 21
2097.611406092286
 31
0.0
  0
LINE
  5
B2A
330
1F
100
AcDbEntity
  8
SUNPO
 62
   144
100
AcDbLine
 10
2471.342817311411
 20
2217.611406092286
 30
0.0
 11
2471.342817311411
 21
2137.611406092286
 31
0.0
  0
SOLID
  5
B2B
330
1F
100
AcDbEntity
  8
SUNPO
 62
   144
100
AcDbTrace
 10
2468.009483978078
 20
2237.611406092286
 30
0.0
 11
2474.676150644745
 21
2237.611406092286
 31
0.0
 12
2471.342817311411
 22
2217.611406092286
 32
0.0
 13
2471.342817311411
 23
2217.611406092286
 33
0.0
  0
SOLID
  5
B2C
330
1F
100
AcDbEntity
  8
SUNPO
 62
   144
100
AcDbTrace
 10
2468.009483978078
 20
2117.611406092286
 30
0.0
 11
2474.676150644745
 21
2117.611406092286
 31
0.0
 12
2471.342817311411
 22
2137.611406092286
 32
0.0
 13
2471.342817311411
 23
2137.611406092286
 33
0.0
  0
LINE
  5
B2E
330
1F
100
AcDbEntity
  8
SUNPO
 62
   144
100
AcDbLine
 10
2013.46943212366
 20
2117.611406092286
 30
0.0
 11
2013.46943212366
 21
2033.646643413798
 31
0.0
  0
LINE
  5
B2F
330
1F
100
AcDbEntity
  8
SUNPO
 62
   144
100
AcDbLine
 10
2363.46943212366
 20
2117.611406092286
 30
0.0
 11
2363.46943212366
 21
2033.646643413798
 31
0.0
  0
LINE
  5
B30
330
1F
100
AcDbEntity
  8
SUNPO
 62
   144
100
AcDbLine
 10
2033.46943212366
 20
2043.646643413798
 30
0.0
 11
2343.46943212366
 21
2043.646643413798
 31
0.0
  0
SOLID
  5
B31
330
1F
100
AcDbEntity
  8
SUNPO
 62
   144
100
AcDbTrace
 10
2033.46943212366
 20
2046.979976747131
 30
0.0
 11
2033.46943212366
 21
2040.313310080465
 31
0.0
 12
2013.46943212366
 22
2043.646643413798
 32
0.0
 13
2013.46943212366
 23
2043.646643413798
 33
0.0
  0
SOLID
  5
B32
330
1F
100
AcDbEntity
  8
SUNPO
 62
   144
100
AcDbTrace
 10
2343.46943212366
 20
2046.979976747131
 30
0.0
 11
2343.46943212366
 21
2040.313310080465
 31
0.0
 12
2363.46943212366
 22
2043.646643413798
 32
0.0
 13
2363.46943212366
 23
2043.646643413798
 33
0.0
  0
LINE
  5
B34
330
1F
100
AcDbEntity
  8
SUNPO
 62
   144
100
AcDbLine
 10
1993.46943212366
 20
2292.611406092285
 30
0.0
 11
1762.154988096033
 21
2292.611406092285
 31
0.0
  0
LINE
  5
B35
330
1F
100
AcDbEntity
  8
SUNPO
 62
   144
100
AcDbLine
 10
1993.46943212366
 20
2137.611406092286
 30
0.0
 11
1762.154988096033
 21
2137.611406092286
 31
0.0
  0
LINE
  5
B36
330
1F
100
AcDbEntity
  8
SUNPO
 62
   144
100
AcDbLine
 10
1772.154988096033
 20
2272.611406092285
 30
0.0
 11
1772.154988096033
 21
2157.611406092286
 31
0.0
  0
SOLID
  5
B37
330
1F
100
AcDbEntity
  8
SUNPO
 62
   144
100
AcDbTrace
 10
1768.8216547627
 20
2272.611406092285
 30
0.0
 11
1775.488321429367
 21
2272.611406092285
 31
0.0
 12
1772.154988096033
 22
2292.611406092285
 32
0.0
 13
1772.154988096033
 23
2292.611406092285
 33
0.0
  0
SOLID
  5
B38
330
1F
100
AcDbEntity
  8
SUNPO
 62
   144
100
AcDbTrace
 10
1768.8216547627
 20
2157.611406092286
 30
0.0
 11
1775.488321429367
 21
2157.611406092286
 31
0.0
 12
1772.154988096033
 22
2137.611406092286
 32
0.0
 13
1772.154988096033
 23
2137.611406092286
 33
0.0
  0
LINE
  5
B3A
330
1F
100
AcDbEntity
  8
SUNPO
 62
   144
100
AcDbLine
 10
2073.46943212366
 20
2192.611406092285
 30
0.0
 11
1887.270134070455
 21
2192.611406092285
 31
0.0
  0
LINE
  5
B3B
330
1F
100
AcDbEntity
  8
SUNPO
 62
   144
100
AcDbLine
 10
1993.46943212366
 20
2137.611406092286
 30
0.0
 11
1887.270134070455
 21
2137.611406092286
 31
0.0
  0
LINE
  5
B3C
330
1F
100
AcDbEntity
  8
SUNPO
 62
   144
100
AcDbLine
 10
1897.270134070455
 20
2212.611406092285
 30
0.0
 11
1897.270134070455
 21
2232.611406092285
 31
0.0
  0
LINE
  5
B3D
330
1F
100
AcDbEntity
  8
SUNPO
 62
   144
100
AcDbLine
 10
1897.270134070455
 20
2117.611406092286
 30
0.0
 11
1897.270134070455
 21
2097.611406092286
 31
0.0
  0
LINE
  5
B3E
330
1F
100
AcDbEntity
  8
SUNPO
 62
   144
100
AcDbLine
 10
1897.270134070455
 20
2192.611406092285
 30
0.0
 11
1897.270134070455
 21
2137.611406092286
 31
0.0
  0
SOLID
  5
B3F
330
1F
100
AcDbEntity
  8
SUNPO
 62
   144
100
AcDbTrace
 10
1893.936800737122
 20
2212.611406092285
 30
0.0
 11
1900.603467403788
 21
2212.611406092285
 31
0.0
 12
1897.270134070455
 22
2192.611406092285
 32
0.0
 13
1897.270134070455
 23
2192.611406092285
 33
0.0
  0
SOLID
  5
B40
330
1F
100
AcDbEntity
  8
SUNPO
 62
   144
100
AcDbTrace
 10
1893.936800737122
 20
2117.611406092286
 30
0.0
 11
1900.603467403788
 21
2117.611406092286
 31
0.0
 12
1897.270134070455
 22
2137.611406092286
 32
0.0
 13
1897.270134070455
 23
2137.611406092286
 33
0.0
  0
LINE
  5
B42
330
1F
100
AcDbEntity
  8
SUNPO
 62
   144
100
AcDbLine
 10
2093.46943212366
 20
2192.611406092285
 30
0.0
 11
1887.270134070455
 21
2192.611406092285
 31
0.0
  0
LINE
  5
B43
330
1F
100
AcDbEntity
  8
SUNPO
 62
   144
100
AcDbLine
 10
2093.46943212366
 20
2292.611406092285
 30
0.0
 11
1887.270134070455
 21
2292.611406092285
 31
0.0
  0
LINE
  5
B44
330
1F
100
AcDbEntity
  8
SUNPO
 62
   144
100
AcDbLine
 10
1897.270134070455
 20
2172.611406092285
 30
0.0
 11
1897.270134070455
 21
2152.611406092285
 31
0.0
  0
LINE
  5
B45
330
1F
100
AcDbEntity
  8
SUNPO
 62
   144
100
AcDbLine
 10
1897.270134070455
 20
2312.611406092285
 30
0.0
 11
1897.270134070455
 21
2332.611406092286
 31
0.0
  0
LINE
  5
B46
330
1F
100
AcDbEntity
  8
SUNPO
 62
   144
100
AcDbLine
 10
1897.270134070455
 20
2192.611406092285
 30
0.0
 11
1897.270134070455
 21
2292.611406092285
 31
0.0
  0
SOLID
  5
B47
330
1F
100
AcDbEntity
  8
SUNPO
 62
   144
100
AcDbTrace
 10
1893.936800737122
 20
2172.611406092285
 30
0.0
 11
1900.603467403788
 21
2172.611406092285
 31
0.0
 12
1897.270134070455
 22
2192.611406092285
 32
0.0
 13
1897.270134070455
 23
2192.611406092285
 33
0.0
  0
SOLID
  5
B48
330
1F
100
AcDbEntity
  8
SUNPO
 62
   144
100
AcDbTrace
 10
1893.936800737122
 20
2312.611406092285
 30
0.0
 11
1900.603467403788
 21
2312.611406092285
 31
0.0
 12
1897.270134070455
 22
2292.611406092285
 32
0.0
 13
1897.270134070455
 23
2292.611406092285
 33
0.0
  0
LINE
  5
B4A
330
1F
100
AcDbEntity
  8
SUNPO
 62
   144
100
AcDbLine
 10
2113.46943212366
 20
2292.611406092285
 30
0.0
 11
2113.46943212366
 21
2421.219928851998
 31
0.0
  0
LINE
  5
B4B
330
1F
100
AcDbEntity
  8
SUNPO
 62
   144
100
AcDbLine
 10
2363.46943212366
 20
2237.611406092286
 30
0.0
 11
2363.46943212366
 21
2421.219928851998
 31
0.0
  0
LINE
  5
B4C
330
1F
100
AcDbEntity
  8
SUNPO
 62
   144
100
AcDbLine
 10
2133.46943212366
 20
2411.219928851998
 30
0.0
 11
2343.46943212366
 21
2411.219928851998
 31
0.0
  0
SOLID
  5
B4D
330
1F
100
AcDbEntity
  8
SUNPO
 62
   144
100
AcDbTrace
 10
2133.46943212366
 20
2414.553262185332
 30
0.0
 11
2133.46943212366
 21
2407.886595518665
 31
0.0
 12
2113.46943212366
 22
2411.219928851998
 32
0.0
 13
2113.46943212366
 23
2411.219928851998
 33
0.0
  0
SOLID
  5
B4E
330
1F
100
AcDbEntity
  8
SUNPO
 62
   144
100
AcDbTrace
 10
2343.46943212366
 20
2414.553262185332
 30
0.0
 11
2343.46943212366
 21
2407.886595518665
 31
0.0
 12
2363.46943212366
 22
2411.219928851998
 32
0.0
 13
2363.46943212366
 23
2411.219928851998
 33
0.0
  0
LINE
  5
B50
330
1F
100
AcDbEntity
  8
SUNPO
 62
   144
100
AcDbLine
 10
2013.46943212366
 20
2312.611406092286
 30
0.0
 11
2013.46943212366
 21
2421.219928851998
 31
0.0
  0
LINE
  5
B51
330
1F
100
AcDbEntity
  8
SUNPO
 62
   144
100
AcDbLine
 10
2113.46943212366
 20
2292.611406092285
 30
0.0
 11
2113.46943212366
 21
2421.219928851998
 31
0.0
  0
LINE
  5
B52
330
1F
100
AcDbEntity
  8
SUNPO
 62
   144
100
AcDbLine
 10
1993.46943212366
 20
2411.219928851998
 30
0.0
 11
1973.46943212366
 21
2411.219928851998
 31
0.0
  0
LINE
  5
B53
330
1F
100
AcDbEntity
  8
SUNPO
 62
   144
100
AcDbLine
 10
2133.46943212366
 20
2411.219928851998
 30
0.0
 11
2153.46943212366
 21
2411.219928851998
 31
0.0
  0
LINE
  5
B54
330
1F
100
AcDbEntity
  8
SUNPO
 62
   144
100
AcDbLine
 10
2013.46943212366
 20
2411.219928851998
 30
0.0
 11
2113.46943212366
 21
2411.219928851998
 31
0.0
  0
SOLID
  5
B55
330
1F
100
AcDbEntity
  8
SUNPO
 62
   144
100
AcDbTrace
 10
1993.46943212366
 20
2414.553262185332
 30
0.0
 11
1993.46943212366
 21
2407.886595518665
 31
0.0
 12
2013.46943212366
 22
2411.219928851998
 32
0.0
 13
2013.46943212366
 23
2411.219928851998
 33
0.0
  0
SOLID
  5
B56
330
1F
100
AcDbEntity
  8
SUNPO
 62
   144
100
AcDbTrace
 10
2133.46943212366
 20
2414.553262185332
 30
0.0
 11
2133.46943212366
 21
2407.886595518665
 31
0.0
 12
2113.46943212366
 22
2411.219928851998
 32
0.0
 13
2113.46943212366
 23
2411.219928851998
 33
0.0
  0
TEXT
  5
B58
330
1F
100
AcDbEntity
  8
MOJI
100
AcDbText
 10
3246.680311730542
 20
359.2274732162223
 30
0.0
 40
70.0
  1
１／２０
  7
ADD
100
AcDbText
1001
ACAD
1000
MTEXTBEGIN
1070
    73
1070
     1
1070
    44
1040
1.0
1070
    74
1070
     0
1000
MTEXTEND
1000
MTEXTBEGIN
1070
    73
1070
     1
1070
    44
1040
1.0
1070
    74
1070
     0
1000
MTEXTEND
1000
MTEXTBEGIN
1070
    73
1070
     1
1070
    44
1040
1.0
1070
    74
1070
     0
1000
MTEXTEND
1000
MTEXTBEGIN
1070
    73
1070
     1
1070
    44
1040
1.0
1070
    74
1070
     0
1000
MTEXTEND
1000
MTEXTBEGIN
1070
    73
1070
     1
1070
    44
1040
1.0
1070
    74
1070
     0
1000
MTEXTEND
1000
MTEXTBEGIN
1070
    73
1070
     1
1070
    44
1040
1.0
1070
    74
1070
     0
1000
MTEXTEND
  0
TEXT
  5
B59
330
1F
100
AcDbEntity
  8
MOJI
100
AcDbText
 10
381.8862574011546
 20
488.6918916770627
 30
0.0
 40
50.0
  1
製品名
  7
ADD
100
AcDbText
1001
ACAD
1000
MTEXTBEGIN
1070
    73
1070
     1
1070
    44
1040
1.0
1070
    74
1070
     0
1000
MTEXTEND
1000
MTEXTBEGIN
1070
    73
1070
     1
1070
    44
1040
1.0
1070
    74
1070
     0
1000
MTEXTEND
1000
MTEXTBEGIN
1070
    73
1070
     1
1070
    44
1040
1.0
1070
    74
1070
     0
1000
MTEXTEND
1000
MTEXTBEGIN
1070
    73
1070
     1
1070
    44
1040
1.0
1070
    74
1070
     0
1000
MTEXTEND
1000
MTEXTBEGIN
1070
    73
1070
     1
1070
    44
1040
1.0
1070
    74
1070
     0
1000
MTEXTEND
1000
MTEXTBEGIN
1070
    73
1070
     1
1070
    44
1040
1.0
1070
    74
1070
     0
1000
MTEXTEND
  0
TEXT
  5
B5A
330
1F
100
AcDbEntity
  8
MOJI
100
AcDbText
 10
2376.290169028722
 20
494.4531736811823
 30
0.0
 40
50.0
  1
型式
  7
ADD
100
AcDbText
1001
ACAD
1000
MTEXTBEGIN
1070
    73
1070
     1
1070
    44
1040
1.0
1070
    74
1070
     0
1000
MTEXTEND
1000
MTEXTBEGIN
1070
    73
1070
     1
1070
    44
1040
1.0
1070
    74
1070
     0
1000
MTEXTEND
1000
MTEXTBEGIN
1070
    73
1070
     1
1070
    44
1040
1.0
1070
    74
1070
     0
1000
MTEXTEND
1000
MTEXTBEGIN
1070
    73
1070
     1
1070
    44
1040
1.0
1070
    74
1070
     0
1000
MTEXTEND
1000
MTEXTBEGIN
1070
    73
1070
     1
1070
    44
1040
1.0
1070
    74
1070
     0
1000
MTEXTEND
1000
MTEXTBEGIN
1070
    73
1070
     1
1070
    44
1040
1.0
1070
    74
1070
     0
1000
MTEXTEND
  0
TEXT
  5
B5B
330
1F
100
AcDbEntity
  8
MOJI
100
AcDbText
 10
3177.510249231658
 20
488.6918916770627
 30
0.0
 40
50.0
  1
縮尺
  7
ADD
100
AcDbText
1001
ACAD
1000
MTEXTBEGIN
1070
    73
1070
     1
1070
    44
1040
1.0
1070
    74
1070
     0
1000
MTEXTEND
1000
MTEXTBEGIN
1070
    73
1070
     1
1070
    44
1040
1.0
1070
    74
1070
     0
1000
MTEXTEND
1000
MTEXTBEGIN
1070
    73
1070
     1
1070
    44
1040
1.0
1070
    74
1070
     0
1000
MTEXTEND
1000
MTEXTBEGIN
1070
    73
1070
     1
1070
    44
1040
1.0
1070
    74
1070
     0
1000
MTEXTEND
1000
MTEXTBEGIN
1070
    73
1070
     1
1070
    44
1040
1.0
1070
    74
1070
     0
1000
MTEXTEND
1000
MTEXTBEGIN
1070
    73
1070
     1
1070
    44
1040
1.0
1070
    74
1070
     0
1000
MTEXTEND
  0
TEXT
  5
B5C
330
1F
100
AcDbEntity
  8
MOJI
100
AcDbText
 10
3730.870883051572
 20
352.2726133092145
 30
0.0
 40
100.0
  1
千葉県コンクリート製品協同組合
  7
ADD
100
AcDbText
1001
ACAD
1000
MTEXTBEGIN
1070
    73
1070
     1
1070
    44
1040
1.0
1070
    74
1070
     0
1000
MTEXTEND
1000
MTEXTBEGIN
1070
    73
1070
     1
1070
    44
1040
1.0
1070
    74
1070
     0
1000
MTEXTEND
1000
MTEXTBEGIN
1070
    73
1070
     1
1070
    44
1040
1.0
1070
    74
1070
     0
1000
MTEXTEND
1000
MTEXTBEGIN
1070
    73
1070
     1
1070
    44
1040
1.0
1070
    74
1070
     0
1000
MTEXTEND
1000
MTEXTBEGIN
1070
    73
1070
     1
1070
    44
1040
1.0
1070
    74
1070
     0
1000
MTEXTEND
1000
MTEXTBEGIN
1070
    73
1070
     1
1070
    44
1040
1.0
1070
    74
1070
     0
1000
MTEXTEND
  0
LINE
  5
B5D
330
1F
100
AcDbEntity
  8
HOJO
100
AcDbLine
 10
360.0
 20
260.0
 30
0.0
 11
5580.0
 21
260.0
 31
0.0
  0
LINE
  5
B5E
330
1F
100
AcDbEntity
  8
HOJO
100
AcDbLine
 10
5580.0
 20
260.0
 30
0.0
 11
5580.0
 21
3940.0
 31
0.0
  0
LINE
  5
B5F
330
1F
100
AcDbEntity
  8
HOJO
100
AcDbLine
 10
5580.0
 20
3940.0
 30
0.0
 11
360.0
 21
3940.0
 31
0.0
  0
LINE
  5
B60
330
1F
100
AcDbEntity
  8
HOJO
100
AcDbLine
 10
360.0
 20
3940.0
 30
0.0
 11
360.0
 21
260.0
 31
0.0
  0
LINE
  5
B61
330
1F
100
AcDbEntity
  8
HOJO
100
AcDbLine
 10
0.0
 20
0.0
 30
0.0
 11
5940.0
 21
0.0
 31
0.0
  0
LINE
  5
B62
330
1F
100
AcDbEntity
  8
HOJO
100
AcDbLine
 10
5940.0
 20
0.0
 30
0.0
 11
5940.0
 21
4200.0
 31
0.0
  0
LINE
  5
B63
330
1F
100
AcDbEntity
  8
HOJO
100
AcDbLine
 10
5940.0
 20
4200.0
 30
0.0
 11
0.0
 21
4200.0
 31
0.0
  0
LINE
  5
B64
330
1F
100
AcDbEntity
  8
HOJO
100
AcDbLine
 10
0.0
 20
4200.0
 30
0.0
 11
0.0
 21
0.0
 31
0.0
  0
TEXT
  5
B65
330
1F
100
AcDbEntity
  8
MOJI
 62
     7
100
AcDbText
 10
2003.46943212366
 20
2423.719928851999
 30
0.0
 40
40.0
  1
100
  7
ADD
100
AcDbText
1001
ACAD
1000
MTEXTBEGIN
1070
    73
1070
     1
1070
    44
1040
1.0
1070
    74
1070
     0
1000
MTEXTEND
  0
TEXT
  5
B66
330
1F
100
AcDbEntity
  8
MOJI
 62
     7
100
AcDbText
 10
2181.326574980802
 20
2423.719928851999
 30
0.0
 40
40.0
  1
250
  7
ADD
100
AcDbText
1001
ACAD
1000
MTEXTBEGIN
1070
    73
1070
     1
1070
    44
1040
1.0
1070
    74
1070
     0
1000
MTEXTEND
  0
TEXT
  5
B67
330
1F
100
AcDbEntity
  8
MOJI
 62
     7
100
AcDbText
 10
1884.770134070454
 20
2182.611406092286
 30
0.0
 40
40.0
  1
100
 50
90.0
  7
ADD
100
AcDbText
1001
ACAD
1000
MTEXTBEGIN
1070
    73
1070
     1
1070
    44
1040
1.0
1070
    74
1070
     0
1000
MTEXTEND
  0
TEXT
  5
B68
330
1F
100
AcDbEntity
  8
MOJI
 62
     7
100
AcDbText
 10
1884.770134070454
 20
2127.016167997048
 30
0.0
 40
40.0
  1
55
 50
90.0
  7
ADD
100
AcDbText
1001
ACAD
1000
MTEXTBEGIN
1070
    73
1070
     1
1070
    44
1040
1.0
1070
    74
1070
     0
1000
MTEXTEND
  0
TEXT
  5
B69
330
1F
100
AcDbEntity
  8
MOJI
 62
     7
100
AcDbText
 10
1759.654988096033
 20
2155.111406092286
 30
0.0
 40
40.0
  1
155
 50
90.0
  7
ADD
100
AcDbText
1001
ACAD
1000
MTEXTBEGIN
1070
    73
1070
     1
1070
    44
1040
1.0
1070
    74
1070
     0
1000
MTEXTEND
  0
TEXT
  5
B6A
330
1F
100
AcDbEntity
  8
MOJI
 62
     7
100
AcDbText
 10
2131.326574980803
 20
2056.146643413798
 30
0.0
 40
40.0
  1
350
  7
ADD
100
AcDbText
1001
ACAD
1000
MTEXTBEGIN
1070
    73
1070
     1
1070
    44
1040
1.0
1070
    74
1070
     0
1000
MTEXTEND
  0
TEXT
  5
B6B
330
1F
100
AcDbEntity
  8
MOJI
 62
     7
100
AcDbText
 10
2458.842817311411
 20
2139.516167997049
 30
0.0
 40
40.0
  1
80
 50
90.0
  7
ADD
100
AcDbText
1001
ACAD
1000
MTEXTBEGIN
1070
    73
1070
     1
1070
    44
1040
1.0
1070
    74
1070
     0
1000
MTEXTEND
  0
TEXT
  5
B6C
330
1F
100
AcDbEntity
  8
MOJI
 62
     7
100
AcDbText
 10
3174.813406333136
 20
2056.146643413798
 30
0.0
 40
40.0
  1
600
  7
ADD
100
AcDbText
1001
ACAD
1000
MTEXTBEGIN
1070
    73
1070
     1
1070
    44
1040
1.0
1070
    74
1070
     0
1000
MTEXTEND
  0
TEXT
  5
B6D
330
1F
100
AcDbEntity
  8
MOJI
 62
     7
100
AcDbText
 10
1986.834880232688
 20
2104.552887227774
 30
0.0
 40
40.0
  1
R20
 50
40.82355610527931
  7
ADD
100
AcDbText
1001
ACAD
1000
MTEXTBEGIN
1070
    73
1070
     1
1070
    44
1040
1.0
1070
    74
1070
     0
1000
MTEXTEND
  0
TEXT
  5
B6E
330
1F
100
AcDbEntity
  8
MOJI
 62
     7
100
AcDbText
 10
2143.904944231489
 20
2315.296849750288
 30
0.0
 40
40.0
  1
R20
 50
29.33745356125206
  7
ADD
100
AcDbText
1001
ACAD
1000
MTEXTBEGIN
1070
    73
1070
     1
1070
    44
1040
1.0
1070
    74
1070
     0
1000
MTEXTEND
  0
VIEWPORT
  5
72
330
1B
100
AcDbEntity
 67
     1
  8
0
100
AcDbViewport
 10
429.8380103383459
 20
277.0
 30
0.0
 40
948.9782706766918
 41
628.4520000000001
 68
     1
 69
     1
1001
ACAD
1000
MVIEW
1002
{
1070
    16
1010
0.0
1020
0.0
1030
0.0
1010
0.0
1020
0.0
1030
1.0
1040
0.0
1040
628.4520000000001
1040
429.8380103383459
1040
277.0
1040
50.0
1040
0.0
1040
0.0
1070
     0
1070
   100
1070
     1
1070
     1
1070
     0
1070
     0
1070
     0
1070
     0
1040
0.0
1040
0.0
1040
0.0
1040
10.0
1040
10.0
1040
10.0
1040
10.0
1070
     0
1002
{
1002
}
1002
}
  0
VIEWPORT
  5
74
330
1B
100
AcDbEntity
 67
     1
  8
VIEWPORT
100
AcDbViewport
 10
414.3779638919211
 20
277.3177265058034
 30
0.0
 40
840.0353682728887
 41
567.2285469943826
 68
     2
 69
     2
1001
ACAD
1000
MVIEW
1002
{
1070
    16
1010
0.0
1020
0.0
1030
0.0
1010
0.0
1020
0.0
1030
1.0
1040
0.0
1040
579.5583043546323
1040
424.4938908624541
1040
286.1973242720074
1040
50.0
1040
0.0
1040
0.0
1070
     0
1070
   100
1070
     1
1070
     1
1070
     0
1070
     0
1070
     0
1070
     0
1040
0.0
1040
0.0
1040
0.0
1040
10.0
1040
10.0
1040
10.0
1040
10.0
1070
     0
1002
{
1002
}
1002
}
  0
ENDSEC
  0
SECTION
  2
OBJECTS
  0
DICTIONARY
  5
C
330
0
100
AcDbDictionary
  3
ACAD_GROUP
350
D
  3
ACAD_LAYOUT
350
1A
  3
ACAD_MLINESTYLE
350
17
  3
ACAD_PLOTSETTINGS
350
19
  3
DWGPROPS
350
4C7
1001
ACAD
1000
TREAT_AS_HARD
1070
     0
  0
DICTIONARY
  5
65D
330
1F
100
AcDbDictionary
  3
ACAD_LAYOUTSELFREF
350
B71
1001
ACAD
1000
TREAT_AS_HARD
1070
     1
  0
DICTIONARY
  5
65F
330
1B
100
AcDbDictionary
  3
ACAD_LAYOUTSELFREF
350
B70
1001
ACAD
1000
TREAT_AS_HARD
1070
     1
  0
DICTIONARY
  5
D
102
{ACAD_REACTORS
330
C
102
}
330
C
100
AcDbDictionary
1001
ACAD
1000
TREAT_AS_HARD
1070
     0
  0
DICTIONARY
  5
1A
102
{ACAD_REACTORS
330
C
102
}
330
C
100
AcDbDictionary
1001
ACAD
1000
TREAT_AS_HARD
1070
     0
  0
DICTIONARY
  5
17
102
{ACAD_REACTORS
330
C
102
}
330
C
100
AcDbDictionary
  3
STANDARD
350
18
1001
ACAD
1000
TREAT_AS_HARD
1070
     0
  0
DICTIONARY
  5
19
102
{ACAD_REACTORS
330
C
102
}
330
C
100
AcDbDictionary
1001
ACAD
1000
TREAT_AS_HARD
1070
     0
  0
XRECORD
  5
4C7
102
{ACAD_REACTORS
330
C
102
}
330
C
100
AcDbXrecord
  1
DWGPROPS COOKIE
  2
印刷用テスト
  3
AutoCAD2000による建築設計
  4
鈴木 裕二
  6

  7

  8
U2
  9

300
=
301
=
302
=
303
=
304
=
305
=
306
=
307
=
308
=
309
=
 40
0.7653446875
 41
2451285.4846114
 42
2451333.689743032
  1

 90
        0
  0
XRECORD
  5
B71
102
{ACAD_REACTORS
330
65D
102
}
330
65D
100
AcDbXrecord
340
1F
  0
XRECORD
  5
B70
102
{ACAD_REACTORS
330
65F
102
}
330
65F
100
AcDbXrecord
340
1B
  0
MLINESTYLE
  5
18
102
{ACAD_REACTORS
330
17
102
}
330
17
100
AcDbMlineStyle
  2
STANDARD
 70
     0
  3

 62
   256
 51
90.0
 52
90.0
 71
     2
 49
0.5
 62
   256
  6
BYLAYER
 49
-0.5
 62
   256
  6
BYLAYER
  0
ENDSEC
  0
EOF
