  0
SECTION
  2
HEADER
  9
$ACADVER
  1
AC1012
  9
$DWGCODEPAGE
  3
dos932
  9
$INSBASE
 10
0.0
 20
0.0
 30
0.0
  9
$EXTMIN
 10
-0.1812605841350887
 20
-0.1281640493871237
 30
-0.0015258207003583
  9
$EXTMAX
 10
5940.181288244414
 20
4200.128183607161
 30
0.0000000349246037
  9
$LIMMIN
 10
0.0
 20
0.0
  9
$LIMMAX
 10
5940.0
 20
4200.0
  9
$ORTHOMODE
 70
     0
  9
$REGENMODE
 70
     1
  9
$FILLMODE
 70
     1
  9
$QTEXTMODE
 70
     0
  9
$MIRRTEXT
 70
     0
  9
$DRAGMODE
 70
     2
  9
$LTSCALE
 40
10.0
  9
$OSMODE
 70
    39
  9
$ATTMODE
 70
     1
  9
$TEXTSIZE
 40
50.0
  9
$TRACEWID
 40
1.0
  9
$TEXTSTYLE
  7
ADD
  9
$CLAYER
  8
SUNPO
  9
$CELTYPE
  6
BYLAYER
  9
$CECOLOR
 62
   256
  9
$CELTSCALE
 40
1.0
  9
$DELOBJ
 70
     1
  9
$DISPSILH
 70
     0
  9
$DIMSCALE
 40
20.0
  9
$DIMASZ
 40
1.0
  9
$DIMEXO
 40
1.0
  9
$DIMDLI
 40
7.0
  9
$DIMRND
 40
0.0
  9
$DIMDLE
 40
0.0
  9
$DIMEXE
 40
0.5
  9
$DIMTP
 40
0.0
  9
$DIMTM
 40
0.0
  9
$DIMTXT
 40
2.0
  9
$DIMCEN
 40
1.0
  9
$DIMTSZ
 40
0.0
  9
$DIMTOL
 70
     0
  9
$DIMLIM
 70
     0
  9
$DIMTIH
 70
     0
  9
$DIMTOH
 70
     0
  9
$DIMSE1
 70
     0
  9
$DIMSE2
 70
     0
  9
$DIMTAD
 70
     1
  9
$DIMZIN
 70
     8
  9
$DIMBLK
  1

  9
$DIMASO
 70
     1
  9
$DIMSHO
 70
     1
  9
$DIMPOST
  1

  9
$DIMAPOST
  1

  9
$DIMALT
 70
     0
  9
$DIMALTD
 70
     3
  9
$DIMALTF
 40
0.03937007874016
  9
$DIMLFAC
 40
1.0
  9
$DIMTOFL
 70
     1
  9
$DIMTVP
 40
0.7
  9
$DIMTIX
 70
     1
  9
$DIMSOXD
 70
     0
  9
$DIMSAH
 70
     0
  9
$DIMBLK1
  1

  9
$DIMBLK2
  1

  9
$DIMSTYLE
  2
ADD
  9
$DIMCLRD
 70
   144
  9
$DIMCLRE
 70
   144
  9
$DIMCLRT
 70
     7
  9
$DIMTFAC
 40
1.0
  9
$DIMGAP
 40
0.625
  9
$DIMJUST
 70
     0
  9
$DIMSD1
 70
     0
  9
$DIMSD2
 70
     0
  9
$DIMTOLJ
 70
     2
  9
$DIMTZIN
 70
     8
  9
$DIMALTZ
 70
     0
  9
$DIMALTTZ
 70
     0
  9
$DIMFIT
 70
     5
  9
$DIMUPT
 70
     0
  9
$DIMUNIT
 70
     2
  9
$DIMDEC
 70
     1
  9
$DIMTDEC
 70
     1
  9
$DIMALTU
 70
     2
  9
$DIMALTTD
 70
     3
  9
$DIMTXSTY
  7
ADD
  9
$DIMAUNIT
 70
     0
  9
$LUNITS
 70
     2
  9
$LUPREC
 70
     4
  9
$SKETCHINC
 40
1.0
  9
$FILLETRAD
 40
20.0
  9
$AUNITS
 70
     0
  9
$AUPREC
 70
     1
  9
$MENU
  1
.
  9
$ELEVATION
 40
0.0
  9
$PELEVATION
 40
0.0
  9
$THICKNESS
 40
0.0
  9
$LIMCHECK
 70
     0
  9
$BLIPMODE
 70
     0
  9
$CHAMFERA
 40
10.0
  9
$CHAMFERB
 40
10.0
  9
$CHAMFERC
 40
20.0
  9
$CHAMFERD
 40
0.0
  9
$SKPOLY
 70
     0
  9
$TDCREATE
 40
2451801.142532870
  9
$TDUPDATE
 40
2452179.700197870
  9
$TDINDWG
 40
0.1409581944
  9
$TDUSRTIMER
 40
0.1409583102
  9
$USRTIMER
 70
     1
  9
$ANGBASE
 50
0.0
  9
$ANGDIR
 70
     0
  9
$PDMODE
 70
     0
  9
$PDSIZE
 40
0.0
  9
$PLINEWID
 40
0.0
  9
$COORDS
 70
     1
  9
$SPLFRAME
 70
     0
  9
$SPLINETYPE
 70
     6
  9
$SPLINESEGS
 70
     8
  9
$ATTDIA
 70
     0
  9
$ATTREQ
 70
     1
  9
$HANDLING
 70
-16383
  9
$HANDSEED
  5
110D
  9
$SURFTAB1
 70
     6
  9
$SURFTAB2
 70
     6
  9
$SURFTYPE
 70
     6
  9
$SURFU
 70
     6
  9
$SURFV
 70
     6
  9
$UCSNAME
  2

  9
$UCSORG
 10
0.0
 20
0.0
 30
0.0
  9
$UCSXDIR
 10
1.0
 20
0.0
 30
0.0
  9
$UCSYDIR
 10
0.0
 20
1.0
 30
0.0
  9
$PUCSNAME
  2

  9
$PUCSORG
 10
0.0
 20
0.0
 30
0.0
  9
$PUCSXDIR
 10
1.0
 20
0.0
 30
0.0
  9
$PUCSYDIR
 10
0.0
 20
1.0
 30
0.0
  9
$USERI1
 70
     0
  9
$USERI2
 70
     0
  9
$USERI3
 70
     0
  9
$USERI4
 70
     0
  9
$USERI5
 70
     0
  9
$USERR1
 40
841.0
  9
$USERR2
 40
594.0
  9
$USERR3
 40
1.0
  9
$USERR4
 40
0.0
  9
$USERR5
 40
0.0
  9
$WORLDVIEW
 70
     1
  9
$SHADEDGE
 70
     3
  9
$SHADEDIF
 70
    70
  9
$TILEMODE
 70
     1
  9
$MAXACTVP
 70
    48
  9
$PINSBASE
 10
0.0
 20
0.0
 30
0.0
  9
$PLIMCHECK
 70
     0
  9
$PEXTMIN
 10
-5.662975978526674
 20
-6.331907780761866
 30
-0.0015258207003583
  9
$PEXTMAX
 10
834.4213426047982
 20
560.9663709967471
 30
0.0000000349246037
  9
$PLIMMIN
 10
-7.500000000000001
 20
-20.0
  9
$PLIMMAX
 10
833.5000000000002
 20
574.0000000000001
  9
$UNITMODE
 70
     0
  9
$VISRETAIN
 70
     1
  9
$PLINEGEN
 70
     0
  9
$PSLTSCALE
 70
     1
  9
$TREEDEPTH
 70
  3020
  9
$PICKSTYLE
 70
     1
  9
$CMLSTYLE
  2
STANDARD
  9
$CMLJUST
 70
     0
  9
$CMLSCALE
 40
20.0
  9
$SAVEIMAGES
 70
     1
  0
ENDSEC
  0
SECTION
  2
CLASSES
  0
CLASS
  1
ACDBDICTIONARYWDFLT
  2
AcDbDictionaryWithDefault
  3
AutoCAD 2000
 90
    32768
280
     0
281
     0
  0
CLASS
  1
ACDBPLACEHOLDER
  2
AcDbPlaceHolder
  3
AutoCAD 2000
 90
    32768
280
     0
281
     0
  0
CLASS
  1
LAYOUT
  2
AcDbLayout
  3
AutoCAD 2000
 90
    32768
280
     0
281
     0
  0
CLASS
  1
RTEXT
  2
RText
  3
RText|AutoCAD Express Tool|expresstools@autodesk.com
 90
    32768
280
     0
281
     1
  0
CLASS
  1
DICTIONARYVAR
  2
AcDbDictionaryVar
  3
AutoCAD 2000
 90
    32768
280
     0
281
     0
  0
CLASS
  1
LONG_TRANSACTION
  2
AcDbLongTransaction
  3
AutoCAD 2000
 90
    32768
280
     0
281
     0
  0
CLASS
  1
LWPOLYLINE
  2
AcDbPolyline
  3
AutoCAD 2000
 90
    32768
280
     0
281
     1
  0
CLASS
  1
HATCH
  2
AcDbHatch
  3
AutoCAD 2000
 90
    32768
280
     0
281
     1
  0
CLASS
  1
XRECORD
  2
AcDbXrecord
  3
AutoCAD 2000
 90
    32768
280
     0
281
     0
  0
CLASS
  1
LONG_TRANSACTION
  2
AcDbLongTransaction
  3
AutoCAD 2000
 90
    32768
280
     0
281
     0
  0
CLASS
  1
LWPOLYLINE
  2
AcDbPolyline
  3
AutoCAD 2000
 90
    32768
280
     0
281
     1
  0
CLASS
  1
HATCH
  2
AcDbHatch
  3
AutoCAD 2000
 90
    32768
280
     0
281
     1
  0
CLASS
  1
XRECORD
  2
AcDbXrecord
  3
AutoCAD 2000
 90
    32768
280
     0
281
     0
  0
CLASS
  1
LONG_TRANSACTION
  2
AcDbLongTransaction
  3
AutoCAD 2000
 90
    32768
280
     0
281
     0
  0
CLASS
  1
LWPOLYLINE
  2
AcDbPolyline
  3
AutoCAD 2000
 90
    32768
280
     0
281
     1
  0
CLASS
  1
HATCH
  2
AcDbHatch
  3
AutoCAD 2000
 90
    32768
280
     0
281
     1
  0
CLASS
  1
XRECORD
  2
AcDbXrecord
  3
AutoCAD 2000
 90
    32768
280
     0
281
     0
  0
CLASS
  1
LONG_TRANSACTION
  2
AcDbLongTransaction
  3
AutoCAD 2000
 90
    32768
280
     0
281
     0
  0
CLASS
  1
LWPOLYLINE
  2
AcDbPolyline
  3
AutoCAD 2000
 90
    32768
280
     0
281
     1
  0
CLASS
  1
HATCH
  2
AcDbHatch
  3
AutoCAD 2000
 90
    32768
280
     0
281
     1
  0
CLASS
  1
XRECORD
  2
AcDbXrecord
  3
AutoCAD 2000
 90
    32768
280
     0
281
     0
  0
CLASS
  1
LONG_TRANSACTION
  2
AcDbLongTransaction
  3
AutoCAD 2000
 90
    32768
280
     0
281
     0
  0
CLASS
  1
LWPOLYLINE
  2
AcDbPolyline
  3
AutoCAD 2000
 90
    32768
280
     0
281
     1
  0
CLASS
  1
HATCH
  2
AcDbHatch
  3
AutoCAD 2000
 90
    32768
280
     0
281
     1
  0
CLASS
  1
XRECORD
  2
AcDbXrecord
  3
AutoCAD 2000
 90
    32768
280
     0
281
     0
  0
CLASS
  1
LONG_TRANSACTION
  2
AcDbLongTransaction
  3
AutoCAD 2000
 90
    32768
280
     0
281
     0
  0
CLASS
  1
LWPOLYLINE
  2
AcDbPolyline
  3
AutoCAD 2000
 90
    32768
280
     0
281
     1
  0
CLASS
  1
HATCH
  2
AcDbHatch
  3
AutoCAD 2000
 90
    32768
280
     0
281
     1
  0
CLASS
  1
XRECORD
  2
AcDbXrecord
  3
AutoCAD 2000
 90
    32768
280
     0
281
     0
  0
CLASS
  1
LONG_TRANSACTION
  2
AcDbLongTransaction
  3
AutoCAD 2000
 90
    32768
280
     0
281
     0
  0
CLASS
  1
LWPOLYLINE
  2
AcDbPolyline
  3
AutoCAD 2000
 90
    32768
280
     0
281
     1
  0
CLASS
  1
HATCH
  2
AcDbHatch
  3
AutoCAD 2000
 90
    32768
280
     0
281
     1
  0
CLASS
  1
XRECORD
  2
AcDbXrecord
  3
AutoCAD 2000
 90
    32768
280
     0
281
     0
  0
CLASS
  1
LONG_TRANSACTION
  2
AcDbLongTransaction
  3
AutoCAD 2000
 90
    32768
280
     0
281
     0
  0
CLASS
  1
LWPOLYLINE
  2
AcDbPolyline
  3
AutoCAD 2000
 90
    32768
280
     0
281
     1
  0
CLASS
  1
HATCH
  2
AcDbHatch
  3
AutoCAD 2000
 90
    32768
280
     0
281
     1
  0
CLASS
  1
XRECORD
  2
AcDbXrecord
  3
AutoCAD 2000
 90
    32768
280
     0
281
     0
  0
CLASS
  1
LONG_TRANSACTION
  2
AcDbLongTransaction
  3
AutoCAD 2000
 90
    32768
280
     0
281
     0
  0
CLASS
  1
LWPOLYLINE
  2
AcDbPolyline
  3
AutoCAD 2000
 90
    32768
280
     0
281
     1
  0
CLASS
  1
HATCH
  2
AcDbHatch
  3
AutoCAD 2000
 90
    32768
280
     0
281
     1
  0
CLASS
  1
XRECORD
  2
AcDbXrecord
  3
AutoCAD 2000
 90
    32768
280
     0
281
     0
  0
ENDSEC
  0
SECTION
  2
TABLES
  0
TABLE
  2
VPORT
  5
8
330
0
100
AcDbSymbolTable
 70
     4
  0
VPORT
  5
10FD
330
8
100
AcDbSymbolTableRecord
100
AcDbViewportTableRecord
  2
*ACTIVE
 70
     0
 10
0.0
 20
0.0
 11
1.0
 21
1.0
 12
2970.000010533226
 22
2100.000009702377
 13
0.0
 23
0.0
 14
10.0
 24
10.0
 15
10.0
 25
10.0
 16
0.0
 26
0.0
 36
1.0
 17
0.0
 27
0.0
 37
0.0
 40
4234.404770893577
 41
1.613297150610583
 42
50.0
 43
0.0
 44
0.0
 50
0.0
 51
0.0
 71
     0
 72
   100
 73
     1
 74
     1
 75
     0
 76
     0
 77
     0
 78
     0
  0
ENDTAB
  0
TABLE
  2
LTYPE
  5
5
330
0
100
AcDbSymbolTable
 70
     5
  0
LTYPE
  5
14
330
5
100
AcDbSymbolTableRecord
100
AcDbLinetypeTableRecord
  2
BYBLOCK
 70
     0
  3

 72
    65
 73
     0
 40
0.0
  0
LTYPE
  5
15
330
5
100
AcDbSymbolTableRecord
100
AcDbLinetypeTableRecord
  2
BYLAYER
 70
     0
  3

 72
    65
 73
     0
 40
0.0
  0
LTYPE
  5
16
330
5
100
AcDbSymbolTableRecord
100
AcDbLinetypeTableRecord
  2
CONTINUOUS
 70
     0
  3
Solid line
 72
    65
 73
     0
 40
0.0
  0
LTYPE
  5
555
330
5
100
AcDbSymbolTableRecord
100
AcDbLinetypeTableRecord
  2
CENTER
 70
     0
  3
Center ____ _ ____ _ ____ _ ____ _ ____ _ ____
 72
    65
 73
     4
 40
50.8
 49
31.75
 74
     0
 49
-6.349999999999999
 74
     0
 49
6.349999999999999
 74
     0
 49
-6.349999999999999
 74
     0
  0
LTYPE
  5
556
330
5
100
AcDbSymbolTableRecord
100
AcDbLinetypeTableRecord
  2
HIDDEN
 70
     0
  3
Hidden __ __ __ __ __ __ __ __ __ __ __ __ __ _
 72
    65
 73
     2
 40
9.524999999999998
 49
6.349999999999999
 74
     0
 49
-3.174999999999999
 74
     0
  0
LTYPE
  5
557
330
5
100
AcDbSymbolTableRecord
100
AcDbLinetypeTableRecord
  2
HIDDEN2
 70
     0
  3
Hidden (.5x) _ _ _ _ _ _ _ _ _ _ _ _ _ _ _ _ _
 72
    65
 73
     2
 40
4.762499999999999
 49
3.174999999999999
 74
     0
 49
-1.587499999999999
 74
     0
  0
LTYPE
  5
558
330
5
100
AcDbSymbolTableRecord
100
AcDbLinetypeTableRecord
  2
PHANTOM
 70
     0
  3
Phantom ______  __  __  ______  __  __  ______
 72
    65
 73
     6
 40
63.5
 49
31.75
 74
     0
 49
-6.349999999999999
 74
     0
 49
6.349999999999999
 74
     0
 49
-6.349999999999999
 74
     0
 49
6.349999999999999
 74
     0
 49
-6.349999999999999
 74
     0
  0
ENDTAB
  0
TABLE
  2
LAYER
  5
2
330
0
100
AcDbSymbolTable
 70
    22
  0
LAYER
  5
10
330
2
100
AcDbSymbolTableRecord
100
AcDbLayerTableRecord
  2
0
 70
     0
 62
     7
  6
CONTINUOUS
  0
LAYER
  5
75
330
2
100
AcDbSymbolTableRecord
100
AcDbLayerTableRecord
  2
VIEWPORT
 70
     0
 62
     1
  6
CONTINUOUS
  0
LAYER
  5
504
330
2
100
AcDbSymbolTableRecord
100
AcDbLayerTableRecord
  2
DEFPOINTS
 70
     4
 62
     6
  6
CONTINUOUS
  0
LAYER
  5
505
330
2
100
AcDbSymbolTableRecord
100
AcDbLayerTableRecord
  2
1C1
 70
     0
 62
   254
  6
CONTINUOUS
  0
LAYER
  5
506
330
2
100
AcDbSymbolTableRecord
100
AcDbLayerTableRecord
  2
1C2
 70
     0
 62
   254
  6
CONTINUOUS
  0
LAYER
  5
507
330
2
100
AcDbSymbolTableRecord
100
AcDbLayerTableRecord
  2
2C1
 70
     0
 62
   144
  6
CONTINUOUS
  0
LAYER
  5
508
330
2
100
AcDbSymbolTableRecord
100
AcDbLayerTableRecord
  2
2C2
 70
     0
 62
   144
  6
CONTINUOUS
  0
LAYER
  5
509
330
2
100
AcDbSymbolTableRecord
100
AcDbLayerTableRecord
  2
2H1
 70
     0
 62
   144
  6
HIDDEN
  0
LAYER
  5
50A
330
2
100
AcDbSymbolTableRecord
100
AcDbLayerTableRecord
  2
2H2
 70
     0
 62
   144
  6
HIDDEN2
  0
LAYER
  5
50B
330
2
100
AcDbSymbolTableRecord
100
AcDbLayerTableRecord
  2
2P1
 70
     0
 62
   144
  6
PHANTOM
  0
LAYER
  5
50C
330
2
100
AcDbSymbolTableRecord
100
AcDbLayerTableRecord
  2
3C1
 70
     0
 62
     7
  6
CONTINUOUS
  0
LAYER
  5
50D
330
2
100
AcDbSymbolTableRecord
100
AcDbLayerTableRecord
  2
3C2
 70
     0
 62
     7
  6
CONTINUOUS
  0
LAYER
  5
50E
330
2
100
AcDbSymbolTableRecord
100
AcDbLayerTableRecord
  2
3C3
 70
     0
 62
     7
  6
CONTINUOUS
  0
LAYER
  5
50F
330
2
100
AcDbSymbolTableRecord
100
AcDbLayerTableRecord
  2
4H1
 70
     0
 62
     6
  6
HIDDEN
  0
LAYER
  5
510
330
2
100
AcDbSymbolTableRecord
100
AcDbLayerTableRecord
  2
4H2
 70
     0
 62
     6
  6
HIDDEN2
  0
LAYER
  5
511
330
2
100
AcDbSymbolTableRecord
100
AcDbLayerTableRecord
  2
5C1
 70
     0
 62
    55
  6
CONTINUOUS
  0
LAYER
  5
512
330
2
100
AcDbSymbolTableRecord
100
AcDbLayerTableRecord
  2
5C2
 70
     0
 62
    55
  6
CONTINUOUS
  0
LAYER
  5
513
330
2
100
AcDbSymbolTableRecord
100
AcDbLayerTableRecord
  2
8C1
 70
     0
 62
    92
  6
CONTINUOUS
  0
LAYER
  5
514
330
2
100
AcDbSymbolTableRecord
100
AcDbLayerTableRecord
  2
HOJO
 70
     0
 62
     5
  6
CONTINUOUS
  0
LAYER
  5
515
330
2
100
AcDbSymbolTableRecord
100
AcDbLayerTableRecord
  2
KIJUN
 70
     0
 62
     1
  6
CENTER
  0
LAYER
  5
516
330
2
100
AcDbSymbolTableRecord
100
AcDbLayerTableRecord
  2
MOJI
 70
     0
 62
     7
  6
CONTINUOUS
  0
LAYER
  5
517
330
2
100
AcDbSymbolTableRecord
100
AcDbLayerTableRecord
  2
SUNPO
 70
     0
 62
   144
  6
CONTINUOUS
  0
ENDTAB
  0
TABLE
  2
STYLE
  5
3
330
0
100
AcDbSymbolTable
 70
     6
  0
STYLE
  5
11
330
3
100
AcDbSymbolTableRecord
100
AcDbTextStyleTableRecord
  2
STANDARD
 70
     0
 40
0.0
 41
1.0
 50
0.0
 71
     0
 42
2.5
  3
txt
  4

  0
STYLE
  5
2C
330
3
100
AcDbSymbolTableRecord
100
AcDbTextStyleTableRecord
  2

 70
     1
 40
0.0
 41
1.0
 50
0.0
 71
     0
 42
2.5
  3
ltypeshp.shx
  4

  0
STYLE
  5
18E
330
3
100
AcDbSymbolTableRecord
100
AcDbTextStyleTableRecord
  2
ADD
 70
     0
 40
0.0
 41
1.0
 50
0.0
 71
     0
 42
50.0
  3
romans.shx
  4
bigfont.shx
  0
STYLE
  5
191
330
3
100
AcDbSymbolTableRecord
100
AcDbTextStyleTableRecord
  2
MSG
 70
     0
 40
0.0
 41
1.0
 50
0.0
 71
     0
 42
2.5
  3
MS Gothic.ttf
  4

1001
ACAD
1000
MS Gothic
1071
    32817
  0
STYLE
  5
5C8
330
3
100
AcDbSymbolTableRecord
100
AcDbTextStyleTableRecord
  2
STANDARD15
 70
     0
 40
0.0
 41
1.0
 50
15.0
 71
     0
 42
2.5
  3
ROMANS
  4
bigfont
  0
STYLE
  5
5C9
330
3
100
AcDbSymbolTableRecord
100
AcDbTextStyleTableRecord
  2
ROMANS15
 70
     0
 40
0.0
 41
1.0
 50
15.0
 71
     0
 42
2.5
  3
romans
  4

  0
ENDTAB
  0
TABLE
  2
VIEW
  5
6
330
0
100
AcDbSymbolTable
 70
     1
  0
VIEW
  5
54D
330
6
100
AcDbSymbolTableRecord
100
AcDbViewTableRecord
  2
ALL
 70
     0
 40
594.0
 10
420.5
 20
297.0
 41
865.125
 11
0.0
 21
0.0
 31
1.0
 12
0.0
 22
0.0
 32
0.0
 42
50.0
 43
0.0
 44
0.0
 50
0.0
 71
     0
  0
ENDTAB
  0
TABLE
  2
UCS
  5
7
330
0
100
AcDbSymbolTable
 70
     0
  0
ENDTAB
  0
TABLE
  2
APPID
  5
9
330
0
100
AcDbSymbolTable
 70
     4
  0
APPID
  5
12
330
9
100
AcDbSymbolTableRecord
100
AcDbRegAppTableRecord
  2
ACAD
 70
     0
  0
APPID
  5
5CB
330
9
100
AcDbSymbolTableRecord
100
AcDbRegAppTableRecord
  2
ARAIGUMI_YOHEKI
 70
     0
  0
APPID
  5
5CC
330
9
100
AcDbSymbolTableRecord
100
AcDbRegAppTableRecord
  2
CONTENTTABDATA
 70
     0
  0
APPID
  5
5CD
330
9
100
AcDbSymbolTableRecord
100
AcDbRegAppTableRecord
  2
CONTENTCURRENTTAB
 70
     0
  0
ENDTAB
  0
TABLE
  2
DIMSTYLE
  5
A
330
0
100
AcDbSymbolTable
 70
    10
  0
DIMSTYLE
105
27
330
A
100
AcDbSymbolTableRecord
100
AcDbDimStyleTableRecord
  2
ISO-25
 70
     0
  3

  4

  5

  6

  7

 40
1.0
 41
2.5
 42
0.625
 43
3.75
 44
1.25
 45
0.0
 46
0.0
 47
0.0
 48
0.0
140
2.5
141
2.5
142
0.0
143
0.03937007874016
144
1.0
145
0.0
146
1.0
147
0.625
 71
     0
 72
     0
 73
     0
 74
     0
 75
     0
 76
     0
 77
     1
 78
     8
170
     0
171
     3
172
     1
173
     0
174
     0
175
     0
176
     0
177
     0
178
     0
270
     2
271
     2
272
     2
273
     2
274
     3
340
11
275
     0
280
     0
281
     0
282
     0
283
     0
284
     8
285
     0
286
     0
287
     3
288
     0
  0
DIMSTYLE
105
197
330
A
100
AcDbSymbolTableRecord
100
AcDbDimStyleTableRecord
  2
ADD
 70
     0
  3

  4

  5

  6

  7

 40
1.0
 41
2.5
 42
1.0
 43
7.0
 44
0.5
 45
0.0
 46
0.0
 47
0.0
 48
0.0
140
2.5
141
2.5
142
0.0
143
0.03937007874016
144
1.0
145
0.7
146
1.0
147
0.625
 71
     0
 72
     0
 73
     0
 74
     0
 75
     0
 76
     0
 77
     1
 78
     8
170
     0
171
     3
172
     1
173
     0
174
     1
175
     0
176
   144
177
   144
178
     7
270
     2
271
     1
272
     1
273
     2
274
     3
340
18E
275
     0
280
     0
281
     0
282
     0
283
     2
284
     8
285
     0
286
     0
287
     5
288
     0
  0
DIMSTYLE
105
3E6
330
A
100
AcDbSymbolTableRecord
100
AcDbDimStyleTableRecord
  2
ADD$2
 70
     0
  3

  4

  5

  6

  7

 40
1.0
 41
2.5
 42
1.0
 43
7.0
 44
0.5
 45
0.0
 46
0.0
 47
0.0
 48
0.0
140
2.5
141
2.5
142
0.0
143
0.03937007874016
144
1.0
145
0.7
146
1.0
147
0.625
 71
     0
 72
     0
 73
     0
 74
     0
 75
     0
 76
     0
 77
     1
 78
     8
170
     0
171
     3
172
     1
173
     0
174
     1
175
     0
176
   144
177
   144
178
     7
270
     2
271
     1
272
     1
273
     2
274
     3
340
18E
275
     0
280
     0
281
     0
282
     0
283
     2
284
     8
285
     0
286
     0
287
     5
288
     0
  0
DIMSTYLE
105
3E7
330
A
100
AcDbSymbolTableRecord
100
AcDbDimStyleTableRecord
  2
ADD$4
 70
     0
  3

  4

  5

  6

  7

 40
1.0
 41
2.5
 42
1.0
 43
7.0
 44
0.5
 45
0.0
 46
0.0
 47
0.0
 48
0.0
140
2.5
141
2.5
142
0.0
143
0.03937007874016
144
1.0
145
0.0
146
1.0
147
0.625
 71
     0
 72
     0
 73
     0
 74
     0
 75
     0
 76
     0
 77
     1
 78
     8
170
     0
171
     3
172
     1
173
     0
174
     1
175
     0
176
   144
177
   144
178
     7
270
     2
271
     1
272
     1
273
     2
274
     3
340
18E
275
     0
280
     0
281
     0
282
     0
283
     2
284
     8
285
     0
286
     0
287
     5
288
     0
  0
DIMSTYLE
105
3E8
330
A
100
AcDbSymbolTableRecord
100
AcDbDimStyleTableRecord
  2
ADD$3
 70
     0
  3

  4

  5

  6

  7

 40
1.0
 41
2.5
 42
1.0
 43
7.0
 44
0.5
 45
0.0
 46
0.0
 47
0.0
 48
0.0
140
2.5
141
2.5
142
0.0
143
0.03937007874016
144
1.0
145
0.0
146
1.0
147
0.625
 71
     0
 72
     0
 73
     0
 74
     0
 75
     0
 76
     0
 77
     1
 78
     8
170
     0
171
     3
172
     1
173
     0
174
     1
175
     0
176
   144
177
   144
178
     7
270
     2
271
     1
272
     1
273
     2
274
     3
340
18E
275
     0
280
     0
281
     0
282
     0
283
     2
284
     8
285
     0
286
     0
287
     5
288
     0
  0
DIMSTYLE
105
3E9
330
A
100
AcDbSymbolTableRecord
100
AcDbDimStyleTableRecord
  2
ADD$6
 70
     0
  3

  4

  5

  6

  7

 40
1.0
 41
2.5
 42
1.0
 43
7.0
 44
0.5
 45
0.0
 46
0.0
 47
0.0
 48
0.0
140
2.5
141
2.5
142
0.0
143
0.03937007874016
144
1.0
145
0.0
146
1.0
147
0.625
 71
     0
 72
     0
 73
     0
 74
     0
 75
     0
 76
     0
 77
     1
 78
     8
170
     0
171
     3
172
     1
173
     0
174
     1
175
     0
176
   144
177
   144
178
     7
270
     2
271
     1
272
     1
273
     2
274
     3
340
18E
275
     0
280
     0
281
     0
282
     0
283
     2
284
     8
285
     0
286
     0
287
     5
288
     0
  0
DIMSTYLE
105
3EA
330
A
100
AcDbSymbolTableRecord
100
AcDbDimStyleTableRecord
  2
ADD$7
 70
     0
  3

  4

  5

  6

  7

 40
1.0
 41
2.5
 42
1.0
 43
7.0
 44
0.5
 45
0.0
 46
0.0
 47
0.0
 48
0.0
140
2.5
141
2.5
142
0.0
143
0.03937007874016
144
1.0
145
0.0
146
1.0
147
0.625
 71
     0
 72
     0
 73
     0
 74
     0
 75
     0
 76
     0
 77
     0
 78
     8
170
     0
171
     3
172
     1
173
     0
174
     1
175
     0
176
   144
177
   144
178
     7
270
     2
271
     1
272
     1
273
     2
274
     3
340
18E
275
     0
280
     0
281
     0
282
     0
283
     2
284
     8
285
     0
286
     0
287
     5
288
     0
  0
DIMSTYLE
105
518
330
A
100
AcDbSymbolTableRecord
100
AcDbDimStyleTableRecord
  2
STANDARD
 70
     0
  3

  4

  5

  6

  7

 40
1.0
 41
0.18
 42
0.0625
 43
0.38
 44
0.18
 45
0.0
 46
0.0
 47
0.0
 48
0.0
140
0.18
141
0.09
142
0.0
143
25.4
144
1.0
145
0.0
146
1.0
147
0.09
 71
     0
 72
     0
 73
     1
 74
     1
 75
     0
 76
     0
 77
     0
 78
     0
170
     0
171
     2
172
     0
173
     0
174
     0
175
     0
176
     0
177
     0
178
     0
270
     2
271
     4
272
     4
273
     2
274
     2
340
11
275
     0
280
     0
281
     0
282
     0
283
     1
284
     0
285
     0
286
     0
287
     3
288
     0
  0
DIMSTYLE
105
550
330
A
100
AcDbSymbolTableRecord
100
AcDbDimStyleTableRecord
  2
ADD$0
 70
     0
  3

  4

  5

  6

  7

 40
1.0
 41
2.5
 42
1.0
 43
7.0
 44
0.5
 45
0.0
 46
0.0
 47
0.0
 48
0.0
140
2.5
141
2.5
142
0.0
143
0.03937007874016
144
1.0
145
0.7
146
1.0
147
0.625
 71
     0
 72
     0
 73
     0
 74
     0
 75
     0
 76
     0
 77
     1
 78
     8
170
     0
171
     3
172
     1
173
     0
174
     1
175
     0
176
   144
177
   144
178
     7
270
     2
271
     1
272
     1
273
     2
274
     3
340
18E
275
     0
280
     0
281
     0
282
     0
283
     2
284
     8
285
     0
286
     0
287
     5
288
     0
  0
DIMSTYLE
105
59B
330
A
100
AcDbSymbolTableRecord
100
AcDbDimStyleTableRecord
  2
ADD_M
 70
     0
  3

  4

  5

  6

  7

 40
1.0
 41
2.5
 42
1.0
 43
7.0
 44
0.5
 45
0.0
 46
0.0
 47
0.0
 48
0.0
140
2.5
141
2.5
142
0.0
143
0.03937007874016
144
1.0
145
0.7
146
1.0
147
0.625
 71
     0
 72
     0
 73
     0
 74
     0
 75
     0
 76
     0
 77
     1
 78
     8
170
     0
171
     3
172
     1
173
     0
174
     1
175
     0
176
   144
177
   144
178
     7
270
     2
271
     1
272
     1
273
     2
274
     3
340
18E
275
     0
280
     0
281
     0
282
     0
283
     2
284
     8
285
     0
286
     0
287
     5
288
     0
  0
ENDTAB
  0
TABLE
  2
BLOCK_RECORD
  5
1
330
0
100
AcDbSymbolTable
 70
    14
  0
BLOCK_RECORD
  5
1F
102
{ACAD_XDICTIONARY
360
65D
102
}
330
1
100
AcDbSymbolTableRecord
100
AcDbBlockTableRecord
  2
*MODEL_SPACE
  0
BLOCK_RECORD
  5
1B
102
{ACAD_XDICTIONARY
360
65F
102
}
330
1
100
AcDbSymbolTableRecord
100
AcDbBlockTableRecord
  2
*PAPER_SPACE
  0
BLOCK_RECORD
  5
192
330
1
100
AcDbSymbolTableRecord
100
AcDbBlockTableRecord
  2
_DOT
  0
BLOCK_RECORD
  5
5CE
330
1
100
AcDbSymbolTableRecord
100
AcDbBlockTableRecord
  2
A4
  0
BLOCK_RECORD
  5
9EB
330
1
100
AcDbSymbolTableRecord
100
AcDbBlockTableRecord
  2
*D2
  0
BLOCK_RECORD
  5
E36
330
1
100
AcDbSymbolTableRecord
100
AcDbBlockTableRecord
  2
*D3
  0
BLOCK_RECORD
  5
E45
330
1
100
AcDbSymbolTableRecord
100
AcDbBlockTableRecord
  2
*D4
  0
BLOCK_RECORD
  5
E56
330
1
100
AcDbSymbolTableRecord
100
AcDbBlockTableRecord
  2
*D5
  0
BLOCK_RECORD
  5
E60
330
1
100
AcDbSymbolTableRecord
100
AcDbBlockTableRecord
  2
*D6
  0
BLOCK_RECORD
  5
E6A
330
1
100
AcDbSymbolTableRecord
100
AcDbBlockTableRecord
  2
*D7
  0
BLOCK_RECORD
  5
E79
330
1
100
AcDbSymbolTableRecord
100
AcDbBlockTableRecord
  2
*D8
  0
BLOCK_RECORD
  5
E86
330
1
100
AcDbSymbolTableRecord
100
AcDbBlockTableRecord
  2
*D9
  0
BLOCK_RECORD
  5
E95
330
1
100
AcDbSymbolTableRecord
100
AcDbBlockTableRecord
  2
*D10
  0
BLOCK_RECORD
  5
EA2
330
1
100
AcDbSymbolTableRecord
100
AcDbBlockTableRecord
  2
*D11
  0
BLOCK_RECORD
  5
EAF
330
1
100
AcDbSymbolTableRecord
100
AcDbBlockTableRecord
  2
*D12
  0
BLOCK_RECORD
  5
FB2
330
1
100
AcDbSymbolTableRecord
100
AcDbBlockTableRecord
  2
*D13
  0
ENDTAB
  0
ENDSEC
  0
SECTION
  2
BLOCKS
  0
BLOCK
  5
20
330
1F
100
AcDbEntity
  8
0
100
AcDbBlockBegin
  2
*MODEL_SPACE
 70
     0
 10
0.0
 20
0.0
 30
0.0
  3
*MODEL_SPACE
  1

  0
ENDBLK
  5
21
330
1F
100
AcDbEntity
  8
0
100
AcDbBlockEnd
  0
BLOCK
  5
1C
330
1B
100
AcDbEntity
 67
     1
  8
0
100
AcDbBlockBegin
  2
*PAPER_SPACE
 70
     0
 10
0.0
 20
0.0
 30
0.0
  3
*PAPER_SPACE
  1

  0
ENDBLK
  5
1D
330
1B
100
AcDbEntity
 67
     1
  8
0
100
AcDbBlockEnd
  0
BLOCK
  5
195
330
192
100
AcDbEntity
  8
0
100
AcDbBlockBegin
  2
_DOT
 70
     0
 10
0.0
 20
0.0
 30
0.0
  3
_DOT
  1

  0
POLYLINE
  5
193
330
192
100
AcDbEntity
  8
0
 62
     0
100
AcDb2dPolyline
 66
     1
 10
0.0
 20
0.0
 30
0.0
 70
     1
 40
0.5
 41
0.5
  0
VERTEX
  5
1100
330
193
100
AcDbEntity
  8
0
 62
     0
100
AcDbVertex
100
AcDb2dVertex
 10
-0.25
 20
0.0
 30
0.0
 42
1.0
  0
VERTEX
  5
1101
330
193
100
AcDbEntity
  8
0
 62
     0
100
AcDbVertex
100
AcDb2dVertex
 10
0.25
 20
0.0
 30
0.0
 42
1.0
  0
SEQEND
  5
1102
330
193
100
AcDbEntity
  8
0
 62
     0
  0
LINE
  5
194
330
192
100
AcDbEntity
  8
0
 62
     0
100
AcDbLine
 10
-0.5
 20
0.0
 30
0.0
 11
-1.0
 21
0.0
 31
0.0
  0
ENDBLK
  5
196
330
192
100
AcDbEntity
  8
0
100
AcDbBlockEnd
  0
BLOCK
  5
5D1
330
5CE
100
AcDbEntity
  8
0
100
AcDbBlockBegin
  2
A4
 70
     0
 10
0.0
 20
0.0
 30
0.0
  3
A4
  1

  0
POLYLINE
  5
5CF
330
5CE
100
AcDbEntity
  8
HOJO
100
AcDb2dPolyline
 66
     1
 10
0.0
 20
0.0
 30
0.0
 70
     1
  0
VERTEX
  5
1103
330
5CF
100
AcDbEntity
  8
HOJO
100
AcDbVertex
100
AcDb2dVertex
 10
0.0
 20
0.0
 30
0.0
  0
VERTEX
  5
1104
330
5CF
100
AcDbEntity
  8
HOJO
100
AcDbVertex
100
AcDb2dVertex
 10
297.0
 20
0.0
 30
0.0
  0
VERTEX
  5
1105
330
5CF
100
AcDbEntity
  8
HOJO
100
AcDbVertex
100
AcDb2dVertex
 10
297.0
 20
210.0
 30
0.0
  0
VERTEX
  5
1106
330
5CF
100
AcDbEntity
  8
HOJO
100
AcDbVertex
100
AcDb2dVertex
 10
0.0
 20
210.0
 30
0.0
  0
SEQEND
  5
1107
330
5CF
100
AcDbEntity
  8
HOJO
  0
POLYLINE
  5
5D0
330
5CE
100
AcDbEntity
  8
HOJO
100
AcDb2dPolyline
 66
     1
 10
0.0
 20
0.0
 30
0.0
 70
     1
  0
VERTEX
  5
1108
330
5D0
100
AcDbEntity
  8
HOJO
100
AcDbVertex
100
AcDb2dVertex
 10
18.0
 20
13.0
 30
0.0
  0
VERTEX
  5
1109
330
5D0
100
AcDbEntity
  8
HOJO
100
AcDbVertex
100
AcDb2dVertex
 10
279.0
 20
13.0
 30
0.0
  0
VERTEX
  5
110A
330
5D0
100
AcDbEntity
  8
HOJO
100
AcDbVertex
100
AcDb2dVertex
 10
279.0
 20
197.0
 30
0.0
  0
VERTEX
  5
110B
330
5D0
100
AcDbEntity
  8
HOJO
100
AcDbVertex
100
AcDb2dVertex
 10
18.0
 20
197.0
 30
0.0
  0
SEQEND
  5
110C
330
5D0
100
AcDbEntity
  8
HOJO
  0
ENDBLK
  5
5D2
330
5CE
100
AcDbEntity
  8
0
100
AcDbBlockEnd
  0
BLOCK
  5
9F5
330
9EB
100
AcDbEntity
  8
0
100
AcDbBlockBegin
  2
*D2
 70
     1
 10
0.0
 20
0.0
 30
0.0
  3
*D2
  1

  0
LINE
  5
DA3
330
9EB
100
AcDbEntity
  8
SUNPO
 62
   144
100
AcDbLine
 10
3725.056882238605
 20
2117.611406092286
 30
0.0
 11
3725.056882238605
 21
2033.646643413798
 31
0.0
  0
LINE
  5
DA4
330
9EB
100
AcDbEntity
  8
SUNPO
 62
   144
100
AcDbLine
 10
3125.056882238605
 20
2117.611406092286
 30
0.0
 11
3125.056882238605
 21
2033.646643413798
 31
0.0
  0
LINE
  5
DA5
330
9EB
100
AcDbEntity
  8
SUNPO
 62
   144
100
AcDbLine
 10
3705.056882238604
 20
2043.646643413798
 30
0.0
 11
3145.056882238605
 21
2043.646643413798
 31
0.0
  0
SOLID
  5
DA6
330
9EB
100
AcDbEntity
  8
SUNPO
 62
   144
100
AcDbTrace
 10
3705.056882238604
 20
2046.979976747131
 30
0.0
 11
3705.056882238604
 21
2040.313310080465
 31
0.0
 12
3725.056882238605
 22
2043.646643413798
 32
0.0
 13
3725.056882238605
 23
2043.646643413798
 33
0.0
  0
SOLID
  5
DA7
330
9EB
100
AcDbEntity
  8
SUNPO
 62
   144
100
AcDbTrace
 10
3145.056882238605
 20
2046.979976747131
 30
0.0
 11
3145.056882238605
 21
2040.313310080465
 31
0.0
 12
3125.056882238605
 22
2043.646643413798
 32
0.0
 13
3125.056882238605
 23
2043.646643413798
 33
0.0
  0
MTEXT
  5
DA8
330
9EB
100
AcDbEntity
  8
SUNPO
 62
     7
100
AcDbMText
 10
3425.056882238605
 20
2076.146643413798
 30
0.0
 40
40.0
 41
0.0
 71
     5
 72
     1
  1
\A2;600
  7
ADD
1001
ACAD
1000
MTEXTBEGIN
1070
    73
1070
     1
1070
    44
1040
1.0
1070
    74
1070
     0
1000
MTEXTEND
1000
MTEXTBEGIN
1070
    73
1070
     1
1070
    44
1040
1.0
1070
    74
1070
     0
1000
MTEXTEND
1000
MTEXTBEGIN
1070
    73
1070
     1
1070
    44
1040
1.0
1070
    74
1070
     0
1000
MTEXTEND
1000
MTEXTBEGIN
1070
    73
1070
     1
1070
    44
1040
1.0
1070
    74
1070
     0
1000
MTEXTEND
  0
POINT
  5
DA9
330
9EB
100
AcDbEntity
  8
DEFPOINTS
 62
     0
100
AcDbPoint
 10
3725.056882238605
 20
2137.611406092286
 30
0.0
  0
POINT
  5
DAA
330
9EB
100
AcDbEntity
  8
DEFPOINTS
 62
     0
100
AcDbPoint
 10
3125.056882238605
 20
2137.611406092286
 30
0.0
  0
POINT
  5
DAB
330
9EB
100
AcDbEntity
  8
DEFPOINTS
 62
     0
100
AcDbPoint
 10
3125.056882238605
 20
2043.646643413798
 30
0.0
  0
ENDBLK
  5
9F6
330
9EB
100
AcDbEntity
  8
0
100
AcDbBlockEnd
  0
BLOCK
  5
E42
330
E36
100
AcDbEntity
  8
0
100
AcDbBlockBegin
  2
*D3
 70
     1
 10
0.0
 20
0.0
 30
0.0
  3
*D3
  1

  0
LINE
  5
E37
330
E36
100
AcDbEntity
  8
SUNPO
 62
   144
100
AcDbLine
 10
1668.819433450266
 20
2292.611406092286
 30
0.0
 11
1530.662730385964
 21
2292.611406092286
 31
0.0
  0
LINE
  5
E38
330
E36
100
AcDbEntity
  8
SUNPO
 62
   144
100
AcDbLine
 10
1768.819433450266
 20
2192.611406092286
 30
0.0
 11
1530.662730385964
 21
2192.611406092286
 31
0.0
  0
LINE
  5
E39
330
E36
100
AcDbEntity
  8
SUNPO
 62
   144
100
AcDbLine
 10
1540.662730385964
 20
2312.611406092286
 30
0.0
 11
1540.662730385964
 21
2332.611406092286
 31
0.0
  0
LINE
  5
E3A
330
E36
100
AcDbEntity
  8
SUNPO
 62
   144
100
AcDbLine
 10
1540.662730385964
 20
2172.611406092286
 30
0.0
 11
1540.662730385964
 21
2152.611406092286
 31
0.0
  0
LINE
  5
E3B
330
E36
100
AcDbEntity
  8
SUNPO
 62
   144
100
AcDbLine
 10
1540.662730385964
 20
2292.611406092286
 30
0.0
 11
1540.662730385964
 21
2192.611406092286
 31
0.0
  0
SOLID
  5
E3C
330
E36
100
AcDbEntity
  8
SUNPO
 62
   144
100
AcDbTrace
 10
1537.32939705263
 20
2312.611406092286
 30
0.0
 11
1543.996063719297
 21
2312.611406092286
 31
0.0
 12
1540.662730385964
 22
2292.611406092286
 32
0.0
 13
1540.662730385964
 23
2292.611406092286
 33
0.0
  0
SOLID
  5
E3D
330
E36
100
AcDbEntity
  8
SUNPO
 62
   144
100
AcDbTrace
 10
1537.32939705263
 20
2172.611406092286
 30
0.0
 11
1543.996063719297
 21
2172.611406092286
 31
0.0
 12
1540.662730385964
 22
2192.611406092286
 32
0.0
 13
1540.662730385964
 23
2192.611406092286
 33
0.0
  0
MTEXT
  5
E3E
330
E36
100
AcDbEntity
  8
SUNPO
 62
     7
100
AcDbMText
 10
1508.162730385963
 20
2242.611406092287
 30
0.0
 40
40.0
 41
0.0
 71
     5
 72
     1
  1
\A2;100
  7
ADD
 11
0.0000000000000001
 21
1.0
 31
0.0
1001
ACAD
1000
MTEXTBEGIN
1070
    73
1070
     1
1070
    44
1040
1.0
1070
    74
1070
     0
1000
MTEXTEND
1000
MTEXTBEGIN
1070
    73
1070
     1
1070
    44
1040
1.0
1070
    74
1070
     0
1000
MTEXTEND
1000
MTEXTBEGIN
1070
    73
1070
     1
1070
    44
1040
1.0
1070
    74
1070
     0
1000
MTEXTEND
  0
POINT
  5
E3F
330
E36
100
AcDbEntity
  8
DEFPOINTS
 62
     0
100
AcDbPoint
 10
1688.819433450266
 20
2292.611406092286
 30
0.0
  0
POINT
  5
E40
330
E36
100
AcDbEntity
  8
DEFPOINTS
 62
     0
100
AcDbPoint
 10
1788.819433450266
 20
2192.611406092286
 30
0.0
  0
POINT
  5
E41
330
E36
100
AcDbEntity
  8
DEFPOINTS
 62
     0
100
AcDbPoint
 10
1540.662730385964
 20
2192.611406092286
 30
0.0
  0
ENDBLK
  5
E43
330
E36
100
AcDbEntity
  8
0
100
AcDbBlockEnd
  0
BLOCK
  5
E51
330
E45
100
AcDbEntity
  8
0
100
AcDbBlockBegin
  2
*D4
 70
     1
 10
0.0
 20
0.0
 30
0.0
  3
*D4
  1

  0
LINE
  5
E46
330
E45
100
AcDbEntity
  8
SUNPO
 62
   144
100
AcDbLine
 10
1768.819433450266
 20
2192.611406092286
 30
0.0
 11
1530.662730385964
 21
2192.611406092286
 31
0.0
  0
LINE
  5
E47
330
E45
100
AcDbEntity
  8
SUNPO
 62
   144
100
AcDbLine
 10
1768.819433450266
 20
2137.611406092286
 30
0.0
 11
1530.662730385964
 21
2137.611406092286
 31
0.0
  0
LINE
  5
E48
330
E45
100
AcDbEntity
  8
SUNPO
 62
   144
100
AcDbLine
 10
1540.662730385964
 20
2212.611406092286
 30
0.0
 11
1540.662730385964
 21
2232.611406092286
 31
0.0
  0
LINE
  5
E49
330
E45
100
AcDbEntity
  8
SUNPO
 62
   144
100
AcDbLine
 10
1540.662730385964
 20
2117.611406092286
 30
0.0
 11
1540.662730385964
 21
2097.611406092286
 31
0.0
  0
LINE
  5
E4A
330
E45
100
AcDbEntity
  8
SUNPO
 62
   144
100
AcDbLine
 10
1540.662730385964
 20
2192.611406092286
 30
0.0
 11
1540.662730385964
 21
2137.611406092286
 31
0.0
  0
SOLID
  5
E4B
330
E45
100
AcDbEntity
  8
SUNPO
 62
   144
100
AcDbTrace
 10
1537.32939705263
 20
2212.611406092286
 30
0.0
 11
1543.996063719297
 21
2212.611406092286
 31
0.0
 12
1540.662730385964
 22
2192.611406092286
 32
0.0
 13
1540.662730385964
 23
2192.611406092286
 33
0.0
  0
SOLID
  5
E4C
330
E45
100
AcDbEntity
  8
SUNPO
 62
   144
100
AcDbTrace
 10
1537.32939705263
 20
2117.611406092286
 30
0.0
 11
1543.996063719297
 21
2117.611406092286
 31
0.0
 12
1540.662730385964
 22
2137.611406092286
 32
0.0
 13
1540.662730385964
 23
2137.611406092286
 33
0.0
  0
MTEXT
  5
E4D
330
E45
100
AcDbEntity
  8
SUNPO
 62
     7
100
AcDbMText
 10
1508.162730385963
 20
2165.111406092286
 30
0.0
 40
40.0
 41
0.0
 71
     5
 72
     1
  1
\A2;55
  7
ADD
 11
0.0000000000000001
 21
1.0
 31
0.0
1001
ACAD
1000
MTEXTBEGIN
1070
    73
1070
     1
1070
    44
1040
1.0
1070
    74
1070
     0
1000
MTEXTEND
1000
MTEXTBEGIN
1070
    73
1070
     1
1070
    44
1040
1.0
1070
    74
1070
     0
1000
MTEXTEND
1000
MTEXTBEGIN
1070
    73
1070
     1
1070
    44
1040
1.0
1070
    74
1070
     0
1000
MTEXTEND
  0
POINT
  5
E4E
330
E45
100
AcDbEntity
  8
DEFPOINTS
 62
     0
100
AcDbPoint
 10
1788.819433450266
 20
2192.611406092286
 30
0.0
  0
POINT
  5
E4F
330
E45
100
AcDbEntity
  8
DEFPOINTS
 62
     0
100
AcDbPoint
 10
1788.819433450266
 20
2137.611406092286
 30
0.0
  0
POINT
  5
E50
330
E45
100
AcDbEntity
  8
DEFPOINTS
 62
     0
100
AcDbPoint
 10
1540.662730385964
 20
2137.611406092286
 30
0.0
  0
ENDBLK
  5
E52
330
E45
100
AcDbEntity
  8
0
100
AcDbBlockEnd
  0
BLOCK
  5
E5D
330
E56
100
AcDbEntity
  8
0
100
AcDbBlockBegin
  2
*D5
 70
     1
 10
0.0
 20
0.0
 30
0.0
  3
*D5
  1

  0
LINE
  5
E57
330
E56
100
AcDbEntity
  8
SUNPO
 62
   144
100
AcDbLine
 10
1907.017201618188
 20
2399.857950233391
 30
0.0
 11
1798.24557420085
 21
2299.705727278225
 31
0.0
  0
MTEXT
  5
E58
330
E56
100
AcDbEntity
  8
SUNPO
 62
     7
100
AcDbMText
 10
1837.97378713359
 20
2380.464158412142
 30
0.0
 40
40.0
 41
0.0
 71
     5
 72
     1
  1
\A2;R20
  7
ADD
 11
0.7356535187646096
 21
0.6773580296484633
 31
0.0
1001
ACAD
1000
MTEXTBEGIN
1070
    73
1070
     1
1070
    44
1040
1.0
1070
    74
1070
     0
1000
MTEXTEND
1000
MTEXTBEGIN
1070
    73
1070
     1
1070
    44
1040
1.0
1070
    74
1070
     0
1000
MTEXTEND
1000
MTEXTBEGIN
1070
    73
1070
     1
1070
    44
1040
1.0
1070
    74
1070
     0
1000
MTEXTEND
  0
LINE
  5
E59
330
E56
100
AcDbEntity
  8
SUNPO
 62
   144
100
AcDbLine
 10
1768.819433450266
 20
2272.611406092287
 30
0.0
 11
1783.532503825558
 21
2286.158566685256
 31
0.0
  0
SOLID
  5
E5A
330
E56
100
AcDbEntity
  8
SUNPO
 62
   144
100
AcDbTrace
 10
1795.987714102022
 20
2302.157905674107
 30
0.0
 11
1800.503434299678
 21
2297.253548882343
 31
0.0
 12
1783.532503825558
 22
2286.158566685256
 32
0.0
 13
1783.532503825558
 23
2286.158566685256
 33
0.0
  0
POINT
  5
E5B
330
E56
100
AcDbEntity
  8
DEFPOINTS
 62
     0
100
AcDbPoint
 10
1783.532503825558
 20
2286.158566685256
 30
0.0
  0
POINT
  5
E5C
330
E56
100
AcDbEntity
  8
DEFPOINTS
 62
     0
100
AcDbPoint
 10
1768.819433450266
 20
2272.611406092287
 30
0.0
  0
ENDBLK
  5
E5E
330
E56
100
AcDbEntity
  8
0
100
AcDbBlockEnd
  0
BLOCK
  5
E67
330
E60
100
AcDbEntity
  8
0
100
AcDbBlockBegin
  2
*D6
 70
     1
 10
0.0
 20
0.0
 30
0.0
  3
*D6
  1

  0
LINE
  5
E61
330
E60
100
AcDbEntity
  8
SUNPO
 62
   144
100
AcDbLine
 10
1673.201902166203
 20
2084.718113940409
 30
0.0
 11
1779.942696750998
 21
2187.032030223993
 31
0.0
  0
MTEXT
  5
E62
330
E60
100
AcDbEntity
  8
SUNPO
 62
     7
100
AcDbMText
 10
1696.863824506474
 20
2152.417638872722
 30
0.0
 40
40.0
 41
0.0
 71
     5
 72
     1
  1
\A2;R20
  7
ADD
 11
0.7219184174816995
 21
0.6919781777633734
 31
0.0
1001
ACAD
1000
MTEXTBEGIN
1070
    73
1070
     1
1070
    44
1040
1.0
1070
    74
1070
     0
1000
MTEXTEND
1000
MTEXTBEGIN
1070
    73
1070
     1
1070
    44
1040
1.0
1070
    74
1070
     0
1000
MTEXTEND
1000
MTEXTBEGIN
1070
    73
1070
     1
1070
    44
1040
1.0
1070
    74
1070
     0
1000
MTEXTEND
  0
LINE
  5
E63
330
E60
100
AcDbEntity
  8
SUNPO
 62
   144
100
AcDbLine
 10
1808.819433450266
 20
2214.711157334528
 30
0.0
 11
1794.381065100632
 21
2200.871593779261
 31
0.0
  0
SOLID
  5
E64
330
E60
100
AcDbEntity
  8
SUNPO
 62
   144
100
AcDbTrace
 10
1777.63610282512
 20
2189.438424948932
 30
0.0
 11
1782.249290676875
 21
2184.625635499054
 31
0.0
 12
1794.381065100632
 22
2200.871593779261
 32
0.0
 13
1794.381065100632
 23
2200.871593779261
 33
0.0
  0
POINT
  5
E65
330
E60
100
AcDbEntity
  8
DEFPOINTS
 62
     0
100
AcDbPoint
 10
1794.381065100632
 20
2200.871593779261
 30
0.0
  0
POINT
  5
E66
330
E60
100
AcDbEntity
  8
DEFPOINTS
 62
     0
100
AcDbPoint
 10
1808.819433450266
 20
2214.711157334528
 30
0.0
  0
ENDBLK
  5
E68
330
E60
100
AcDbEntity
  8
0
100
AcDbBlockEnd
  0
BLOCK
  5
E76
330
E6A
100
AcDbEntity
  8
0
100
AcDbBlockBegin
  2
*D7
 70
     1
 10
0.0
 20
0.0
 30
0.0
  3
*D7
  1

  0
LINE
  5
E6B
330
E6A
100
AcDbEntity
  8
SUNPO
 62
   144
100
AcDbLine
 10
1688.819433450266
 20
2312.611406092286
 30
0.0
 11
1688.819433450266
 21
2486.519909164446
 31
0.0
  0
LINE
  5
E6C
330
E6A
100
AcDbEntity
  8
SUNPO
 62
   144
100
AcDbLine
 10
1788.819433450265
 20
2292.611406092286
 30
0.0
 11
1788.819433450265
 21
2486.519909164446
 31
0.0
  0
LINE
  5
E6D
330
E6A
100
AcDbEntity
  8
SUNPO
 62
   144
100
AcDbLine
 10
1668.819433450266
 20
2476.519909164446
 30
0.0
 11
1648.819433450265
 21
2476.519909164446
 31
0.0
  0
LINE
  5
E6E
330
E6A
100
AcDbEntity
  8
SUNPO
 62
   144
100
AcDbLine
 10
1808.819433450265
 20
2476.519909164446
 30
0.0
 11
1828.819433450266
 21
2476.519909164446
 31
0.0
  0
LINE
  5
E6F
330
E6A
100
AcDbEntity
  8
SUNPO
 62
   144
100
AcDbLine
 10
1688.819433450266
 20
2476.519909164446
 30
0.0
 11
1788.819433450265
 21
2476.519909164446
 31
0.0
  0
SOLID
  5
E70
330
E6A
100
AcDbEntity
  8
SUNPO
 62
   144
100
AcDbTrace
 10
1668.819433450266
 20
2479.853242497779
 30
0.0
 11
1668.819433450266
 21
2473.186575831113
 31
0.0
 12
1688.819433450266
 22
2476.519909164446
 32
0.0
 13
1688.819433450266
 23
2476.519909164446
 33
0.0
  0
SOLID
  5
E71
330
E6A
100
AcDbEntity
  8
SUNPO
 62
   144
100
AcDbTrace
 10
1808.819433450265
 20
2479.853242497779
 30
0.0
 11
1808.819433450265
 21
2473.186575831113
 31
0.0
 12
1788.819433450265
 22
2476.519909164446
 32
0.0
 13
1788.819433450265
 23
2476.519909164446
 33
0.0
  0
MTEXT
  5
E72
330
E6A
100
AcDbEntity
  8
SUNPO
 62
     7
100
AcDbMText
 10
1738.819433450266
 20
2509.019909164446
 30
0.0
 40
40.0
 41
0.0
 71
     5
 72
     1
  1
\A2;100
  7
ADD
1001
ACAD
1000
MTEXTBEGIN
1070
    73
1070
     1
1070
    44
1040
1.0
1070
    74
1070
     0
1000
MTEXTEND
1000
MTEXTBEGIN
1070
    73
1070
     1
1070
    44
1040
1.0
1070
    74
1070
     0
1000
MTEXTEND
1000
MTEXTBEGIN
1070
    73
1070
     1
1070
    44
1040
1.0
1070
    74
1070
     0
1000
MTEXTEND
  0
POINT
  5
E73
330
E6A
100
AcDbEntity
  8
DEFPOINTS
 62
     0
100
AcDbPoint
 10
1688.819433450266
 20
2292.611406092286
 30
0.0
  0
POINT
  5
E74
330
E6A
100
AcDbEntity
  8
DEFPOINTS
 62
     0
100
AcDbPoint
 10
1788.819433450265
 20
2272.611406092286
 30
0.0
  0
POINT
  5
E75
330
E6A
100
AcDbEntity
  8
DEFPOINTS
 62
     0
100
AcDbPoint
 10
1788.819433450265
 20
2476.519909164446
 30
0.0
  0
ENDBLK
  5
E77
330
E6A
100
AcDbEntity
  8
0
100
AcDbBlockEnd
  0
BLOCK
  5
E83
330
E79
100
AcDbEntity
  8
0
100
AcDbBlockBegin
  2
*D8
 70
     1
 10
0.0
 20
0.0
 30
0.0
  3
*D8
  1

  0
LINE
  5
E7A
330
E79
100
AcDbEntity
  8
SUNPO
 62
   144
100
AcDbLine
 10
1788.819433450265
 20
2312.611406092286
 30
0.0
 11
1788.819433450265
 21
2486.519909164446
 31
0.0
  0
LINE
  5
E7B
330
E79
100
AcDbEntity
  8
SUNPO
 62
   144
100
AcDbLine
 10
2138.819433450266
 20
2247.611406092286
 30
0.0
 11
2138.819433450266
 21
2486.519909164446
 31
0.0
  0
LINE
  5
E7C
330
E79
100
AcDbEntity
  8
SUNPO
 62
   144
100
AcDbLine
 10
1808.819433450265
 20
2476.519909164446
 30
0.0
 11
2118.819433450266
 21
2476.519909164446
 31
0.0
  0
SOLID
  5
E7D
330
E79
100
AcDbEntity
  8
SUNPO
 62
   144
100
AcDbTrace
 10
1808.819433450265
 20
2479.853242497779
 30
0.0
 11
1808.819433450265
 21
2473.186575831113
 31
0.0
 12
1788.819433450265
 22
2476.519909164446
 32
0.0
 13
1788.819433450265
 23
2476.519909164446
 33
0.0
  0
SOLID
  5
E7E
330
E79
100
AcDbEntity
  8
SUNPO
 62
   144
100
AcDbTrace
 10
2118.819433450266
 20
2479.853242497779
 30
0.0
 11
2118.819433450266
 21
2473.186575831113
 31
0.0
 12
2138.819433450266
 22
2476.519909164446
 32
0.0
 13
2138.819433450266
 23
2476.519909164446
 33
0.0
  0
MTEXT
  5
E7F
330
E79
100
AcDbEntity
  8
SUNPO
 62
     7
100
AcDbMText
 10
1963.819433450266
 20
2509.019909164446
 30
0.0
 40
40.0
 41
0.0
 71
     5
 72
     1
  1
\A2;350
  7
ADD
1001
ACAD
1000
MTEXTBEGIN
1070
    73
1070
     1
1070
    44
1040
1.0
1070
    74
1070
     0
1000
MTEXTEND
1000
MTEXTBEGIN
1070
    73
1070
     1
1070
    44
1040
1.0
1070
    74
1070
     0
1000
MTEXTEND
1000
MTEXTBEGIN
1070
    73
1070
     1
1070
    44
1040
1.0
1070
    74
1070
     0
1000
MTEXTEND
  0
POINT
  5
E80
330
E79
100
AcDbEntity
  8
DEFPOINTS
 62
     0
100
AcDbPoint
 10
1788.819433450265
 20
2292.611406092286
 30
0.0
  0
POINT
  5
E81
330
E79
100
AcDbEntity
  8
DEFPOINTS
 62
     0
100
AcDbPoint
 10
2138.819433450266
 20
2227.611406092286
 30
0.0
  0
POINT
  5
E82
330
E79
100
AcDbEntity
  8
DEFPOINTS
 62
     0
100
AcDbPoint
 10
2138.819433450266
 20
2476.519909164446
 30
0.0
  0
ENDBLK
  5
E84
330
E79
100
AcDbEntity
  8
0
100
AcDbBlockEnd
  0
BLOCK
  5
E92
330
E86
100
AcDbEntity
  8
0
100
AcDbBlockBegin
  2
*D9
 70
     1
 10
0.0
 20
0.0
 30
0.0
  3
*D9
  1

  0
LINE
  5
E87
330
E86
100
AcDbEntity
  8
SUNPO
 62
   144
100
AcDbLine
 10
2138.819433450266
 20
2267.611406092286
 30
0.0
 11
2138.819433450266
 21
2486.519909164446
 31
0.0
  0
LINE
  5
E88
330
E86
100
AcDbEntity
  8
SUNPO
 62
   144
100
AcDbLine
 10
2238.819433450266
 20
2252.611406092286
 30
0.0
 11
2238.819433450266
 21
2486.519909164446
 31
0.0
  0
LINE
  5
E89
330
E86
100
AcDbEntity
  8
SUNPO
 62
   144
100
AcDbLine
 10
2118.819433450266
 20
2476.519909164446
 30
0.0
 11
2098.819433450266
 21
2476.519909164446
 31
0.0
  0
LINE
  5
E8A
330
E86
100
AcDbEntity
  8
SUNPO
 62
   144
100
AcDbLine
 10
2258.819433450266
 20
2476.519909164446
 30
0.0
 11
2278.819433450265
 21
2476.519909164446
 31
0.0
  0
LINE
  5
E8B
330
E86
100
AcDbEntity
  8
SUNPO
 62
   144
100
AcDbLine
 10
2138.819433450266
 20
2476.519909164446
 30
0.0
 11
2238.819433450266
 21
2476.519909164446
 31
0.0
  0
SOLID
  5
E8C
330
E86
100
AcDbEntity
  8
SUNPO
 62
   144
100
AcDbTrace
 10
2118.819433450266
 20
2479.853242497779
 30
0.0
 11
2118.819433450266
 21
2473.186575831113
 31
0.0
 12
2138.819433450266
 22
2476.519909164446
 32
0.0
 13
2138.819433450266
 23
2476.519909164446
 33
0.0
  0
SOLID
  5
E8D
330
E86
100
AcDbEntity
  8
SUNPO
 62
   144
100
AcDbTrace
 10
2258.819433450266
 20
2479.853242497779
 30
0.0
 11
2258.819433450266
 21
2473.186575831113
 31
0.0
 12
2238.819433450266
 22
2476.519909164446
 32
0.0
 13
2238.819433450266
 23
2476.519909164446
 33
0.0
  0
MTEXT
  5
E8E
330
E86
100
AcDbEntity
  8
SUNPO
 62
     7
100
AcDbMText
 10
2188.819433450265
 20
2509.019909164446
 30
0.0
 40
40.0
 41
0.0
 71
     5
 72
     1
  1
\A2;100
  7
ADD
1001
ACAD
1000
MTEXTBEGIN
1070
    73
1070
     1
1070
    44
1040
1.0
1070
    74
1070
     0
1000
MTEXTEND
1000
MTEXTBEGIN
1070
    73
1070
     1
1070
    44
1040
1.0
1070
    74
1070
     0
1000
MTEXTEND
1000
MTEXTBEGIN
1070
    73
1070
     1
1070
    44
1040
1.0
1070
    74
1070
     0
1000
MTEXTEND
  0
POINT
  5
E8F
330
E86
100
AcDbEntity
  8
DEFPOINTS
 62
     0
100
AcDbPoint
 10
2138.819433450266
 20
2247.611406092286
 30
0.0
  0
POINT
  5
E90
330
E86
100
AcDbEntity
  8
DEFPOINTS
 62
     0
100
AcDbPoint
 10
2238.819433450266
 20
2232.611406092286
 30
0.0
  0
POINT
  5
E91
330
E86
100
AcDbEntity
  8
DEFPOINTS
 62
     0
100
AcDbPoint
 10
2238.819433450266
 20
2476.519909164446
 30
0.0
  0
ENDBLK
  5
E93
330
E86
100
AcDbEntity
  8
0
100
AcDbBlockEnd
  0
BLOCK
  5
E9F
330
E95
100
AcDbEntity
  8
0
100
AcDbBlockBegin
  2
*D10
 70
     1
 10
0.0
 20
0.0
 30
0.0
  3
*D10
  1

  0
LINE
  5
E96
330
E95
100
AcDbEntity
  8
SUNPO
 62
   144
100
AcDbLine
 10
2158.819433450266
 20
2227.611406092286
 30
0.0
 11
2373.994052918309
 21
2227.611406092286
 31
0.0
  0
LINE
  5
E97
330
E95
100
AcDbEntity
  8
SUNPO
 62
   144
100
AcDbLine
 10
2158.819433450266
 20
2137.611406092286
 30
0.0
 11
2373.994052918309
 21
2137.611406092286
 31
0.0
  0
LINE
  5
E98
330
E95
100
AcDbEntity
  8
SUNPO
 62
   144
100
AcDbLine
 10
2363.994052918309
 20
2207.611406092286
 30
0.0
 11
2363.994052918309
 21
2157.611406092286
 31
0.0
  0
SOLID
  5
E99
330
E95
100
AcDbEntity
  8
SUNPO
 62
   144
100
AcDbTrace
 10
2360.660719584976
 20
2207.611406092286
 30
0.0
 11
2367.327386251643
 21
2207.611406092286
 31
0.0
 12
2363.994052918309
 22
2227.611406092286
 32
0.0
 13
2363.994052918309
 23
2227.611406092286
 33
0.0
  0
SOLID
  5
E9A
330
E95
100
AcDbEntity
  8
SUNPO
 62
   144
100
AcDbTrace
 10
2360.660719584976
 20
2157.611406092286
 30
0.0
 11
2367.327386251643
 21
2157.611406092286
 31
0.0
 12
2363.994052918309
 22
2137.611406092286
 32
0.0
 13
2363.994052918309
 23
2137.611406092286
 33
0.0
  0
MTEXT
  5
E9B
330
E95
100
AcDbEntity
  8
SUNPO
 62
     7
100
AcDbMText
 10
2331.494052918309
 20
2182.611406092286
 30
0.0
 40
40.0
 41
0.0
 71
     5
 72
     1
  1
\A2;90
  7
ADD
 11
0.0000000000000001
 21
1.0
 31
0.0
1001
ACAD
1000
MTEXTBEGIN
1070
    73
1070
     1
1070
    44
1040
1.0
1070
    74
1070
     0
1000
MTEXTEND
1000
MTEXTBEGIN
1070
    73
1070
     1
1070
    44
1040
1.0
1070
    74
1070
     0
1000
MTEXTEND
1000
MTEXTBEGIN
1070
    73
1070
     1
1070
    44
1040
1.0
1070
    74
1070
     0
1000
MTEXTEND
  0
POINT
  5
E9C
330
E95
100
AcDbEntity
  8
DEFPOINTS
 62
     0
100
AcDbPoint
 10
2138.819433450266
 20
2227.611406092286
 30
0.0
  0
POINT
  5
E9D
330
E95
100
AcDbEntity
  8
DEFPOINTS
 62
     0
100
AcDbPoint
 10
2138.819433450266
 20
2137.611406092286
 30
0.0
  0
POINT
  5
E9E
330
E95
100
AcDbEntity
  8
DEFPOINTS
 62
     0
100
AcDbPoint
 10
2363.994052918309
 20
2137.611406092286
 30
0.0
  0
ENDBLK
  5
EA0
330
E95
100
AcDbEntity
  8
0
100
AcDbBlockEnd
  0
BLOCK
  5
EAC
330
EA2
100
AcDbEntity
  8
0
100
AcDbBlockBegin
  2
*D11
 70
     1
 10
0.0
 20
0.0
 30
0.0
  3
*D11
  1

  0
LINE
  5
EA3
330
EA2
100
AcDbEntity
  8
SUNPO
 62
   144
100
AcDbLine
 10
2258.819433450266
 20
2232.611406092286
 30
0.0
 11
2477.568366750363
 21
2232.611406092286
 31
0.0
  0
LINE
  5
EA4
330
EA2
100
AcDbEntity
  8
SUNPO
 62
   144
100
AcDbLine
 10
2258.819433450266
 20
2137.611406092286
 30
0.0
 11
2477.568366750363
 21
2137.611406092286
 31
0.0
  0
LINE
  5
EA5
330
EA2
100
AcDbEntity
  8
SUNPO
 62
   144
100
AcDbLine
 10
2467.568366750363
 20
2212.611406092286
 30
0.0
 11
2467.568366750363
 21
2157.611406092286
 31
0.0
  0
SOLID
  5
EA6
330
EA2
100
AcDbEntity
  8
SUNPO
 62
   144
100
AcDbTrace
 10
2464.23503341703
 20
2212.611406092286
 30
0.0
 11
2470.901700083697
 21
2212.611406092286
 31
0.0
 12
2467.568366750363
 22
2232.611406092286
 32
0.0
 13
2467.568366750363
 23
2232.611406092286
 33
0.0
  0
SOLID
  5
EA7
330
EA2
100
AcDbEntity
  8
SUNPO
 62
   144
100
AcDbTrace
 10
2464.23503341703
 20
2157.611406092286
 30
0.0
 11
2470.901700083697
 21
2157.611406092286
 31
0.0
 12
2467.568366750363
 22
2137.611406092286
 32
0.0
 13
2467.568366750363
 23
2137.611406092286
 33
0.0
  0
MTEXT
  5
EA8
330
EA2
100
AcDbEntity
  8
SUNPO
 62
     7
100
AcDbMText
 10
2435.068366750363
 20
2185.111406092286
 30
0.0
 40
40.0
 41
0.0
 71
     5
 72
     1
  1
\A2;95
  7
ADD
 11
0.0000000000000001
 21
1.0
 31
0.0
1001
ACAD
1000
MTEXTBEGIN
1070
    73
1070
     1
1070
    44
1040
1.0
1070
    74
1070
     0
1000
MTEXTEND
1000
MTEXTBEGIN
1070
    73
1070
     1
1070
    44
1040
1.0
1070
    74
1070
     0
1000
MTEXTEND
1000
MTEXTBEGIN
1070
    73
1070
     1
1070
    44
1040
1.0
1070
    74
1070
     0
1000
MTEXTEND
  0
POINT
  5
EA9
330
EA2
100
AcDbEntity
  8
DEFPOINTS
 62
     0
100
AcDbPoint
 10
2238.819433450266
 20
2232.611406092286
 30
0.0
  0
POINT
  5
EAA
330
EA2
100
AcDbEntity
  8
DEFPOINTS
 62
     0
100
AcDbPoint
 10
2238.819433450266
 20
2137.611406092286
 30
0.0
  0
POINT
  5
EAB
330
EA2
100
AcDbEntity
  8
DEFPOINTS
 62
     0
100
AcDbPoint
 10
2467.568366750363
 20
2137.611406092286
 30
0.0
  0
ENDBLK
  5
EAD
330
EA2
100
AcDbEntity
  8
0
100
AcDbBlockEnd
  0
BLOCK
  5
EB9
330
EAF
100
AcDbEntity
  8
0
100
AcDbBlockBegin
  2
*D12
 70
     1
 10
0.0
 20
0.0
 30
0.0
  3
*D12
  1

  0
LINE
  5
EB0
330
EAF
100
AcDbEntity
  8
SUNPO
 62
   144
100
AcDbLine
 10
1688.819433450266
 20
2117.611406092286
 30
0.0
 11
1688.819433450266
 21
2033.646643413798
 31
0.0
  0
LINE
  5
EB1
330
EAF
100
AcDbEntity
  8
SUNPO
 62
   144
100
AcDbLine
 10
2238.819433450266
 20
2117.611406092286
 30
0.0
 11
2238.819433450266
 21
2033.646643413798
 31
0.0
  0
LINE
  5
EB2
330
EAF
100
AcDbEntity
  8
SUNPO
 62
   144
100
AcDbLine
 10
1708.819433450265
 20
2043.646643413798
 30
0.0
 11
2218.819433450266
 21
2043.646643413798
 31
0.0
  0
SOLID
  5
EB3
330
EAF
100
AcDbEntity
  8
SUNPO
 62
   144
100
AcDbTrace
 10
1708.819433450265
 20
2046.979976747131
 30
0.0
 11
1708.819433450265
 21
2040.313310080465
 31
0.0
 12
1688.819433450266
 22
2043.646643413798
 32
0.0
 13
1688.819433450266
 23
2043.646643413798
 33
0.0
  0
SOLID
  5
EB4
330
EAF
100
AcDbEntity
  8
SUNPO
 62
   144
100
AcDbTrace
 10
2218.819433450266
 20
2046.979976747131
 30
0.0
 11
2218.819433450266
 21
2040.313310080465
 31
0.0
 12
2238.819433450266
 22
2043.646643413798
 32
0.0
 13
2238.819433450266
 23
2043.646643413798
 33
0.0
  0
MTEXT
  5
EB5
330
EAF
100
AcDbEntity
  8
SUNPO
 62
     7
100
AcDbMText
 10
1963.819433450266
 20
2076.146643413798
 30
0.0
 40
40.0
 41
0.0
 71
     5
 72
     1
  1
\A2;550
  7
ADD
1001
ACAD
1000
MTEXTBEGIN
1070
    73
1070
     1
1070
    44
1040
1.0
1070
    74
1070
     0
1000
MTEXTEND
1000
MTEXTBEGIN
1070
    73
1070
     1
1070
    44
1040
1.0
1070
    74
1070
     0
1000
MTEXTEND
1000
MTEXTBEGIN
1070
    73
1070
     1
1070
    44
1040
1.0
1070
    74
1070
     0
1000
MTEXTEND
  0
POINT
  5
EB6
330
EAF
100
AcDbEntity
  8
DEFPOINTS
 62
     0
100
AcDbPoint
 10
1688.819433450266
 20
2137.611406092286
 30
0.0
  0
POINT
  5
EB7
330
EAF
100
AcDbEntity
  8
DEFPOINTS
 62
     0
100
AcDbPoint
 10
2238.819433450266
 20
2137.611406092286
 30
0.0
  0
POINT
  5
EB8
330
EAF
100
AcDbEntity
  8
DEFPOINTS
 62
     0
100
AcDbPoint
 10
2238.819433450266
 20
2043.646643413798
 30
0.0
  0
ENDBLK
  5
EBA
330
EAF
100
AcDbEntity
  8
0
100
AcDbBlockEnd
  0
BLOCK
  5
FBC
330
FB2
100
AcDbEntity
  8
0
100
AcDbBlockBegin
  2
*D13
 70
     1
 10
0.0
 20
0.0
 30
0.0
  3
*D13
  1

  0
LINE
  5
FB3
330
FB2
100
AcDbEntity
  8
SUNPO
 62
   144
100
AcDbLine
 10
1668.819433450266
 20
2292.611406092286
 30
0.0
 11
1373.605400058288
 21
2292.611406092286
 31
0.0
  0
LINE
  5
FB4
330
FB2
100
AcDbEntity
  8
SUNPO
 62
   144
100
AcDbLine
 10
1668.819433450266
 20
2137.611406092286
 30
0.0
 11
1373.605400058288
 21
2137.611406092286
 31
0.0
  0
LINE
  5
FB5
330
FB2
100
AcDbEntity
  8
SUNPO
 62
   144
100
AcDbLine
 10
1383.605400058288
 20
2272.611406092286
 30
0.0
 11
1383.605400058288
 21
2157.611406092286
 31
0.0
  0
SOLID
  5
FB6
330
FB2
100
AcDbEntity
  8
SUNPO
 62
   144
100
AcDbTrace
 10
1380.272066724955
 20
2272.611406092286
 30
0.0
 11
1386.938733391621
 21
2272.611406092286
 31
0.0
 12
1383.605400058288
 22
2292.611406092286
 32
0.0
 13
1383.605400058288
 23
2292.611406092286
 33
0.0
  0
SOLID
  5
FB7
330
FB2
100
AcDbEntity
  8
SUNPO
 62
   144
100
AcDbTrace
 10
1380.272066724955
 20
2157.611406092286
 30
0.0
 11
1386.938733391621
 21
2157.611406092286
 31
0.0
 12
1383.605400058288
 22
2137.611406092286
 32
0.0
 13
1383.605400058288
 23
2137.611406092286
 33
0.0
  0
MTEXT
  5
FB8
330
FB2
100
AcDbEntity
  8
SUNPO
 62
     7
100
AcDbMText
 10
1351.105400058288
 20
2215.111406092286
 30
0.0
 40
40.0
 41
0.0
 71
     5
 72
     1
  1
\A2;155
  7
ADD
 11
0.0000000000000001
 21
1.0
 31
0.0
1001
ACAD
1000
MTEXTBEGIN
1070
    73
1070
     1
1070
    44
1040
1.0
1070
    74
1070
     0
1000
MTEXTEND
  0
POINT
  5
FB9
330
FB2
100
AcDbEntity
  8
DEFPOINTS
 62
     0
100
AcDbPoint
 10
1688.819433450266
 20
2292.611406092286
 30
0.0
  0
POINT
  5
FBA
330
FB2
100
AcDbEntity
  8
DEFPOINTS
 62
     0
100
AcDbPoint
 10
1688.819433450266
 20
2137.611406092286
 30
0.0
  0
POINT
  5
FBB
330
FB2
100
AcDbEntity
  8
DEFPOINTS
 62
     0
100
AcDbPoint
 10
1383.605400058288
 20
2137.611406092286
 30
0.0
  0
ENDBLK
  5
FBD
330
FB2
100
AcDbEntity
  8
0
100
AcDbBlockEnd
  0
ENDSEC
  0
SECTION
  2
ENTITIES
  0
LINE
  5
60A
330
1F
100
AcDbEntity
  8
HOJO
100
AcDbLine
 10
360.0
 20
260.0
 30
0.0
 11
5580.0
 21
260.0
 31
0.0
  0
LINE
  5
60B
330
1F
100
AcDbEntity
  8
HOJO
100
AcDbLine
 10
360.0
 20
560.0
 30
0.0
 11
5580.0
 21
560.0
 31
0.0
  0
LINE
  5
60C
330
1F
100
AcDbEntity
  8
HOJO
100
AcDbLine
 10
360.0
 20
260.0
 30
0.0
 11
360.0
 21
560.0
 31
0.0
  0
LINE
  5
60D
330
1F
100
AcDbEntity
  8
HOJO
100
AcDbLine
 10
2360.0
 20
260.0
 30
0.0
 11
2360.0
 21
560.0
 31
0.0
  0
LINE
  5
60F
330
1F
100
AcDbEntity
  8
HOJO
100
AcDbLine
 10
3160.0
 20
260.0
 30
0.0
 11
3160.0
 21
560.0
 31
0.0
  0
LINE
  5
610
330
1F
100
AcDbEntity
  8
HOJO
100
AcDbLine
 10
3660.0
 20
260.0
 30
0.0
 11
3660.0
 21
560.0
 31
0.0
  0
LINE
  5
9E5
330
1F
100
AcDbEntity
  8
3C1
100
AcDbLine
 10
3725.056882238605
 20
2137.611406092286
 30
0.0
 11
3125.056882238605
 21
2137.611406092286
 31
0.0
  0
LINE
  5
9E6
330
1F
100
AcDbEntity
  8
3C1
100
AcDbLine
 10
3725.52983972492
 20
2292.611406092285
 30
0.0
 11
3125.52983972492
 21
2292.611406092285
 31
0.0
  0
LINE
  5
DAE
330
1F
100
AcDbEntity
  8
3C1
100
AcDbLine
 10
3725.056882238605
 20
2137.611406092286
 30
0.0
 11
3725.52983972492
 21
2292.611406092285
 31
0.0
  0
LINE
  5
E2A
330
1F
100
AcDbEntity
  8
3C1
100
AcDbLine
 10
1688.819433450266
 20
2137.611406092286
 30
0.0
 11
2238.819433450266
 21
2137.611406092286
 31
0.0
  0
LINE
  5
E2B
330
1F
100
AcDbEntity
  8
3C1
100
AcDbLine
 10
2238.819433450266
 20
2137.611406092286
 30
0.0
 11
2238.819433450266
 21
2232.611406092286
 31
0.0
  0
LINE
  5
E2F
330
1F
100
AcDbEntity
  8
3C1
100
AcDbLine
 10
2138.819433450266
 20
2227.611406092286
 30
0.0
 11
2238.819433450266
 21
2232.611406092286
 31
0.0
  0
LINE
  5
E31
330
1F
100
AcDbEntity
  8
3C1
100
AcDbLine
 10
1688.819433450266
 20
2137.611406092286
 30
0.0
 11
1688.819433450266
 21
2292.611406092286
 31
0.0
  0
LINE
  5
E32
330
1F
100
AcDbEntity
  8
3C1
100
AcDbLine
 10
1688.819433450266
 20
2292.611406092286
 30
0.0
 11
1768.819433450266
 21
2292.611406092286
 31
0.0
  0
LINE
  5
E33
330
1F
100
AcDbEntity
  8
3C1
100
AcDbLine
 10
1788.819433450266
 20
2272.611406092286
 30
0.0
 11
1788.819433450266
 21
2214.711157334528
 31
0.0
  0
LINE
  5
E34
330
1F
100
AcDbEntity
  8
3C1
100
AcDbLine
 10
2138.819433450266
 20
2227.611406092286
 30
0.0
 11
1810.809507830686
 21
2194.810413530328
 31
0.0
  0
ARC
  5
E53
330
1F
100
AcDbEntity
  8
3C1
100
AcDbCircle
 10
1768.819433450266
 20
2272.611406092286
 30
0.0
 40
20.0
100
AcDbArc
 50
0.0
 51
90.0
  0
ARC
  5
E54
330
1F
100
AcDbEntity
  8
3C1
100
AcDbCircle
 10
1808.819433450265
 20
2214.711157334528
 30
0.0
 40
20.0
100
AcDbArc
 50
180.0
 51
275.7105931374996
  0
LINE
  5
EBB
330
1F
100
AcDbEntity
  8
3C1
100
AcDbLine
 10
3125.056882238605
 20
2137.611406092286
 30
0.0
 11
3125.056882238605
 21
2232.611406092286
 31
0.0
  0
LINE
  5
EBD
330
1F
100
AcDbEntity
  8
3C1
100
AcDbLine
 10
3125.056882238605
 20
2232.611406092286
 30
0.0
 11
3725.056882238605
 21
2232.611406092286
 31
0.0
  0
LINE
  5
EBE
330
1F
100
AcDbEntity
  8
3C1
100
AcDbLine
 10
3125.056882238605
 20
2232.611406092286
 30
0.0
 11
3125.52983972492
 21
2292.611406092285
 31
0.0
  0
LINE
  5
102F
330
1F
100
AcDbEntity
  8
SUNPO
 62
   144
100
AcDbLine
 10
1668.819433450266
 20
2292.611406092286
 30
0.0
 11
1373.605400058288
 21
2292.611406092286
 31
0.0
  0
LINE
  5
1030
330
1F
100
AcDbEntity
  8
SUNPO
 62
   144
100
AcDbLine
 10
1668.819433450266
 20
2137.611406092286
 30
0.0
 11
1373.605400058288
 21
2137.611406092286
 31
0.0
  0
LINE
  5
1031
330
1F
100
AcDbEntity
  8
SUNPO
 62
   144
100
AcDbLine
 10
1383.605400058288
 20
2272.611406092286
 30
0.0
 11
1383.605400058288
 21
2157.611406092286
 31
0.0
  0
SOLID
  5
1032
330
1F
100
AcDbEntity
  8
SUNPO
 62
   144
100
AcDbTrace
 10
1380.272066724955
 20
2272.611406092286
 30
0.0
 11
1386.938733391621
 21
2272.611406092286
 31
0.0
 12
1383.605400058288
 22
2292.611406092286
 32
0.0
 13
1383.605400058288
 23
2292.611406092286
 33
0.0
  0
SOLID
  5
1033
330
1F
100
AcDbEntity
  8
SUNPO
 62
   144
100
AcDbTrace
 10
1380.272066724955
 20
2157.611406092286
 30
0.0
 11
1386.938733391621
 21
2157.611406092286
 31
0.0
 12
1383.605400058288
 22
2137.611406092286
 32
0.0
 13
1383.605400058288
 23
2137.611406092286
 33
0.0
  0
TEXT
  5
1035
330
1F
100
AcDbEntity
  8
SUNPO
100
AcDbText
 10
2576.766649736178
 20
358.942846802196
 30
0.0
 40
80.0
  1
３５０
  7
ADD
100
AcDbText
1001
ACAD
1000
MTEXTBEGIN
1070
    73
1070
     1
1070
    44
1040
1.0
1070
    74
1070
     0
1000
MTEXTEND
1000
MTEXTBEGIN
1070
    73
1070
     1
1070
    44
1040
1.0
1070
    74
1070
     0
1000
MTEXTEND
1000
MTEXTBEGIN
1070
    73
1070
     1
1070
    44
1040
1.0
1070
    74
1070
     0
1000
MTEXTEND
  0
LINE
  5
1036
330
1F
100
AcDbEntity
  8
SUNPO
 62
   144
100
AcDbLine
 10
1688.819433450266
 20
2117.611406092286
 30
0.0
 11
1688.819433450266
 21
2033.646643413798
 31
0.0
  0
LINE
  5
1037
330
1F
100
AcDbEntity
  8
SUNPO
 62
   144
100
AcDbLine
 10
2238.819433450266
 20
2117.611406092286
 30
0.0
 11
2238.819433450266
 21
2033.646643413798
 31
0.0
  0
LINE
  5
1038
330
1F
100
AcDbEntity
  8
SUNPO
 62
   144
100
AcDbLine
 10
1708.819433450265
 20
2043.646643413798
 30
0.0
 11
2218.819433450266
 21
2043.646643413798
 31
0.0
  0
SOLID
  5
1039
330
1F
100
AcDbEntity
  8
SUNPO
 62
   144
100
AcDbTrace
 10
1708.819433450265
 20
2046.979976747131
 30
0.0
 11
1708.819433450265
 21
2040.313310080465
 31
0.0
 12
1688.819433450266
 22
2043.646643413798
 32
0.0
 13
1688.819433450266
 23
2043.646643413798
 33
0.0
  0
SOLID
  5
103A
330
1F
100
AcDbEntity
  8
SUNPO
 62
   144
100
AcDbTrace
 10
2218.819433450266
 20
2046.979976747131
 30
0.0
 11
2218.819433450266
 21
2040.313310080465
 31
0.0
 12
2238.819433450266
 22
2043.646643413798
 32
0.0
 13
2238.819433450266
 23
2043.646643413798
 33
0.0
  0
LINE
  5
103C
330
1F
100
AcDbEntity
  8
SUNPO
 62
   144
100
AcDbLine
 10
2258.819433450266
 20
2232.611406092286
 30
0.0
 11
2477.568366750363
 21
2232.611406092286
 31
0.0
  0
LINE
  5
103D
330
1F
100
AcDbEntity
  8
SUNPO
 62
   144
100
AcDbLine
 10
2258.819433450266
 20
2137.611406092286
 30
0.0
 11
2477.568366750363
 21
2137.611406092286
 31
0.0
  0
LINE
  5
103E
330
1F
100
AcDbEntity
  8
SUNPO
 62
   144
100
AcDbLine
 10
2467.568366750363
 20
2212.611406092286
 30
0.0
 11
2467.568366750363
 21
2157.611406092286
 31
0.0
  0
SOLID
  5
103F
330
1F
100
AcDbEntity
  8
SUNPO
 62
   144
100
AcDbTrace
 10
2464.23503341703
 20
2212.611406092286
 30
0.0
 11
2470.901700083697
 21
2212.611406092286
 31
0.0
 12
2467.568366750363
 22
2232.611406092286
 32
0.0
 13
2467.568366750363
 23
2232.611406092286
 33
0.0
  0
SOLID
  5
1040
330
1F
100
AcDbEntity
  8
SUNPO
 62
   144
100
AcDbTrace
 10
2464.23503341703
 20
2157.611406092286
 30
0.0
 11
2470.901700083697
 21
2157.611406092286
 31
0.0
 12
2467.568366750363
 22
2137.611406092286
 32
0.0
 13
2467.568366750363
 23
2137.611406092286
 33
0.0
  0
LINE
  5
1042
330
1F
100
AcDbEntity
  8
SUNPO
 62
   144
100
AcDbLine
 10
2158.819433450266
 20
2227.611406092286
 30
0.0
 11
2373.994052918309
 21
2227.611406092286
 31
0.0
  0
LINE
  5
1043
330
1F
100
AcDbEntity
  8
SUNPO
 62
   144
100
AcDbLine
 10
2158.819433450266
 20
2137.611406092286
 30
0.0
 11
2373.994052918309
 21
2137.611406092286
 31
0.0
  0
LINE
  5
1044
330
1F
100
AcDbEntity
  8
SUNPO
 62
   144
100
AcDbLine
 10
2363.994052918309
 20
2207.611406092286
 30
0.0
 11
2363.994052918309
 21
2157.611406092286
 31
0.0
  0
SOLID
  5
1045
330
1F
100
AcDbEntity
  8
SUNPO
 62
   144
100
AcDbTrace
 10
2360.660719584976
 20
2207.611406092286
 30
0.0
 11
2367.327386251643
 21
2207.611406092286
 31
0.0
 12
2363.994052918309
 22
2227.611406092286
 32
0.0
 13
2363.994052918309
 23
2227.611406092286
 33
0.0
  0
SOLID
  5
1046
330
1F
100
AcDbEntity
  8
SUNPO
 62
   144
100
AcDbTrace
 10
2360.660719584976
 20
2157.611406092286
 30
0.0
 11
2367.327386251643
 21
2157.611406092286
 31
0.0
 12
2363.994052918309
 22
2137.611406092286
 32
0.0
 13
2363.994052918309
 23
2137.611406092286
 33
0.0
  0
LINE
  5
1048
330
1F
100
AcDbEntity
  8
SUNPO
 62
   144
100
AcDbLine
 10
2138.819433450266
 20
2267.611406092286
 30
0.0
 11
2138.819433450266
 21
2486.519909164446
 31
0.0
  0
LINE
  5
1049
330
1F
100
AcDbEntity
  8
SUNPO
 62
   144
100
AcDbLine
 10
2238.819433450266
 20
2252.611406092286
 30
0.0
 11
2238.819433450266
 21
2486.519909164446
 31
0.0
  0
LINE
  5
104A
330
1F
100
AcDbEntity
  8
SUNPO
 62
   144
100
AcDbLine
 10
2118.819433450266
 20
2476.519909164446
 30
0.0
 11
2098.819433450266
 21
2476.519909164446
 31
0.0
  0
LINE
  5
104B
330
1F
100
AcDbEntity
  8
SUNPO
 62
   144
100
AcDbLine
 10
2258.819433450266
 20
2476.519909164446
 30
0.0
 11
2278.819433450265
 21
2476.519909164446
 31
0.0
  0
LINE
  5
104C
330
1F
100
AcDbEntity
  8
SUNPO
 62
   144
100
AcDbLine
 10
2138.819433450266
 20
2476.519909164446
 30
0.0
 11
2238.819433450266
 21
2476.519909164446
 31
0.0
  0
SOLID
  5
104D
330
1F
100
AcDbEntity
  8
SUNPO
 62
   144
100
AcDbTrace
 10
2118.819433450266
 20
2479.853242497779
 30
0.0
 11
2118.819433450266
 21
2473.186575831113
 31
0.0
 12
2138.819433450266
 22
2476.519909164446
 32
0.0
 13
2138.819433450266
 23
2476.519909164446
 33
0.0
  0
SOLID
  5
104E
330
1F
100
AcDbEntity
  8
SUNPO
 62
   144
100
AcDbTrace
 10
2258.819433450266
 20
2479.853242497779
 30
0.0
 11
2258.819433450266
 21
2473.186575831113
 31
0.0
 12
2238.819433450266
 22
2476.519909164446
 32
0.0
 13
2238.819433450266
 23
2476.519909164446
 33
0.0
  0
LINE
  5
1050
330
1F
100
AcDbEntity
  8
SUNPO
 62
   144
100
AcDbLine
 10
1788.819433450265
 20
2312.611406092286
 30
0.0
 11
1788.819433450265
 21
2486.519909164446
 31
0.0
  0
LINE
  5
1051
330
1F
100
AcDbEntity
  8
SUNPO
 62
   144
100
AcDbLine
 10
2138.819433450266
 20
2247.611406092286
 30
0.0
 11
2138.819433450266
 21
2486.519909164446
 31
0.0
  0
LINE
  5
1052
330
1F
100
AcDbEntity
  8
SUNPO
 62
   144
100
AcDbLine
 10
1808.819433450265
 20
2476.519909164446
 30
0.0
 11
2118.819433450266
 21
2476.519909164446
 31
0.0
  0
SOLID
  5
1053
330
1F
100
AcDbEntity
  8
SUNPO
 62
   144
100
AcDbTrace
 10
1808.819433450265
 20
2479.853242497779
 30
0.0
 11
1808.819433450265
 21
2473.186575831113
 31
0.0
 12
1788.819433450265
 22
2476.519909164446
 32
0.0
 13
1788.819433450265
 23
2476.519909164446
 33
0.0
  0
SOLID
  5
1054
330
1F
100
AcDbEntity
  8
SUNPO
 62
   144
100
AcDbTrace
 10
2118.819433450266
 20
2479.853242497779
 30
0.0
 11
2118.819433450266
 21
2473.186575831113
 31
0.0
 12
2138.819433450266
 22
2476.519909164446
 32
0.0
 13
2138.819433450266
 23
2476.519909164446
 33
0.0
  0
LINE
  5
1056
330
1F
100
AcDbEntity
  8
SUNPO
 62
   144
100
AcDbLine
 10
1688.819433450266
 20
2312.611406092286
 30
0.0
 11
1688.819433450266
 21
2486.519909164446
 31
0.0
  0
LINE
  5
1057
330
1F
100
AcDbEntity
  8
SUNPO
 62
   144
100
AcDbLine
 10
1788.819433450265
 20
2292.611406092286
 30
0.0
 11
1788.819433450265
 21
2486.519909164446
 31
0.0
  0
LINE
  5
1058
330
1F
100
AcDbEntity
  8
SUNPO
 62
   144
100
AcDbLine
 10
1668.819433450266
 20
2476.519909164446
 30
0.0
 11
1648.819433450265
 21
2476.519909164446
 31
0.0
  0
LINE
  5
1059
330
1F
100
AcDbEntity
  8
SUNPO
 62
   144
100
AcDbLine
 10
1808.819433450265
 20
2476.519909164446
 30
0.0
 11
1828.819433450266
 21
2476.519909164446
 31
0.0
  0
LINE
  5
105A
330
1F
100
AcDbEntity
  8
SUNPO
 62
   144
100
AcDbLine
 10
1688.819433450266
 20
2476.519909164446
 30
0.0
 11
1788.819433450265
 21
2476.519909164446
 31
0.0
  0
SOLID
  5
105B
330
1F
100
AcDbEntity
  8
SUNPO
 62
   144
100
AcDbTrace
 10
1668.819433450266
 20
2479.853242497779
 30
0.0
 11
1668.819433450266
 21
2473.186575831113
 31
0.0
 12
1688.819433450266
 22
2476.519909164446
 32
0.0
 13
1688.819433450266
 23
2476.519909164446
 33
0.0
  0
SOLID
  5
105C
330
1F
100
AcDbEntity
  8
SUNPO
 62
   144
100
AcDbTrace
 10
1808.819433450265
 20
2479.853242497779
 30
0.0
 11
1808.819433450265
 21
2473.186575831113
 31
0.0
 12
1788.819433450265
 22
2476.519909164446
 32
0.0
 13
1788.819433450265
 23
2476.519909164446
 33
0.0
  0
LINE
  5
105E
330
1F
100
AcDbEntity
  8
SUNPO
 62
   144
100
AcDbLine
 10
1673.201902166203
 20
2084.718113940409
 30
0.0
 11
1779.942696750998
 21
2187.032030223993
 31
0.0
  0
LINE
  5
1060
330
1F
100
AcDbEntity
  8
SUNPO
 62
   144
100
AcDbLine
 10
1808.819433450266
 20
2214.711157334528
 30
0.0
 11
1794.381065100632
 21
2200.871593779261
 31
0.0
  0
SOLID
  5
1061
330
1F
100
AcDbEntity
  8
SUNPO
 62
   144
100
AcDbTrace
 10
1777.63610282512
 20
2189.438424948932
 30
0.0
 11
1782.249290676875
 21
2184.625635499054
 31
0.0
 12
1794.381065100632
 22
2200.871593779261
 32
0.0
 13
1794.381065100632
 23
2200.871593779261
 33
0.0
  0
LINE
  5
1062
330
1F
100
AcDbEntity
  8
SUNPO
 62
   144
100
AcDbLine
 10
1907.017201618188
 20
2399.857950233391
 30
0.0
 11
1798.24557420085
 21
2299.705727278225
 31
0.0
  0
LINE
  5
1064
330
1F
100
AcDbEntity
  8
SUNPO
 62
   144
100
AcDbLine
 10
1768.819433450266
 20
2272.611406092287
 30
0.0
 11
1783.532503825558
 21
2286.158566685256
 31
0.0
  0
SOLID
  5
1065
330
1F
100
AcDbEntity
  8
SUNPO
 62
   144
100
AcDbTrace
 10
1795.987714102022
 20
2302.157905674107
 30
0.0
 11
1800.503434299678
 21
2297.253548882343
 31
0.0
 12
1783.532503825558
 22
2286.158566685256
 32
0.0
 13
1783.532503825558
 23
2286.158566685256
 33
0.0
  0
LINE
  5
1066
330
1F
100
AcDbEntity
  8
SUNPO
 62
   144
100
AcDbLine
 10
1768.819433450266
 20
2192.611406092286
 30
0.0
 11
1530.662730385964
 21
2192.611406092286
 31
0.0
  0
LINE
  5
1067
330
1F
100
AcDbEntity
  8
SUNPO
 62
   144
100
AcDbLine
 10
1768.819433450266
 20
2137.611406092286
 30
0.0
 11
1530.662730385964
 21
2137.611406092286
 31
0.0
  0
LINE
  5
1068
330
1F
100
AcDbEntity
  8
SUNPO
 62
   144
100
AcDbLine
 10
1540.662730385964
 20
2212.611406092286
 30
0.0
 11
1540.662730385964
 21
2232.611406092286
 31
0.0
  0
LINE
  5
1069
330
1F
100
AcDbEntity
  8
SUNPO
 62
   144
100
AcDbLine
 10
1540.662730385964
 20
2117.611406092286
 30
0.0
 11
1540.662730385964
 21
2097.611406092286
 31
0.0
  0
LINE
  5
106A
330
1F
100
AcDbEntity
  8
SUNPO
 62
   144
100
AcDbLine
 10
1540.662730385964
 20
2192.611406092286
 30
0.0
 11
1540.662730385964
 21
2137.611406092286
 31
0.0
  0
SOLID
  5
106B
330
1F
100
AcDbEntity
  8
SUNPO
 62
   144
100
AcDbTrace
 10
1537.32939705263
 20
2212.611406092286
 30
0.0
 11
1543.996063719297
 21
2212.611406092286
 31
0.0
 12
1540.662730385964
 22
2192.611406092286
 32
0.0
 13
1540.662730385964
 23
2192.611406092286
 33
0.0
  0
SOLID
  5
106C
330
1F
100
AcDbEntity
  8
SUNPO
 62
   144
100
AcDbTrace
 10
1537.32939705263
 20
2117.611406092286
 30
0.0
 11
1543.996063719297
 21
2117.611406092286
 31
0.0
 12
1540.662730385964
 22
2137.611406092286
 32
0.0
 13
1540.662730385964
 23
2137.611406092286
 33
0.0
  0
LINE
  5
106E
330
1F
100
AcDbEntity
  8
SUNPO
 62
   144
100
AcDbLine
 10
1668.819433450266
 20
2292.611406092286
 30
0.0
 11
1530.662730385964
 21
2292.611406092286
 31
0.0
  0
LINE
  5
106F
330
1F
100
AcDbEntity
  8
SUNPO
 62
   144
100
AcDbLine
 10
1768.819433450266
 20
2192.611406092286
 30
0.0
 11
1530.662730385964
 21
2192.611406092286
 31
0.0
  0
LINE
  5
1070
330
1F
100
AcDbEntity
  8
SUNPO
 62
   144
100
AcDbLine
 10
1540.662730385964
 20
2312.611406092286
 30
0.0
 11
1540.662730385964
 21
2332.611406092286
 31
0.0
  0
LINE
  5
1071
330
1F
100
AcDbEntity
  8
SUNPO
 62
   144
100
AcDbLine
 10
1540.662730385964
 20
2172.611406092286
 30
0.0
 11
1540.662730385964
 21
2152.611406092286
 31
0.0
  0
LINE
  5
1072
330
1F
100
AcDbEntity
  8
SUNPO
 62
   144
100
AcDbLine
 10
1540.662730385964
 20
2292.611406092286
 30
0.0
 11
1540.662730385964
 21
2192.611406092286
 31
0.0
  0
SOLID
  5
1073
330
1F
100
AcDbEntity
  8
SUNPO
 62
   144
100
AcDbTrace
 10
1537.32939705263
 20
2312.611406092286
 30
0.0
 11
1543.996063719297
 21
2312.611406092286
 31
0.0
 12
1540.662730385964
 22
2292.611406092286
 32
0.0
 13
1540.662730385964
 23
2292.611406092286
 33
0.0
  0
SOLID
  5
1074
330
1F
100
AcDbEntity
  8
SUNPO
 62
   144
100
AcDbTrace
 10
1537.32939705263
 20
2172.611406092286
 30
0.0
 11
1543.996063719297
 21
2172.611406092286
 31
0.0
 12
1540.662730385964
 22
2192.611406092286
 32
0.0
 13
1540.662730385964
 23
2192.611406092286
 33
0.0
  0
TEXT
  5
1076
330
1F
100
AcDbEntity
  8
SUNPO
100
AcDbText
 10
479.769955436197
 20
364.6805196678378
 30
0.0
 40
80.0
  1
道路用鉄筋コンクリートＬ形側溝１種
  7
ADD
100
AcDbText
1001
ACAD
1000
MTEXTBEGIN
1070
    73
1070
     1
1070
    44
1040
1.0
1070
    74
1070
     0
1000
MTEXTEND
1000
MTEXTBEGIN
1070
    73
1070
     1
1070
    44
1040
1.0
1070
    74
1070
     0
1000
MTEXTEND
1000
MTEXTBEGIN
1070
    73
1070
     1
1070
    44
1040
1.0
1070
    74
1070
     0
1000
MTEXTEND
  0
LINE
  5
1077
330
1F
100
AcDbEntity
  8
SUNPO
 62
   144
100
AcDbLine
 10
3725.056882238605
 20
2117.611406092286
 30
0.0
 11
3725.056882238605
 21
2033.646643413798
 31
0.0
  0
LINE
  5
1078
330
1F
100
AcDbEntity
  8
SUNPO
 62
   144
100
AcDbLine
 10
3125.056882238605
 20
2117.611406092286
 30
0.0
 11
3125.056882238605
 21
2033.646643413798
 31
0.0
  0
LINE
  5
1079
330
1F
100
AcDbEntity
  8
SUNPO
 62
   144
100
AcDbLine
 10
3705.056882238604
 20
2043.646643413798
 30
0.0
 11
3145.056882238605
 21
2043.646643413798
 31
0.0
  0
SOLID
  5
107A
330
1F
100
AcDbEntity
  8
SUNPO
 62
   144
100
AcDbTrace
 10
3705.056882238604
 20
2046.979976747131
 30
0.0
 11
3705.056882238604
 21
2040.313310080465
 31
0.0
 12
3725.056882238605
 22
2043.646643413798
 32
0.0
 13
3725.056882238605
 23
2043.646643413798
 33
0.0
  0
SOLID
  5
107B
330
1F
100
AcDbEntity
  8
SUNPO
 62
   144
100
AcDbTrace
 10
3145.056882238605
 20
2046.979976747131
 30
0.0
 11
3145.056882238605
 21
2040.313310080465
 31
0.0
 12
3125.056882238605
 22
2043.646643413798
 32
0.0
 13
3125.056882238605
 23
2043.646643413798
 33
0.0
  0
TEXT
  5
107D
330
1F
100
AcDbEntity
  8
SUNPO
100
AcDbText
 10
3246.680311730542
 20
359.2274732162223
 30
0.0
 40
70.0
  1
１／２０
  7
ADD
100
AcDbText
1001
ACAD
1000
MTEXTBEGIN
1070
    73
1070
     1
1070
    44
1040
1.0
1070
    74
1070
     0
1000
MTEXTEND
1000
MTEXTBEGIN
1070
    73
1070
     1
1070
    44
1040
1.0
1070
    74
1070
     0
1000
MTEXTEND
1000
MTEXTBEGIN
1070
    73
1070
     1
1070
    44
1040
1.0
1070
    74
1070
     0
1000
MTEXTEND
1000
MTEXTBEGIN
1070
    73
1070
     1
1070
    44
1040
1.0
1070
    74
1070
     0
1000
MTEXTEND
1000
MTEXTBEGIN
1070
    73
1070
     1
1070
    44
1040
1.0
1070
    74
1070
     0
1000
MTEXTEND
1000
MTEXTBEGIN
1070
    73
1070
     1
1070
    44
1040
1.0
1070
    74
1070
     0
1000
MTEXTEND
1000
MTEXTBEGIN
1070
    73
1070
     1
1070
    44
1040
1.0
1070
    74
1070
     0
1000
MTEXTEND
1000
MTEXTBEGIN
1070
    73
1070
     1
1070
    44
1040
1.0
1070
    74
1070
     0
1000
MTEXTEND
  0
TEXT
  5
107E
330
1F
100
AcDbEntity
  8
SUNPO
100
AcDbText
 10
381.8862574011546
 20
488.6918916770627
 30
0.0
 40
50.0
  1
製品名
  7
ADD
100
AcDbText
1001
ACAD
1000
MTEXTBEGIN
1070
    73
1070
     1
1070
    44
1040
1.0
1070
    74
1070
     0
1000
MTEXTEND
1000
MTEXTBEGIN
1070
    73
1070
     1
1070
    44
1040
1.0
1070
    74
1070
     0
1000
MTEXTEND
1000
MTEXTBEGIN
1070
    73
1070
     1
1070
    44
1040
1.0
1070
    74
1070
     0
1000
MTEXTEND
1000
MTEXTBEGIN
1070
    73
1070
     1
1070
    44
1040
1.0
1070
    74
1070
     0
1000
MTEXTEND
1000
MTEXTBEGIN
1070
    73
1070
     1
1070
    44
1040
1.0
1070
    74
1070
     0
1000
MTEXTEND
1000
MTEXTBEGIN
1070
    73
1070
     1
1070
    44
1040
1.0
1070
    74
1070
     0
1000
MTEXTEND
1000
MTEXTBEGIN
1070
    73
1070
     1
1070
    44
1040
1.0
1070
    74
1070
     0
1000
MTEXTEND
1000
MTEXTBEGIN
1070
    73
1070
     1
1070
    44
1040
1.0
1070
    74
1070
     0
1000
MTEXTEND
  0
TEXT
  5
107F
330
1F
100
AcDbEntity
  8
SUNPO
100
AcDbText
 10
2376.290169028722
 20
494.4531736811823
 30
0.0
 40
50.0
  1
型式
  7
ADD
100
AcDbText
1001
ACAD
1000
MTEXTBEGIN
1070
    73
1070
     1
1070
    44
1040
1.0
1070
    74
1070
     0
1000
MTEXTEND
1000
MTEXTBEGIN
1070
    73
1070
     1
1070
    44
1040
1.0
1070
    74
1070
     0
1000
MTEXTEND
1000
MTEXTBEGIN
1070
    73
1070
     1
1070
    44
1040
1.0
1070
    74
1070
     0
1000
MTEXTEND
1000
MTEXTBEGIN
1070
    73
1070
     1
1070
    44
1040
1.0
1070
    74
1070
     0
1000
MTEXTEND
1000
MTEXTBEGIN
1070
    73
1070
     1
1070
    44
1040
1.0
1070
    74
1070
     0
1000
MTEXTEND
1000
MTEXTBEGIN
1070
    73
1070
     1
1070
    44
1040
1.0
1070
    74
1070
     0
1000
MTEXTEND
1000
MTEXTBEGIN
1070
    73
1070
     1
1070
    44
1040
1.0
1070
    74
1070
     0
1000
MTEXTEND
1000
MTEXTBEGIN
1070
    73
1070
     1
1070
    44
1040
1.0
1070
    74
1070
     0
1000
MTEXTEND
  0
TEXT
  5
1080
330
1F
100
AcDbEntity
  8
SUNPO
100
AcDbText
 10
3177.510249231658
 20
488.6918916770627
 30
0.0
 40
50.0
  1
縮尺
  7
ADD
100
AcDbText
1001
ACAD
1000
MTEXTBEGIN
1070
    73
1070
     1
1070
    44
1040
1.0
1070
    74
1070
     0
1000
MTEXTEND
1000
MTEXTBEGIN
1070
    73
1070
     1
1070
    44
1040
1.0
1070
    74
1070
     0
1000
MTEXTEND
1000
MTEXTBEGIN
1070
    73
1070
     1
1070
    44
1040
1.0
1070
    74
1070
     0
1000
MTEXTEND
1000
MTEXTBEGIN
1070
    73
1070
     1
1070
    44
1040
1.0
1070
    74
1070
     0
1000
MTEXTEND
1000
MTEXTBEGIN
1070
    73
1070
     1
1070
    44
1040
1.0
1070
    74
1070
     0
1000
MTEXTEND
1000
MTEXTBEGIN
1070
    73
1070
     1
1070
    44
1040
1.0
1070
    74
1070
     0
1000
MTEXTEND
1000
MTEXTBEGIN
1070
    73
1070
     1
1070
    44
1040
1.0
1070
    74
1070
     0
1000
MTEXTEND
1000
MTEXTBEGIN
1070
    73
1070
     1
1070
    44
1040
1.0
1070
    74
1070
     0
1000
MTEXTEND
  0
TEXT
  5
1081
330
1F
100
AcDbEntity
  8
SUNPO
100
AcDbText
 10
3730.870883051572
 20
352.2726133092145
 30
0.0
 40
100.0
  1
千葉県コンクリート製品協同組合
  7
ADD
100
AcDbText
1001
ACAD
1000
MTEXTBEGIN
1070
    73
1070
     1
1070
    44
1040
1.0
1070
    74
1070
     0
1000
MTEXTEND
1000
MTEXTBEGIN
1070
    73
1070
     1
1070
    44
1040
1.0
1070
    74
1070
     0
1000
MTEXTEND
1000
MTEXTBEGIN
1070
    73
1070
     1
1070
    44
1040
1.0
1070
    74
1070
     0
1000
MTEXTEND
1000
MTEXTBEGIN
1070
    73
1070
     1
1070
    44
1040
1.0
1070
    74
1070
     0
1000
MTEXTEND
1000
MTEXTBEGIN
1070
    73
1070
     1
1070
    44
1040
1.0
1070
    74
1070
     0
1000
MTEXTEND
1000
MTEXTBEGIN
1070
    73
1070
     1
1070
    44
1040
1.0
1070
    74
1070
     0
1000
MTEXTEND
1000
MTEXTBEGIN
1070
    73
1070
     1
1070
    44
1040
1.0
1070
    74
1070
     0
1000
MTEXTEND
1000
MTEXTBEGIN
1070
    73
1070
     1
1070
    44
1040
1.0
1070
    74
1070
     0
1000
MTEXTEND
  0
LINE
  5
1082
330
1F
100
AcDbEntity
  8
HOJO
100
AcDbLine
 10
360.0
 20
260.0
 30
0.0
 11
5580.0
 21
260.0
 31
0.0
  0
LINE
  5
1083
330
1F
100
AcDbEntity
  8
HOJO
100
AcDbLine
 10
5580.0
 20
260.0
 30
0.0
 11
5580.0
 21
3940.0
 31
0.0
  0
LINE
  5
1084
330
1F
100
AcDbEntity
  8
HOJO
100
AcDbLine
 10
5580.0
 20
3940.0
 30
0.0
 11
360.0
 21
3940.0
 31
0.0
  0
LINE
  5
1085
330
1F
100
AcDbEntity
  8
HOJO
100
AcDbLine
 10
360.0
 20
3940.0
 30
0.0
 11
360.0
 21
260.0
 31
0.0
  0
LINE
  5
1086
330
1F
100
AcDbEntity
  8
HOJO
100
AcDbLine
 10
0.0
 20
0.0
 30
0.0
 11
5940.0
 21
0.0
 31
0.0
  0
LINE
  5
1087
330
1F
100
AcDbEntity
  8
HOJO
100
AcDbLine
 10
5940.0
 20
0.0
 30
0.0
 11
5940.0
 21
4200.0
 31
0.0
  0
LINE
  5
1088
330
1F
100
AcDbEntity
  8
HOJO
100
AcDbLine
 10
5940.0
 20
4200.0
 30
0.0
 11
0.0
 21
4200.0
 31
0.0
  0
LINE
  5
1089
330
1F
100
AcDbEntity
  8
HOJO
100
AcDbLine
 10
0.0
 20
4200.0
 30
0.0
 11
0.0
 21
0.0
 31
0.0
  0
TEXT
  5
108A
330
1F
100
AcDbEntity
  8
SUNPO
 62
     7
100
AcDbText
 10
3366.961644143366
 20
2056.146643413798
 30
0.0
 40
40.0
  1
600
  7
ADD
100
AcDbText
1001
ACAD
1000
MTEXTBEGIN
1070
    73
1070
     1
1070
    44
1040
1.0
1070
    74
1070
     0
1000
MTEXTEND
1000
MTEXTBEGIN
1070
    73
1070
     1
1070
    44
1040
1.0
1070
    74
1070
     0
1000
MTEXTEND
1000
MTEXTBEGIN
1070
    73
1070
     1
1070
    44
1040
1.0
1070
    74
1070
     0
1000
MTEXTEND
  0
TEXT
  5
108B
330
1F
100
AcDbEntity
  8
SUNPO
 62
     7
100
AcDbText
 10
1528.162730385963
 20
2182.611406092286
 30
0.0
 40
40.0
  1
100
 50
90.0
  7
ADD
100
AcDbText
1001
ACAD
1000
MTEXTBEGIN
1070
    73
1070
     1
1070
    44
1040
1.0
1070
    74
1070
     0
1000
MTEXTEND
1000
MTEXTBEGIN
1070
    73
1070
     1
1070
    44
1040
1.0
1070
    74
1070
     0
1000
MTEXTEND
  0
TEXT
  5
108C
330
1F
100
AcDbEntity
  8
SUNPO
 62
     7
100
AcDbText
 10
1528.162730385963
 20
2127.016167997048
 30
0.0
 40
40.0
  1
55
 50
90.0
  7
ADD
100
AcDbText
1001
ACAD
1000
MTEXTBEGIN
1070
    73
1070
     1
1070
    44
1040
1.0
1070
    74
1070
     0
1000
MTEXTEND
1000
MTEXTBEGIN
1070
    73
1070
     1
1070
    44
1040
1.0
1070
    74
1070
     0
1000
MTEXTEND
  0
TEXT
  5
108D
330
1F
100
AcDbEntity
  8
SUNPO
 62
     7
100
AcDbText
 10
1808.082358999506
 20
2325.754709143322
 30
0.0
 40
40.0
  1
R20
 50
42.63753353375842
  7
ADD
100
AcDbText
1001
ACAD
1000
MTEXTBEGIN
1070
    73
1070
     1
1070
    44
1040
1.0
1070
    74
1070
     0
1000
MTEXTEND
1000
MTEXTBEGIN
1070
    73
1070
     1
1070
    44
1040
1.0
1070
    74
1070
     0
1000
MTEXTEND
  0
TEXT
  5
108E
330
1F
100
AcDbEntity
  8
SUNPO
 62
     7
100
AcDbText
 10
1668.075824362822
 20
2097.119606693251
 30
0.0
 40
40.0
  1
R20
 50
43.78690348360158
  7
ADD
100
AcDbText
1001
ACAD
1000
MTEXTBEGIN
1070
    73
1070
     1
1070
    44
1040
1.0
1070
    74
1070
     0
1000
MTEXTEND
1000
MTEXTBEGIN
1070
    73
1070
     1
1070
    44
1040
1.0
1070
    74
1070
     0
1000
MTEXTEND
  0
TEXT
  5
108F
330
1F
100
AcDbEntity
  8
SUNPO
 62
     7
100
AcDbText
 10
1678.819433450265
 20
2489.019909164446
 30
0.0
 40
40.0
  1
100
  7
ADD
100
AcDbText
1001
ACAD
1000
MTEXTBEGIN
1070
    73
1070
     1
1070
    44
1040
1.0
1070
    74
1070
     0
1000
MTEXTEND
1000
MTEXTBEGIN
1070
    73
1070
     1
1070
    44
1040
1.0
1070
    74
1070
     0
1000
MTEXTEND
  0
TEXT
  5
1090
330
1F
100
AcDbEntity
  8
SUNPO
 62
     7
100
AcDbText
 10
1906.676576307408
 20
2489.019909164446
 30
0.0
 40
40.0
  1
350
  7
ADD
100
AcDbText
1001
ACAD
1000
MTEXTBEGIN
1070
    73
1070
     1
1070
    44
1040
1.0
1070
    74
1070
     0
1000
MTEXTEND
1000
MTEXTBEGIN
1070
    73
1070
     1
1070
    44
1040
1.0
1070
    74
1070
     0
1000
MTEXTEND
  0
TEXT
  5
1091
330
1F
100
AcDbEntity
  8
SUNPO
 62
     7
100
AcDbText
 10
2128.819433450265
 20
2489.019909164446
 30
0.0
 40
40.0
  1
100
  7
ADD
100
AcDbText
1001
ACAD
1000
MTEXTBEGIN
1070
    73
1070
     1
1070
    44
1040
1.0
1070
    74
1070
     0
1000
MTEXTEND
1000
MTEXTBEGIN
1070
    73
1070
     1
1070
    44
1040
1.0
1070
    74
1070
     0
1000
MTEXTEND
  0
TEXT
  5
1092
330
1F
100
AcDbEntity
  8
SUNPO
 62
     7
100
AcDbText
 10
2351.494052918309
 20
2144.516167997049
 30
0.0
 40
40.0
  1
90
 50
90.0
  7
ADD
100
AcDbText
1001
ACAD
1000
MTEXTBEGIN
1070
    73
1070
     1
1070
    44
1040
1.0
1070
    74
1070
     0
1000
MTEXTEND
1000
MTEXTBEGIN
1070
    73
1070
     1
1070
    44
1040
1.0
1070
    74
1070
     0
1000
MTEXTEND
  0
TEXT
  5
1093
330
1F
100
AcDbEntity
  8
SUNPO
 62
     7
100
AcDbText
 10
2455.068366750363
 20
2147.016167997048
 30
0.0
 40
40.0
  1
95
 50
90.0
  7
ADD
100
AcDbText
1001
ACAD
1000
MTEXTBEGIN
1070
    73
1070
     1
1070
    44
1040
1.0
1070
    74
1070
     0
1000
MTEXTEND
1000
MTEXTBEGIN
1070
    73
1070
     1
1070
    44
1040
1.0
1070
    74
1070
     0
1000
MTEXTEND
  0
TEXT
  5
1094
330
1F
100
AcDbEntity
  8
SUNPO
 62
     7
100
AcDbText
 10
1906.676576307408
 20
2056.146643413798
 30
0.0
 40
40.0
  1
550
  7
ADD
100
AcDbText
1001
ACAD
1000
MTEXTBEGIN
1070
    73
1070
     1
1070
    44
1040
1.0
1070
    74
1070
     0
1000
MTEXTEND
1000
MTEXTBEGIN
1070
    73
1070
     1
1070
    44
1040
1.0
1070
    74
1070
     0
1000
MTEXTEND
  0
TEXT
  5
1095
330
1F
100
AcDbEntity
  8
SUNPO
 62
     7
100
AcDbText
 10
1371.105400058287
 20
2155.111406092287
 30
0.0
 40
40.0
  1
155
 50
90.0
  7
ADD
100
AcDbText
  0
VIEWPORT
  5
72
330
1B
100
AcDbEntity
 67
     1
  8
0
100
AcDbViewport
 10
429.8380103383459
 20
277.0
 30
0.0
 40
948.9782706766918
 41
628.4520000000001
 68
     1
 69
     1
1001
ACAD
1000
MVIEW
1002
{
1070
    16
1010
0.0
1020
0.0
1030
0.0
1010
0.0
1020
0.0
1030
1.0
1040
0.0
1040
628.4520000000001
1040
429.8380103383459
1040
277.0
1040
50.0
1040
0.0
1040
0.0
1070
     0
1070
   100
1070
     1
1070
     1
1070
     0
1070
     0
1070
     0
1070
     0
1040
0.0
1040
0.0
1040
0.0
1040
10.0
1040
10.0
1040
10.0
1040
10.0
1070
     0
1002
{
1002
}
1002
}
  0
VIEWPORT
  5
74
330
1B
100
AcDbEntity
 67
     1
  8
VIEWPORT
100
AcDbViewport
 10
414.3779638919211
 20
277.3177265058034
 30
0.0
 40
840.0353682728887
 41
567.2285469943826
 68
     2
 69
     2
1001
ACAD
1000
MVIEW
1002
{
1070
    16
1010
0.0
1020
0.0
1030
0.0
1010
0.0
1020
0.0
1030
1.0
1040
0.0
1040
579.5583043546323
1040
424.4938908624541
1040
286.1973242720074
1040
50.0
1040
0.0
1040
0.0
1070
     0
1070
   100
1070
     1
1070
     1
1070
     0
1070
     0
1070
     0
1070
     0
1040
0.0
1040
0.0
1040
0.0
1040
10.0
1040
10.0
1040
10.0
1040
10.0
1070
     0
1002
{
1002
}
1002
}
  0
ENDSEC
  0
SECTION
  2
OBJECTS
  0
DICTIONARY
  5
C
330
0
100
AcDbDictionary
  3
ACAD_GROUP
350
D
  3
ACAD_LAYOUT
350
1A
  3
ACAD_MLINESTYLE
350
17
  3
ACAD_PLOTSETTINGS
350
19
  3
DWGPROPS
350
4C7
1001
ACAD
1000
TREAT_AS_HARD
1070
     0
  0
DICTIONARY
  5
65D
330
1F
100
AcDbDictionary
  3
ACAD_LAYOUTSELFREF
350
10FF
1001
ACAD
1000
TREAT_AS_HARD
1070
     1
  0
DICTIONARY
  5
65F
330
1B
100
AcDbDictionary
  3
ACAD_LAYOUTSELFREF
350
10FE
1001
ACAD
1000
TREAT_AS_HARD
1070
     1
  0
DICTIONARY
  5
D
102
{ACAD_REACTORS
330
C
102
}
330
C
100
AcDbDictionary
1001
ACAD
1000
TREAT_AS_HARD
1070
     0
  0
DICTIONARY
  5
1A
102
{ACAD_REACTORS
330
C
102
}
330
C
100
AcDbDictionary
1001
ACAD
1000
TREAT_AS_HARD
1070
     0
  0
DICTIONARY
  5
17
102
{ACAD_REACTORS
330
C
102
}
330
C
100
AcDbDictionary
  3
STANDARD
350
18
1001
ACAD
1000
TREAT_AS_HARD
1070
     0
  0
DICTIONARY
  5
19
102
{ACAD_REACTORS
330
C
102
}
330
C
100
AcDbDictionary
1001
ACAD
1000
TREAT_AS_HARD
1070
     0
  0
XRECORD
  5
4C7
102
{ACAD_REACTORS
330
C
102
}
330
C
100
AcDbXrecord
  1
DWGPROPS COOKIE
  2
印刷用テスト
  3
AutoCAD2000による建築設計
  4
鈴木 裕二
  6

  7

  8
U2
  9

300
=
301
=
302
=
303
=
304
=
305
=
306
=
307
=
308
=
309
=
 40
0.7653446875
 41
2451285.4846114
 42
2451333.689743032
  1

 90
        0
  0
XRECORD
  5
10FF
102
{ACAD_REACTORS
330
65D
102
}
330
65D
100
AcDbXrecord
340
1F
  0
XRECORD
  5
10FE
102
{ACAD_REACTORS
330
65F
102
}
330
65F
100
AcDbXrecord
340
1B
  0
MLINESTYLE
  5
18
102
{ACAD_REACTORS
330
17
102
}
330
17
100
AcDbMlineStyle
  2
STANDARD
 70
     0
  3

 62
   256
 51
90.0
 52
90.0
 71
     2
 49
0.5
 62
   256
  6
BYLAYER
 49
-0.5
 62
   256
  6
BYLAYER
  0
ENDSEC
  0
EOF
