  0
SECTION
  2
HEADER
  9
$ACADVER
  1
AC1012
  9
$DWGCODEPAGE
  3
dos932
  9
$INSBASE
 10
0.0
 20
0.0
 30
0.0
  9
$EXTMIN
 10
0.0
 20
0.0
 30
0.0
  9
$EXTMAX
 10
5940.0
 20
4200.0
 30
0.0
  9
$LIMMIN
 10
0.0
 20
0.0
  9
$LIMMAX
 10
5940.0
 20
4200.0
  9
$ORTHOMODE
 70
     0
  9
$REGENMODE
 70
     1
  9
$FILLMODE
 70
     1
  9
$QTEXTMODE
 70
     0
  9
$MIRRTEXT
 70
     0
  9
$DRAGMODE
 70
     2
  9
$LTSCALE
 40
10.0
  9
$OSMODE
 70
    39
  9
$ATTMODE
 70
     1
  9
$TEXTSIZE
 40
50.0
  9
$TRACEWID
 40
1.0
  9
$TEXTSTYLE
  7
ADD
  9
$CLAYER
  8
SUNPO
  9
$CELTYPE
  6
BYLAYER
  9
$CECOLOR
 62
   256
  9
$CELTSCALE
 40
1.0
  9
$DELOBJ
 70
     1
  9
$DISPSILH
 70
     0
  9
$DIMSCALE
 40
20.0
  9
$DIMASZ
 40
1.0
  9
$DIMEXO
 40
1.0
  9
$DIMDLI
 40
7.0
  9
$DIMRND
 40
0.0
  9
$DIMDLE
 40
0.0
  9
$DIMEXE
 40
0.5
  9
$DIMTP
 40
0.0
  9
$DIMTM
 40
0.0
  9
$DIMTXT
 40
2.0
  9
$DIMCEN
 40
1.0
  9
$DIMTSZ
 40
0.0
  9
$DIMTOL
 70
     0
  9
$DIMLIM
 70
     0
  9
$DIMTIH
 70
     0
  9
$DIMTOH
 70
     0
  9
$DIMSE1
 70
     0
  9
$DIMSE2
 70
     0
  9
$DIMTAD
 70
     1
  9
$DIMZIN
 70
     8
  9
$DIMBLK
  1

  9
$DIMASO
 70
     1
  9
$DIMSHO
 70
     1
  9
$DIMPOST
  1

  9
$DIMAPOST
  1

  9
$DIMALT
 70
     0
  9
$DIMALTD
 70
     3
  9
$DIMALTF
 40
0.03937007874016
  9
$DIMLFAC
 40
1.0
  9
$DIMTOFL
 70
     1
  9
$DIMTVP
 40
0.7
  9
$DIMTIX
 70
     1
  9
$DIMSOXD
 70
     0
  9
$DIMSAH
 70
     0
  9
$DIMBLK1
  1

  9
$DIMBLK2
  1

  9
$DIMSTYLE
  2
ADD
  9
$DIMCLRD
 70
   144
  9
$DIMCLRE
 70
   144
  9
$DIMCLRT
 70
     7
  9
$DIMTFAC
 40
1.0
  9
$DIMGAP
 40
0.625
  9
$DIMJUST
 70
     0
  9
$DIMSD1
 70
     0
  9
$DIMSD2
 70
     0
  9
$DIMTOLJ
 70
     2
  9
$DIMTZIN
 70
     8
  9
$DIMALTZ
 70
     0
  9
$DIMALTTZ
 70
     0
  9
$DIMFIT
 70
     5
  9
$DIMUPT
 70
     0
  9
$DIMUNIT
 70
     2
  9
$DIMDEC
 70
     1
  9
$DIMTDEC
 70
     1
  9
$DIMALTU
 70
     2
  9
$DIMALTTD
 70
     3
  9
$DIMTXSTY
  7
ADD
  9
$DIMAUNIT
 70
     0
  9
$LUNITS
 70
     2
  9
$LUPREC
 70
     4
  9
$SKETCHINC
 40
1.0
  9
$FILLETRAD
 40
30.0
  9
$AUNITS
 70
     0
  9
$AUPREC
 70
     1
  9
$MENU
  1
.
  9
$ELEVATION
 40
0.0
  9
$PELEVATION
 40
0.0
  9
$THICKNESS
 40
0.0
  9
$LIMCHECK
 70
     0
  9
$BLIPMODE
 70
     0
  9
$CHAMFERA
 40
10.0
  9
$CHAMFERB
 40
10.0
  9
$CHAMFERC
 40
20.0
  9
$CHAMFERD
 40
0.0
  9
$SKPOLY
 70
     0
  9
$TDCREATE
 40
2451801.142532870
  9
$TDUPDATE
 40
2452179.687007615
  9
$TDINDWG
 40
0.1630752778
  9
$TDUSRTIMER
 40
0.1630752778
  9
$USRTIMER
 70
     1
  9
$ANGBASE
 50
0.0
  9
$ANGDIR
 70
     0
  9
$PDMODE
 70
     0
  9
$PDSIZE
 40
0.0
  9
$PLINEWID
 40
0.0
  9
$COORDS
 70
     1
  9
$SPLFRAME
 70
     0
  9
$SPLINETYPE
 70
     6
  9
$SPLINESEGS
 70
     8
  9
$ATTDIA
 70
     0
  9
$ATTREQ
 70
     1
  9
$HANDLING
 70
-16383
  9
$HANDSEED
  5
141B
  9
$SURFTAB1
 70
     6
  9
$SURFTAB2
 70
     6
  9
$SURFTYPE
 70
     6
  9
$SURFU
 70
     6
  9
$SURFV
 70
     6
  9
$UCSNAME
  2

  9
$UCSORG
 10
0.0
 20
0.0
 30
0.0
  9
$UCSXDIR
 10
1.0
 20
0.0
 30
0.0
  9
$UCSYDIR
 10
0.0
 20
1.0
 30
0.0
  9
$PUCSNAME
  2

  9
$PUCSORG
 10
0.0
 20
0.0
 30
0.0
  9
$PUCSXDIR
 10
1.0
 20
0.0
 30
0.0
  9
$PUCSYDIR
 10
0.0
 20
1.0
 30
0.0
  9
$USERI1
 70
     0
  9
$USERI2
 70
     0
  9
$USERI3
 70
     0
  9
$USERI4
 70
     0
  9
$USERI5
 70
     0
  9
$USERR1
 40
841.0
  9
$USERR2
 40
594.0
  9
$USERR3
 40
1.0
  9
$USERR4
 40
0.0
  9
$USERR5
 40
0.0
  9
$WORLDVIEW
 70
     1
  9
$SHADEDGE
 70
     3
  9
$SHADEDIF
 70
    70
  9
$TILEMODE
 70
     1
  9
$MAXACTVP
 70
    48
  9
$PINSBASE
 10
0.0
 20
0.0
 30
0.0
  9
$PLIMCHECK
 70
     0
  9
$PEXTMIN
 10
-5.662975978526674
 20
-6.331907780761866
 30
-0.0015258207003583
  9
$PEXTMAX
 10
834.4213426047982
 20
560.9663709967471
 30
0.0000000349246037
  9
$PLIMMIN
 10
-7.500000000000001
 20
-20.0
  9
$PLIMMAX
 10
833.5000000000002
 20
574.0000000000001
  9
$UNITMODE
 70
     0
  9
$VISRETAIN
 70
     1
  9
$PLINEGEN
 70
     0
  9
$PSLTSCALE
 70
     1
  9
$TREEDEPTH
 70
  3020
  9
$PICKSTYLE
 70
     1
  9
$CMLSTYLE
  2
STANDARD
  9
$CMLJUST
 70
     0
  9
$CMLSCALE
 40
20.0
  9
$SAVEIMAGES
 70
     1
  0
ENDSEC
  0
SECTION
  2
CLASSES
  0
CLASS
  1
ACDBDICTIONARYWDFLT
  2
AcDbDictionaryWithDefault
  3
AutoCAD 2000
 90
    32768
280
     0
281
     0
  0
CLASS
  1
ACDBPLACEHOLDER
  2
AcDbPlaceHolder
  3
AutoCAD 2000
 90
    32768
280
     0
281
     0
  0
CLASS
  1
LAYOUT
  2
AcDbLayout
  3
AutoCAD 2000
 90
    32768
280
     0
281
     0
  0
CLASS
  1
RTEXT
  2
RText
  3
RText|AutoCAD Express Tool|expresstools@autodesk.com
 90
    32768
280
     0
281
     1
  0
CLASS
  1
DICTIONARYVAR
  2
AcDbDictionaryVar
  3
AutoCAD 2000
 90
    32768
280
     0
281
     0
  0
CLASS
  1
LONG_TRANSACTION
  2
AcDbLongTransaction
  3
AutoCAD 2000
 90
    32768
280
     0
281
     0
  0
CLASS
  1
LWPOLYLINE
  2
AcDbPolyline
  3
AutoCAD 2000
 90
    32768
280
     0
281
     1
  0
CLASS
  1
HATCH
  2
AcDbHatch
  3
AutoCAD 2000
 90
    32768
280
     0
281
     1
  0
CLASS
  1
XRECORD
  2
AcDbXrecord
  3
AutoCAD 2000
 90
    32768
280
     0
281
     0
  0
CLASS
  1
LONG_TRANSACTION
  2
AcDbLongTransaction
  3
AutoCAD 2000
 90
    32768
280
     0
281
     0
  0
CLASS
  1
LWPOLYLINE
  2
AcDbPolyline
  3
AutoCAD 2000
 90
    32768
280
     0
281
     1
  0
CLASS
  1
HATCH
  2
AcDbHatch
  3
AutoCAD 2000
 90
    32768
280
     0
281
     1
  0
CLASS
  1
XRECORD
  2
AcDbXrecord
  3
AutoCAD 2000
 90
    32768
280
     0
281
     0
  0
CLASS
  1
LONG_TRANSACTION
  2
AcDbLongTransaction
  3
AutoCAD 2000
 90
    32768
280
     0
281
     0
  0
CLASS
  1
LWPOLYLINE
  2
AcDbPolyline
  3
AutoCAD 2000
 90
    32768
280
     0
281
     1
  0
CLASS
  1
HATCH
  2
AcDbHatch
  3
AutoCAD 2000
 90
    32768
280
     0
281
     1
  0
CLASS
  1
XRECORD
  2
AcDbXrecord
  3
AutoCAD 2000
 90
    32768
280
     0
281
     0
  0
CLASS
  1
LONG_TRANSACTION
  2
AcDbLongTransaction
  3
AutoCAD 2000
 90
    32768
280
     0
281
     0
  0
CLASS
  1
LWPOLYLINE
  2
AcDbPolyline
  3
AutoCAD 2000
 90
    32768
280
     0
281
     1
  0
CLASS
  1
HATCH
  2
AcDbHatch
  3
AutoCAD 2000
 90
    32768
280
     0
281
     1
  0
CLASS
  1
XRECORD
  2
AcDbXrecord
  3
AutoCAD 2000
 90
    32768
280
     0
281
     0
  0
CLASS
  1
LONG_TRANSACTION
  2
AcDbLongTransaction
  3
AutoCAD 2000
 90
    32768
280
     0
281
     0
  0
CLASS
  1
LWPOLYLINE
  2
AcDbPolyline
  3
AutoCAD 2000
 90
    32768
280
     0
281
     1
  0
CLASS
  1
HATCH
  2
AcDbHatch
  3
AutoCAD 2000
 90
    32768
280
     0
281
     1
  0
CLASS
  1
XRECORD
  2
AcDbXrecord
  3
AutoCAD 2000
 90
    32768
280
     0
281
     0
  0
CLASS
  1
LONG_TRANSACTION
  2
AcDbLongTransaction
  3
AutoCAD 2000
 90
    32768
280
     0
281
     0
  0
CLASS
  1
LWPOLYLINE
  2
AcDbPolyline
  3
AutoCAD 2000
 90
    32768
280
     0
281
     1
  0
CLASS
  1
HATCH
  2
AcDbHatch
  3
AutoCAD 2000
 90
    32768
280
     0
281
     1
  0
CLASS
  1
XRECORD
  2
AcDbXrecord
  3
AutoCAD 2000
 90
    32768
280
     0
281
     0
  0
CLASS
  1
LONG_TRANSACTION
  2
AcDbLongTransaction
  3
AutoCAD 2000
 90
    32768
280
     0
281
     0
  0
CLASS
  1
LWPOLYLINE
  2
AcDbPolyline
  3
AutoCAD 2000
 90
    32768
280
     0
281
     1
  0
CLASS
  1
HATCH
  2
AcDbHatch
  3
AutoCAD 2000
 90
    32768
280
     0
281
     1
  0
CLASS
  1
XRECORD
  2
AcDbXrecord
  3
AutoCAD 2000
 90
    32768
280
     0
281
     0
  0
CLASS
  1
LONG_TRANSACTION
  2
AcDbLongTransaction
  3
AutoCAD 2000
 90
    32768
280
     0
281
     0
  0
CLASS
  1
LWPOLYLINE
  2
AcDbPolyline
  3
AutoCAD 2000
 90
    32768
280
     0
281
     1
  0
CLASS
  1
HATCH
  2
AcDbHatch
  3
AutoCAD 2000
 90
    32768
280
     0
281
     1
  0
CLASS
  1
XRECORD
  2
AcDbXrecord
  3
AutoCAD 2000
 90
    32768
280
     0
281
     0
  0
CLASS
  1
LONG_TRANSACTION
  2
AcDbLongTransaction
  3
AutoCAD 2000
 90
    32768
280
     0
281
     0
  0
CLASS
  1
LWPOLYLINE
  2
AcDbPolyline
  3
AutoCAD 2000
 90
    32768
280
     0
281
     1
  0
CLASS
  1
HATCH
  2
AcDbHatch
  3
AutoCAD 2000
 90
    32768
280
     0
281
     1
  0
CLASS
  1
XRECORD
  2
AcDbXrecord
  3
AutoCAD 2000
 90
    32768
280
     0
281
     0
  0
CLASS
  1
LONG_TRANSACTION
  2
AcDbLongTransaction
  3
AutoCAD 2000
 90
    32768
280
     0
281
     0
  0
CLASS
  1
LWPOLYLINE
  2
AcDbPolyline
  3
AutoCAD 2000
 90
    32768
280
     0
281
     1
  0
CLASS
  1
HATCH
  2
AcDbHatch
  3
AutoCAD 2000
 90
    32768
280
     0
281
     1
  0
CLASS
  1
XRECORD
  2
AcDbXrecord
  3
AutoCAD 2000
 90
    32768
280
     0
281
     0
  0
CLASS
  1
LONG_TRANSACTION
  2
AcDbLongTransaction
  3
AutoCAD 2000
 90
    32768
280
     0
281
     0
  0
CLASS
  1
LWPOLYLINE
  2
AcDbPolyline
  3
AutoCAD 2000
 90
    32768
280
     0
281
     1
  0
CLASS
  1
HATCH
  2
AcDbHatch
  3
AutoCAD 2000
 90
    32768
280
     0
281
     1
  0
CLASS
  1
XRECORD
  2
AcDbXrecord
  3
AutoCAD 2000
 90
    32768
280
     0
281
     0
  0
CLASS
  1
LONG_TRANSACTION
  2
AcDbLongTransaction
  3
AutoCAD 2000
 90
    32768
280
     0
281
     0
  0
CLASS
  1
LWPOLYLINE
  2
AcDbPolyline
  3
AutoCAD 2000
 90
    32768
280
     0
281
     1
  0
CLASS
  1
HATCH
  2
AcDbHatch
  3
AutoCAD 2000
 90
    32768
280
     0
281
     1
  0
CLASS
  1
XRECORD
  2
AcDbXrecord
  3
AutoCAD 2000
 90
    32768
280
     0
281
     0
  0
ENDSEC
  0
SECTION
  2
TABLES
  0
TABLE
  2
VPORT
  5
8
330
0
100
AcDbSymbolTable
 70
     2
  0
VPORT
  5
140B
330
8
100
AcDbSymbolTableRecord
100
AcDbViewportTableRecord
  2
*ACTIVE
 70
     0
 10
0.0
 20
0.0
 11
1.0
 21
1.0
 12
2970.000055323514
 22
2100.000039117636
 13
0.0
 23
0.0
 14
10.0
 24
10.0
 15
10.0
 25
10.0
 16
0.0
 26
0.0
 36
1.0
 17
0.0
 27
0.0
 37
0.0
 40
4232.987741205
 41
1.560880829015544
 42
50.0
 43
0.0
 44
0.0
 50
0.0
 51
0.0
 71
     0
 72
   100
 73
     1
 74
     1
 75
     0
 76
     0
 77
     0
 78
     0
  0
ENDTAB
  0
TABLE
  2
LTYPE
  5
5
330
0
100
AcDbSymbolTable
 70
     5
  0
LTYPE
  5
14
330
5
100
AcDbSymbolTableRecord
100
AcDbLinetypeTableRecord
  2
BYBLOCK
 70
     0
  3

 72
    65
 73
     0
 40
0.0
  0
LTYPE
  5
15
330
5
100
AcDbSymbolTableRecord
100
AcDbLinetypeTableRecord
  2
BYLAYER
 70
     0
  3

 72
    65
 73
     0
 40
0.0
  0
LTYPE
  5
16
330
5
100
AcDbSymbolTableRecord
100
AcDbLinetypeTableRecord
  2
CONTINUOUS
 70
     0
  3
Solid line
 72
    65
 73
     0
 40
0.0
  0
LTYPE
  5
555
330
5
100
AcDbSymbolTableRecord
100
AcDbLinetypeTableRecord
  2
CENTER
 70
     0
  3
Center ____ _ ____ _ ____ _ ____ _ ____ _ ____
 72
    65
 73
     4
 40
50.8
 49
31.75
 74
     0
 49
-6.349999999999999
 74
     0
 49
6.349999999999999
 74
     0
 49
-6.349999999999999
 74
     0
  0
LTYPE
  5
556
330
5
100
AcDbSymbolTableRecord
100
AcDbLinetypeTableRecord
  2
HIDDEN
 70
     0
  3
Hidden __ __ __ __ __ __ __ __ __ __ __ __ __ _
 72
    65
 73
     2
 40
9.524999999999998
 49
6.349999999999999
 74
     0
 49
-3.174999999999999
 74
     0
  0
LTYPE
  5
557
330
5
100
AcDbSymbolTableRecord
100
AcDbLinetypeTableRecord
  2
HIDDEN2
 70
     0
  3
Hidden (.5x) _ _ _ _ _ _ _ _ _ _ _ _ _ _ _ _ _
 72
    65
 73
     2
 40
4.762499999999999
 49
3.174999999999999
 74
     0
 49
-1.587499999999999
 74
     0
  0
LTYPE
  5
558
330
5
100
AcDbSymbolTableRecord
100
AcDbLinetypeTableRecord
  2
PHANTOM
 70
     0
  3
Phantom ______  __  __  ______  __  __  ______
 72
    65
 73
     6
 40
63.5
 49
31.75
 74
     0
 49
-6.349999999999999
 74
     0
 49
6.349999999999999
 74
     0
 49
-6.349999999999999
 74
     0
 49
6.349999999999999
 74
     0
 49
-6.349999999999999
 74
     0
  0
ENDTAB
  0
TABLE
  2
LAYER
  5
2
330
0
100
AcDbSymbolTable
 70
    22
  0
LAYER
  5
10
330
2
100
AcDbSymbolTableRecord
100
AcDbLayerTableRecord
  2
0
 70
     0
 62
     7
  6
CONTINUOUS
  0
LAYER
  5
75
330
2
100
AcDbSymbolTableRecord
100
AcDbLayerTableRecord
  2
VIEWPORT
 70
     0
 62
     1
  6
CONTINUOUS
  0
LAYER
  5
504
330
2
100
AcDbSymbolTableRecord
100
AcDbLayerTableRecord
  2
DEFPOINTS
 70
     4
 62
     6
  6
CONTINUOUS
  0
LAYER
  5
505
330
2
100
AcDbSymbolTableRecord
100
AcDbLayerTableRecord
  2
1C1
 70
     0
 62
   254
  6
CONTINUOUS
  0
LAYER
  5
506
330
2
100
AcDbSymbolTableRecord
100
AcDbLayerTableRecord
  2
1C2
 70
     0
 62
   254
  6
CONTINUOUS
  0
LAYER
  5
507
330
2
100
AcDbSymbolTableRecord
100
AcDbLayerTableRecord
  2
2C1
 70
     0
 62
   144
  6
CONTINUOUS
  0
LAYER
  5
508
330
2
100
AcDbSymbolTableRecord
100
AcDbLayerTableRecord
  2
2C2
 70
     0
 62
   144
  6
CONTINUOUS
  0
LAYER
  5
509
330
2
100
AcDbSymbolTableRecord
100
AcDbLayerTableRecord
  2
2H1
 70
     0
 62
   144
  6
HIDDEN
  0
LAYER
  5
50A
330
2
100
AcDbSymbolTableRecord
100
AcDbLayerTableRecord
  2
2H2
 70
     0
 62
   144
  6
HIDDEN2
  0
LAYER
  5
50B
330
2
100
AcDbSymbolTableRecord
100
AcDbLayerTableRecord
  2
2P1
 70
     0
 62
   144
  6
PHANTOM
  0
LAYER
  5
50C
330
2
100
AcDbSymbolTableRecord
100
AcDbLayerTableRecord
  2
3C1
 70
     0
 62
     7
  6
CONTINUOUS
  0
LAYER
  5
50D
330
2
100
AcDbSymbolTableRecord
100
AcDbLayerTableRecord
  2
3C2
 70
     0
 62
     7
  6
CONTINUOUS
  0
LAYER
  5
50E
330
2
100
AcDbSymbolTableRecord
100
AcDbLayerTableRecord
  2
3C3
 70
     0
 62
     7
  6
CONTINUOUS
  0
LAYER
  5
50F
330
2
100
AcDbSymbolTableRecord
100
AcDbLayerTableRecord
  2
4H1
 70
     0
 62
     6
  6
HIDDEN
  0
LAYER
  5
510
330
2
100
AcDbSymbolTableRecord
100
AcDbLayerTableRecord
  2
4H2
 70
     0
 62
     6
  6
HIDDEN2
  0
LAYER
  5
511
330
2
100
AcDbSymbolTableRecord
100
AcDbLayerTableRecord
  2
5C1
 70
     0
 62
    55
  6
CONTINUOUS
  0
LAYER
  5
512
330
2
100
AcDbSymbolTableRecord
100
AcDbLayerTableRecord
  2
5C2
 70
     0
 62
    55
  6
CONTINUOUS
  0
LAYER
  5
513
330
2
100
AcDbSymbolTableRecord
100
AcDbLayerTableRecord
  2
8C1
 70
     0
 62
    92
  6
CONTINUOUS
  0
LAYER
  5
514
330
2
100
AcDbSymbolTableRecord
100
AcDbLayerTableRecord
  2
HOJO
 70
     0
 62
     5
  6
CONTINUOUS
  0
LAYER
  5
515
330
2
100
AcDbSymbolTableRecord
100
AcDbLayerTableRecord
  2
KIJUN
 70
     0
 62
     1
  6
CENTER
  0
LAYER
  5
516
330
2
100
AcDbSymbolTableRecord
100
AcDbLayerTableRecord
  2
MOJI
 70
     0
 62
     7
  6
CONTINUOUS
  0
LAYER
  5
517
330
2
100
AcDbSymbolTableRecord
100
AcDbLayerTableRecord
  2
SUNPO
 70
     0
 62
   144
  6
CONTINUOUS
  0
ENDTAB
  0
TABLE
  2
STYLE
  5
3
330
0
100
AcDbSymbolTable
 70
     6
  0
STYLE
  5
11
330
3
100
AcDbSymbolTableRecord
100
AcDbTextStyleTableRecord
  2
STANDARD
 70
     0
 40
0.0
 41
1.0
 50
0.0
 71
     0
 42
2.5
  3
txt
  4

  0
STYLE
  5
2C
330
3
100
AcDbSymbolTableRecord
100
AcDbTextStyleTableRecord
  2

 70
     1
 40
0.0
 41
1.0
 50
0.0
 71
     0
 42
2.5
  3
ltypeshp.shx
  4

  0
STYLE
  5
18E
330
3
100
AcDbSymbolTableRecord
100
AcDbTextStyleTableRecord
  2
ADD
 70
     0
 40
0.0
 41
1.0
 50
0.0
 71
     0
 42
50.0
  3
romans.shx
  4
bigfont.shx
  0
STYLE
  5
191
330
3
100
AcDbSymbolTableRecord
100
AcDbTextStyleTableRecord
  2
MSG
 70
     0
 40
0.0
 41
1.0
 50
0.0
 71
     0
 42
2.5
  3
MS Gothic.ttf
  4

1001
ACAD
1000
MS Gothic
1071
    32817
  0
STYLE
  5
5C8
330
3
100
AcDbSymbolTableRecord
100
AcDbTextStyleTableRecord
  2
STANDARD15
 70
     0
 40
0.0
 41
1.0
 50
15.0
 71
     0
 42
2.5
  3
ROMANS
  4
bigfont
  0
STYLE
  5
5C9
330
3
100
AcDbSymbolTableRecord
100
AcDbTextStyleTableRecord
  2
ROMANS15
 70
     0
 40
0.0
 41
1.0
 50
15.0
 71
     0
 42
2.5
  3
romans
  4

  0
ENDTAB
  0
TABLE
  2
VIEW
  5
6
330
0
100
AcDbSymbolTable
 70
     1
  0
VIEW
  5
54D
330
6
100
AcDbSymbolTableRecord
100
AcDbViewTableRecord
  2
ALL
 70
     0
 40
594.0
 10
420.5
 20
297.0
 41
865.125
 11
0.0
 21
0.0
 31
1.0
 12
0.0
 22
0.0
 32
0.0
 42
50.0
 43
0.0
 44
0.0
 50
0.0
 71
     0
  0
ENDTAB
  0
TABLE
  2
UCS
  5
7
330
0
100
AcDbSymbolTable
 70
     0
  0
ENDTAB
  0
TABLE
  2
APPID
  5
9
330
0
100
AcDbSymbolTable
 70
     4
  0
APPID
  5
12
330
9
100
AcDbSymbolTableRecord
100
AcDbRegAppTableRecord
  2
ACAD
 70
     0
  0
APPID
  5
5CB
330
9
100
AcDbSymbolTableRecord
100
AcDbRegAppTableRecord
  2
ARAIGUMI_YOHEKI
 70
     0
  0
APPID
  5
5CC
330
9
100
AcDbSymbolTableRecord
100
AcDbRegAppTableRecord
  2
CONTENTTABDATA
 70
     0
  0
APPID
  5
5CD
330
9
100
AcDbSymbolTableRecord
100
AcDbRegAppTableRecord
  2
CONTENTCURRENTTAB
 70
     0
  0
ENDTAB
  0
TABLE
  2
DIMSTYLE
  5
A
330
0
100
AcDbSymbolTable
 70
    10
  0
DIMSTYLE
105
27
330
A
100
AcDbSymbolTableRecord
100
AcDbDimStyleTableRecord
  2
ISO-25
 70
     0
  3

  4

  5

  6

  7

 40
1.0
 41
2.5
 42
0.625
 43
3.75
 44
1.25
 45
0.0
 46
0.0
 47
0.0
 48
0.0
140
2.5
141
2.5
142
0.0
143
0.03937007874016
144
1.0
145
0.0
146
1.0
147
0.625
 71
     0
 72
     0
 73
     0
 74
     0
 75
     0
 76
     0
 77
     1
 78
     8
170
     0
171
     3
172
     1
173
     0
174
     0
175
     0
176
     0
177
     0
178
     0
270
     2
271
     2
272
     2
273
     2
274
     3
340
11
275
     0
280
     0
281
     0
282
     0
283
     0
284
     8
285
     0
286
     0
287
     3
288
     0
  0
DIMSTYLE
105
197
330
A
100
AcDbSymbolTableRecord
100
AcDbDimStyleTableRecord
  2
ADD
 70
     0
  3

  4

  5

  6

  7

 40
1.0
 41
2.5
 42
1.0
 43
7.0
 44
0.5
 45
0.0
 46
0.0
 47
0.0
 48
0.0
140
2.5
141
2.5
142
0.0
143
0.03937007874016
144
1.0
145
0.7
146
1.0
147
0.625
 71
     0
 72
     0
 73
     0
 74
     0
 75
     0
 76
     0
 77
     1
 78
     8
170
     0
171
     3
172
     1
173
     0
174
     1
175
     0
176
   144
177
   144
178
     7
270
     2
271
     1
272
     1
273
     2
274
     3
340
18E
275
     0
280
     0
281
     0
282
     0
283
     2
284
     8
285
     0
286
     0
287
     5
288
     0
  0
DIMSTYLE
105
3E6
330
A
100
AcDbSymbolTableRecord
100
AcDbDimStyleTableRecord
  2
ADD$2
 70
     0
  3

  4

  5

  6

  7

 40
1.0
 41
2.5
 42
1.0
 43
7.0
 44
0.5
 45
0.0
 46
0.0
 47
0.0
 48
0.0
140
2.5
141
2.5
142
0.0
143
0.03937007874016
144
1.0
145
0.7
146
1.0
147
0.625
 71
     0
 72
     0
 73
     0
 74
     0
 75
     0
 76
     0
 77
     1
 78
     8
170
     0
171
     3
172
     1
173
     0
174
     1
175
     0
176
   144
177
   144
178
     7
270
     2
271
     1
272
     1
273
     2
274
     3
340
18E
275
     0
280
     0
281
     0
282
     0
283
     2
284
     8
285
     0
286
     0
287
     5
288
     0
  0
DIMSTYLE
105
3E7
330
A
100
AcDbSymbolTableRecord
100
AcDbDimStyleTableRecord
  2
ADD$4
 70
     0
  3

  4

  5

  6

  7

 40
1.0
 41
2.5
 42
1.0
 43
7.0
 44
0.5
 45
0.0
 46
0.0
 47
0.0
 48
0.0
140
2.5
141
2.5
142
0.0
143
0.03937007874016
144
1.0
145
0.0
146
1.0
147
0.625
 71
     0
 72
     0
 73
     0
 74
     0
 75
     0
 76
     0
 77
     1
 78
     8
170
     0
171
     3
172
     1
173
     0
174
     1
175
     0
176
   144
177
   144
178
     7
270
     2
271
     1
272
     1
273
     2
274
     3
340
18E
275
     0
280
     0
281
     0
282
     0
283
     2
284
     8
285
     0
286
     0
287
     5
288
     0
  0
DIMSTYLE
105
3E8
330
A
100
AcDbSymbolTableRecord
100
AcDbDimStyleTableRecord
  2
ADD$3
 70
     0
  3

  4

  5

  6

  7

 40
1.0
 41
2.5
 42
1.0
 43
7.0
 44
0.5
 45
0.0
 46
0.0
 47
0.0
 48
0.0
140
2.5
141
2.5
142
0.0
143
0.03937007874016
144
1.0
145
0.0
146
1.0
147
0.625
 71
     0
 72
     0
 73
     0
 74
     0
 75
     0
 76
     0
 77
     1
 78
     8
170
     0
171
     3
172
     1
173
     0
174
     1
175
     0
176
   144
177
   144
178
     7
270
     2
271
     1
272
     1
273
     2
274
     3
340
18E
275
     0
280
     0
281
     0
282
     0
283
     2
284
     8
285
     0
286
     0
287
     5
288
     0
  0
DIMSTYLE
105
3E9
330
A
100
AcDbSymbolTableRecord
100
AcDbDimStyleTableRecord
  2
ADD$6
 70
     0
  3

  4

  5

  6

  7

 40
1.0
 41
2.5
 42
1.0
 43
7.0
 44
0.5
 45
0.0
 46
0.0
 47
0.0
 48
0.0
140
2.5
141
2.5
142
0.0
143
0.03937007874016
144
1.0
145
0.0
146
1.0
147
0.625
 71
     0
 72
     0
 73
     0
 74
     0
 75
     0
 76
     0
 77
     1
 78
     8
170
     0
171
     3
172
     1
173
     0
174
     1
175
     0
176
   144
177
   144
178
     7
270
     2
271
     1
272
     1
273
     2
274
     3
340
18E
275
     0
280
     0
281
     0
282
     0
283
     2
284
     8
285
     0
286
     0
287
     5
288
     0
  0
DIMSTYLE
105
3EA
330
A
100
AcDbSymbolTableRecord
100
AcDbDimStyleTableRecord
  2
ADD$7
 70
     0
  3

  4

  5

  6

  7

 40
1.0
 41
2.5
 42
1.0
 43
7.0
 44
0.5
 45
0.0
 46
0.0
 47
0.0
 48
0.0
140
2.5
141
2.5
142
0.0
143
0.03937007874016
144
1.0
145
0.0
146
1.0
147
0.625
 71
     0
 72
     0
 73
     0
 74
     0
 75
     0
 76
     0
 77
     0
 78
     8
170
     0
171
     3
172
     1
173
     0
174
     1
175
     0
176
   144
177
   144
178
     7
270
     2
271
     1
272
     1
273
     2
274
     3
340
18E
275
     0
280
     0
281
     0
282
     0
283
     2
284
     8
285
     0
286
     0
287
     5
288
     0
  0
DIMSTYLE
105
518
330
A
100
AcDbSymbolTableRecord
100
AcDbDimStyleTableRecord
  2
STANDARD
 70
     0
  3

  4

  5

  6

  7

 40
1.0
 41
0.18
 42
0.0625
 43
0.38
 44
0.18
 45
0.0
 46
0.0
 47
0.0
 48
0.0
140
0.18
141
0.09
142
0.0
143
25.4
144
1.0
145
0.0
146
1.0
147
0.09
 71
     0
 72
     0
 73
     1
 74
     1
 75
     0
 76
     0
 77
     0
 78
     0
170
     0
171
     2
172
     0
173
     0
174
     0
175
     0
176
     0
177
     0
178
     0
270
     2
271
     4
272
     4
273
     2
274
     2
340
11
275
     0
280
     0
281
     0
282
     0
283
     1
284
     0
285
     0
286
     0
287
     3
288
     0
  0
DIMSTYLE
105
550
330
A
100
AcDbSymbolTableRecord
100
AcDbDimStyleTableRecord
  2
ADD$0
 70
     0
  3

  4

  5

  6

  7

 40
1.0
 41
2.5
 42
1.0
 43
7.0
 44
0.5
 45
0.0
 46
0.0
 47
0.0
 48
0.0
140
2.5
141
2.5
142
0.0
143
0.03937007874016
144
1.0
145
0.7
146
1.0
147
0.625
 71
     0
 72
     0
 73
     0
 74
     0
 75
     0
 76
     0
 77
     1
 78
     8
170
     0
171
     3
172
     1
173
     0
174
     1
175
     0
176
   144
177
   144
178
     7
270
     2
271
     1
272
     1
273
     2
274
     3
340
18E
275
     0
280
     0
281
     0
282
     0
283
     2
284
     8
285
     0
286
     0
287
     5
288
     0
  0
DIMSTYLE
105
59B
330
A
100
AcDbSymbolTableRecord
100
AcDbDimStyleTableRecord
  2
ADD_M
 70
     0
  3

  4

  5

  6

  7

 40
1.0
 41
2.5
 42
1.0
 43
7.0
 44
0.5
 45
0.0
 46
0.0
 47
0.0
 48
0.0
140
2.5
141
2.5
142
0.0
143
0.03937007874016
144
1.0
145
0.7
146
1.0
147
0.625
 71
     0
 72
     0
 73
     0
 74
     0
 75
     0
 76
     0
 77
     1
 78
     8
170
     0
171
     3
172
     1
173
     0
174
     1
175
     0
176
   144
177
   144
178
     7
270
     2
271
     1
272
     1
273
     2
274
     3
340
18E
275
     0
280
     0
281
     0
282
     0
283
     2
284
     8
285
     0
286
     0
287
     5
288
     0
  0
ENDTAB
  0
TABLE
  2
BLOCK_RECORD
  5
1
330
0
100
AcDbSymbolTable
 70
    15
  0
BLOCK_RECORD
  5
1F
102
{ACAD_XDICTIONARY
360
65D
102
}
330
1
100
AcDbSymbolTableRecord
100
AcDbBlockTableRecord
  2
*MODEL_SPACE
  0
BLOCK_RECORD
  5
1B
102
{ACAD_XDICTIONARY
360
65F
102
}
330
1
100
AcDbSymbolTableRecord
100
AcDbBlockTableRecord
  2
*PAPER_SPACE
  0
BLOCK_RECORD
  5
192
330
1
100
AcDbSymbolTableRecord
100
AcDbBlockTableRecord
  2
_DOT
  0
BLOCK_RECORD
  5
5CE
330
1
100
AcDbSymbolTableRecord
100
AcDbBlockTableRecord
  2
A4
  0
BLOCK_RECORD
  5
117E
330
1
100
AcDbSymbolTableRecord
100
AcDbBlockTableRecord
  2
*D2
  0
BLOCK_RECORD
  5
119E
330
1
100
AcDbSymbolTableRecord
100
AcDbBlockTableRecord
  2
*D3
  0
BLOCK_RECORD
  5
11AB
330
1
100
AcDbSymbolTableRecord
100
AcDbBlockTableRecord
  2
*D4
  0
BLOCK_RECORD
  5
11BA
330
1
100
AcDbSymbolTableRecord
100
AcDbBlockTableRecord
  2
*D5
  0
BLOCK_RECORD
  5
11C7
330
1
100
AcDbSymbolTableRecord
100
AcDbBlockTableRecord
  2
*D6
  0
BLOCK_RECORD
  5
11D6
330
1
100
AcDbSymbolTableRecord
100
AcDbBlockTableRecord
  2
*D7
  0
BLOCK_RECORD
  5
11F2
330
1
100
AcDbSymbolTableRecord
100
AcDbBlockTableRecord
  2
*D8
  0
BLOCK_RECORD
  5
11FF
330
1
100
AcDbSymbolTableRecord
100
AcDbBlockTableRecord
  2
*D9
  0
BLOCK_RECORD
  5
1209
330
1
100
AcDbSymbolTableRecord
100
AcDbBlockTableRecord
  2
*D10
  0
BLOCK_RECORD
  5
131E
330
1
100
AcDbSymbolTableRecord
100
AcDbBlockTableRecord
  2
*D13
  0
BLOCK_RECORD
  5
132B
330
1
100
AcDbSymbolTableRecord
100
AcDbBlockTableRecord
  2
*D14
  0
ENDTAB
  0
ENDSEC
  0
SECTION
  2
BLOCKS
  0
BLOCK
  5
20
330
1F
100
AcDbEntity
  8
0
100
AcDbBlockBegin
  2
*MODEL_SPACE
 70
     0
 10
0.0
 20
0.0
 30
0.0
  3
*MODEL_SPACE
  1

  0
ENDBLK
  5
21
330
1F
100
AcDbEntity
  8
0
100
AcDbBlockEnd
  0
BLOCK
  5
1C
330
1B
100
AcDbEntity
 67
     1
  8
0
100
AcDbBlockBegin
  2
*PAPER_SPACE
 70
     0
 10
0.0
 20
0.0
 30
0.0
  3
*PAPER_SPACE
  1

  0
ENDBLK
  5
1D
330
1B
100
AcDbEntity
 67
     1
  8
0
100
AcDbBlockEnd
  0
BLOCK
  5
195
330
192
100
AcDbEntity
  8
0
100
AcDbBlockBegin
  2
_DOT
 70
     0
 10
0.0
 20
0.0
 30
0.0
  3
_DOT
  1

  0
POLYLINE
  5
193
330
192
100
AcDbEntity
  8
0
 62
     0
100
AcDb2dPolyline
 66
     1
 10
0.0
 20
0.0
 30
0.0
 70
     1
 40
0.5
 41
0.5
  0
VERTEX
  5
140E
330
193
100
AcDbEntity
  8
0
 62
     0
100
AcDbVertex
100
AcDb2dVertex
 10
-0.25
 20
0.0
 30
0.0
 42
1.0
  0
VERTEX
  5
140F
330
193
100
AcDbEntity
  8
0
 62
     0
100
AcDbVertex
100
AcDb2dVertex
 10
0.25
 20
0.0
 30
0.0
 42
1.0
  0
SEQEND
  5
1410
330
193
100
AcDbEntity
  8
0
 62
     0
  0
LINE
  5
194
330
192
100
AcDbEntity
  8
0
 62
     0
100
AcDbLine
 10
-0.5
 20
0.0
 30
0.0
 11
-1.0
 21
0.0
 31
0.0
  0
ENDBLK
  5
196
330
192
100
AcDbEntity
  8
0
100
AcDbBlockEnd
  0
BLOCK
  5
5D1
330
5CE
100
AcDbEntity
  8
0
100
AcDbBlockBegin
  2
A4
 70
     0
 10
0.0
 20
0.0
 30
0.0
  3
A4
  1

  0
POLYLINE
  5
5CF
330
5CE
100
AcDbEntity
  8
HOJO
100
AcDb2dPolyline
 66
     1
 10
0.0
 20
0.0
 30
0.0
 70
     1
  0
VERTEX
  5
1411
330
5CF
100
AcDbEntity
  8
HOJO
100
AcDbVertex
100
AcDb2dVertex
 10
0.0
 20
0.0
 30
0.0
  0
VERTEX
  5
1412
330
5CF
100
AcDbEntity
  8
HOJO
100
AcDbVertex
100
AcDb2dVertex
 10
297.0
 20
0.0
 30
0.0
  0
VERTEX
  5
1413
330
5CF
100
AcDbEntity
  8
HOJO
100
AcDbVertex
100
AcDb2dVertex
 10
297.0
 20
210.0
 30
0.0
  0
VERTEX
  5
1414
330
5CF
100
AcDbEntity
  8
HOJO
100
AcDbVertex
100
AcDb2dVertex
 10
0.0
 20
210.0
 30
0.0
  0
SEQEND
  5
1415
330
5CF
100
AcDbEntity
  8
HOJO
  0
POLYLINE
  5
5D0
330
5CE
100
AcDbEntity
  8
HOJO
100
AcDb2dPolyline
 66
     1
 10
0.0
 20
0.0
 30
0.0
 70
     1
  0
VERTEX
  5
1416
330
5D0
100
AcDbEntity
  8
HOJO
100
AcDbVertex
100
AcDb2dVertex
 10
18.0
 20
13.0
 30
0.0
  0
VERTEX
  5
1417
330
5D0
100
AcDbEntity
  8
HOJO
100
AcDbVertex
100
AcDb2dVertex
 10
279.0
 20
13.0
 30
0.0
  0
VERTEX
  5
1418
330
5D0
100
AcDbEntity
  8
HOJO
100
AcDbVertex
100
AcDb2dVertex
 10
279.0
 20
197.0
 30
0.0
  0
VERTEX
  5
1419
330
5D0
100
AcDbEntity
  8
HOJO
100
AcDbVertex
100
AcDb2dVertex
 10
18.0
 20
197.0
 30
0.0
  0
SEQEND
  5
141A
330
5D0
100
AcDbEntity
  8
HOJO
  0
ENDBLK
  5
5D2
330
5CE
100
AcDbEntity
  8
0
100
AcDbBlockEnd
  0
BLOCK
  5
1188
330
117E
100
AcDbEntity
  8
0
100
AcDbBlockBegin
  2
*D2
 70
     1
 10
0.0
 20
0.0
 30
0.0
  3
*D2
  1

  0
LINE
  5
117F
330
117E
100
AcDbEntity
  8
SUNPO
 62
   144
100
AcDbLine
 10
2087.385580240554
 20
2287.611406092286
 30
0.0
 11
2322.992445529866
 21
2287.611406092286
 31
0.0
  0
LINE
  5
1180
330
117E
100
AcDbEntity
  8
SUNPO
 62
   144
100
AcDbLine
 10
2087.385580240554
 20
2137.611406092286
 30
0.0
 11
2322.992445529866
 21
2137.611406092286
 31
0.0
  0
LINE
  5
1181
330
117E
100
AcDbEntity
  8
SUNPO
 62
   144
100
AcDbLine
 10
2312.992445529866
 20
2267.611406092286
 30
0.0
 11
2312.992445529866
 21
2157.611406092286
 31
0.0
  0
SOLID
  5
1182
330
117E
100
AcDbEntity
  8
SUNPO
 62
   144
100
AcDbTrace
 10
2309.659112196532
 20
2267.611406092286
 30
0.0
 11
2316.325778863199
 21
2267.611406092286
 31
0.0
 12
2312.992445529866
 22
2287.611406092286
 32
0.0
 13
2312.992445529866
 23
2287.611406092286
 33
0.0
  0
SOLID
  5
1183
330
117E
100
AcDbEntity
  8
SUNPO
 62
   144
100
AcDbTrace
 10
2309.659112196532
 20
2157.611406092286
 30
0.0
 11
2316.325778863199
 21
2157.611406092286
 31
0.0
 12
2312.992445529866
 22
2137.611406092286
 32
0.0
 13
2312.992445529866
 23
2137.611406092286
 33
0.0
  0
MTEXT
  5
1184
330
117E
100
AcDbEntity
  8
SUNPO
 62
     7
100
AcDbMText
 10
2280.492445529865
 20
2212.611406092287
 30
0.0
 40
40.0
 41
0.0
 71
     5
 72
     1
  1
\A2;150
  7
ADD
 11
0.0000000000000001
 21
1.0
 31
0.0
1001
ACAD
1000
MTEXTBEGIN
1070
    73
1070
     1
1070
    44
1040
1.0
1070
    74
1070
     0
1000
MTEXTEND
1000
MTEXTBEGIN
1070
    73
1070
     1
1070
    44
1040
1.0
1070
    74
1070
     0
1000
MTEXTEND
1000
MTEXTBEGIN
1070
    73
1070
     1
1070
    44
1040
1.0
1070
    74
1070
     0
1000
MTEXTEND
1000
MTEXTBEGIN
1070
    73
1070
     1
1070
    44
1040
1.0
1070
    74
1070
     0
1000
MTEXTEND
  0
POINT
  5
1185
330
117E
100
AcDbEntity
  8
DEFPOINTS
 62
     0
100
AcDbPoint
 10
2067.385580240554
 20
2287.611406092286
 30
0.0
  0
POINT
  5
1186
330
117E
100
AcDbEntity
  8
DEFPOINTS
 62
     0
100
AcDbPoint
 10
2067.385580240554
 20
2137.611406092286
 30
0.0
  0
POINT
  5
1187
330
117E
100
AcDbEntity
  8
DEFPOINTS
 62
     0
100
AcDbPoint
 10
2312.992445529866
 20
2137.611406092286
 30
0.0
  0
ENDBLK
  5
1189
330
117E
100
AcDbEntity
  8
0
100
AcDbBlockEnd
  0
BLOCK
  5
11A8
330
119E
100
AcDbEntity
  8
0
100
AcDbBlockBegin
  2
*D3
 70
     1
 10
0.0
 20
0.0
 30
0.0
  3
*D3
  1

  0
LINE
  5
119F
330
119E
100
AcDbEntity
  8
SUNPO
 62
   144
100
AcDbLine
 10
1347.385580240554
 20
2457.611406092286
 30
0.0
 11
1106.410884220751
 21
2457.611406092286
 31
0.0
  0
LINE
  5
11A0
330
119E
100
AcDbEntity
  8
SUNPO
 62
   144
100
AcDbLine
 10
1547.385580240554
 20
2257.611406092286
 30
0.0
 11
1106.410884220751
 21
2257.611406092286
 31
0.0
  0
LINE
  5
11A1
330
119E
100
AcDbEntity
  8
SUNPO
 62
   144
100
AcDbLine
 10
1116.410884220751
 20
2437.611406092286
 30
0.0
 11
1116.410884220751
 21
2277.611406092286
 31
0.0
  0
SOLID
  5
11A2
330
119E
100
AcDbEntity
  8
SUNPO
 62
   144
100
AcDbTrace
 10
1113.077550887418
 20
2437.611406092286
 30
0.0
 11
1119.744217554084
 21
2437.611406092286
 31
0.0
 12
1116.410884220751
 22
2457.611406092286
 32
0.0
 13
1116.410884220751
 23
2457.611406092286
 33
0.0
  0
SOLID
  5
11A3
330
119E
100
AcDbEntity
  8
SUNPO
 62
   144
100
AcDbTrace
 10
1113.077550887418
 20
2277.611406092286
 30
0.0
 11
1119.744217554084
 21
2277.611406092286
 31
0.0
 12
1116.410884220751
 22
2257.611406092286
 32
0.0
 13
1116.410884220751
 23
2257.611406092286
 33
0.0
  0
MTEXT
  5
11A4
330
119E
100
AcDbEntity
  8
SUNPO
 62
     7
100
AcDbMText
 10
1083.910884220751
 20
2357.611406092286
 30
0.0
 40
40.0
 41
0.0
 71
     5
 72
     1
  1
\A2;200
  7
ADD
 11
0.0000000000000001
 21
1.0
 31
0.0
1001
ACAD
1000
MTEXTBEGIN
1070
    73
1070
     1
1070
    44
1040
1.0
1070
    74
1070
     0
1000
MTEXTEND
1000
MTEXTBEGIN
1070
    73
1070
     1
1070
    44
1040
1.0
1070
    74
1070
     0
1000
MTEXTEND
1000
MTEXTBEGIN
1070
    73
1070
     1
1070
    44
1040
1.0
1070
    74
1070
     0
1000
MTEXTEND
1000
MTEXTBEGIN
1070
    73
1070
     1
1070
    44
1040
1.0
1070
    74
1070
     0
1000
MTEXTEND
  0
POINT
  5
11A5
330
119E
100
AcDbEntity
  8
DEFPOINTS
 62
     0
100
AcDbPoint
 10
1367.385580240554
 20
2457.611406092286
 30
0.0
  0
POINT
  5
11A6
330
119E
100
AcDbEntity
  8
DEFPOINTS
 62
     0
100
AcDbPoint
 10
1567.385580240554
 20
2257.611406092286
 30
0.0
  0
POINT
  5
11A7
330
119E
100
AcDbEntity
  8
DEFPOINTS
 62
     0
100
AcDbPoint
 10
1116.410884220751
 20
2257.611406092286
 30
0.0
  0
ENDBLK
  5
11A9
330
119E
100
AcDbEntity
  8
0
100
AcDbBlockEnd
  0
BLOCK
  5
11B7
330
11AB
100
AcDbEntity
  8
0
100
AcDbBlockBegin
  2
*D4
 70
     1
 10
0.0
 20
0.0
 30
0.0
  3
*D4
  1

  0
LINE
  5
11AC
330
11AB
100
AcDbEntity
  8
SUNPO
 62
   144
100
AcDbLine
 10
1347.385580240554
 20
2257.611406092286
 30
0.0
 11
1106.410884220751
 21
2257.611406092286
 31
0.0
  0
LINE
  5
11AD
330
11AB
100
AcDbEntity
  8
SUNPO
 62
   144
100
AcDbLine
 10
1347.385580240554
 20
2137.611406092286
 30
0.0
 11
1106.410884220751
 21
2137.611406092286
 31
0.0
  0
LINE
  5
11AE
330
11AB
100
AcDbEntity
  8
SUNPO
 62
   144
100
AcDbLine
 10
1116.410884220751
 20
2277.611406092286
 30
0.0
 11
1116.410884220751
 21
2297.611406092286
 31
0.0
  0
LINE
  5
11AF
330
11AB
100
AcDbEntity
  8
SUNPO
 62
   144
100
AcDbLine
 10
1116.410884220751
 20
2117.611406092286
 30
0.0
 11
1116.410884220751
 21
2097.611406092286
 31
0.0
  0
LINE
  5
11B0
330
11AB
100
AcDbEntity
  8
SUNPO
 62
   144
100
AcDbLine
 10
1116.410884220751
 20
2257.611406092286
 30
0.0
 11
1116.410884220751
 21
2137.611406092286
 31
0.0
  0
SOLID
  5
11B1
330
11AB
100
AcDbEntity
  8
SUNPO
 62
   144
100
AcDbTrace
 10
1113.077550887418
 20
2277.611406092286
 30
0.0
 11
1119.744217554084
 21
2277.611406092286
 31
0.0
 12
1116.410884220751
 22
2257.611406092286
 32
0.0
 13
1116.410884220751
 23
2257.611406092286
 33
0.0
  0
SOLID
  5
11B2
330
11AB
100
AcDbEntity
  8
SUNPO
 62
   144
100
AcDbTrace
 10
1113.077550887418
 20
2117.611406092286
 30
0.0
 11
1119.744217554084
 21
2117.611406092286
 31
0.0
 12
1116.410884220751
 22
2137.611406092286
 32
0.0
 13
1116.410884220751
 23
2137.611406092286
 33
0.0
  0
MTEXT
  5
11B3
330
11AB
100
AcDbEntity
  8
SUNPO
 62
     7
100
AcDbMText
 10
1083.910884220751
 20
2197.611406092286
 30
0.0
 40
40.0
 41
0.0
 71
     5
 72
     1
  1
\A2;120
  7
ADD
 11
0.0000000000000001
 21
1.0
 31
0.0
1001
ACAD
1000
MTEXTBEGIN
1070
    73
1070
     1
1070
    44
1040
1.0
1070
    74
1070
     0
1000
MTEXTEND
1000
MTEXTBEGIN
1070
    73
1070
     1
1070
    44
1040
1.0
1070
    74
1070
     0
1000
MTEXTEND
1000
MTEXTBEGIN
1070
    73
1070
     1
1070
    44
1040
1.0
1070
    74
1070
     0
1000
MTEXTEND
1000
MTEXTBEGIN
1070
    73
1070
     1
1070
    44
1040
1.0
1070
    74
1070
     0
1000
MTEXTEND
  0
POINT
  5
11B4
330
11AB
100
AcDbEntity
  8
DEFPOINTS
 62
     0
100
AcDbPoint
 10
1367.385580240554
 20
2257.611406092286
 30
0.0
  0
POINT
  5
11B5
330
11AB
100
AcDbEntity
  8
DEFPOINTS
 62
     0
100
AcDbPoint
 10
1367.385580240554
 20
2137.611406092286
 30
0.0
  0
POINT
  5
11B6
330
11AB
100
AcDbEntity
  8
DEFPOINTS
 62
     0
100
AcDbPoint
 10
1116.410884220751
 20
2137.611406092286
 30
0.0
  0
ENDBLK
  5
11B8
330
11AB
100
AcDbEntity
  8
0
100
AcDbBlockEnd
  0
BLOCK
  5
11C4
330
11BA
100
AcDbEntity
  8
0
100
AcDbBlockBegin
  2
*D5
 70
     1
 10
0.0
 20
0.0
 30
0.0
  3
*D5
  1

  0
LINE
  5
11BB
330
11BA
100
AcDbEntity
  8
SUNPO
 62
   144
100
AcDbLine
 10
1367.385580240554
 20
2477.611406092286
 30
0.0
 11
1367.385580240554
 21
2840.727476489093
 31
0.0
  0
LINE
  5
11BC
330
11BA
100
AcDbEntity
  8
SUNPO
 62
   144
100
AcDbLine
 10
1547.385580240554
 20
2477.611406092286
 30
0.0
 11
1547.385580240554
 21
2840.727476489093
 31
0.0
  0
LINE
  5
11BD
330
11BA
100
AcDbEntity
  8
SUNPO
 62
   144
100
AcDbLine
 10
1387.385580240554
 20
2830.727476489093
 30
0.0
 11
1527.385580240554
 21
2830.727476489093
 31
0.0
  0
SOLID
  5
11BE
330
11BA
100
AcDbEntity
  8
SUNPO
 62
   144
100
AcDbTrace
 10
1387.385580240554
 20
2834.060809822426
 30
0.0
 11
1387.385580240554
 21
2827.39414315576
 31
0.0
 12
1367.385580240554
 22
2830.727476489093
 32
0.0
 13
1367.385580240554
 23
2830.727476489093
 33
0.0
  0
SOLID
  5
11BF
330
11BA
100
AcDbEntity
  8
SUNPO
 62
   144
100
AcDbTrace
 10
1527.385580240554
 20
2834.060809822426
 30
0.0
 11
1527.385580240554
 21
2827.39414315576
 31
0.0
 12
1547.385580240554
 22
2830.727476489093
 32
0.0
 13
1547.385580240554
 23
2830.727476489093
 33
0.0
  0
MTEXT
  5
11C0
330
11BA
100
AcDbEntity
  8
SUNPO
 62
     7
100
AcDbMText
 10
1457.385580240554
 20
2863.227476489093
 30
0.0
 40
40.0
 41
0.0
 71
     5
 72
     1
  1
\A2;180
  7
ADD
1001
ACAD
1000
MTEXTBEGIN
1070
    73
1070
     1
1070
    44
1040
1.0
1070
    74
1070
     0
1000
MTEXTEND
1000
MTEXTBEGIN
1070
    73
1070
     1
1070
    44
1040
1.0
1070
    74
1070
     0
1000
MTEXTEND
1000
MTEXTBEGIN
1070
    73
1070
     1
1070
    44
1040
1.0
1070
    74
1070
     0
1000
MTEXTEND
1000
MTEXTBEGIN
1070
    73
1070
     1
1070
    44
1040
1.0
1070
    74
1070
     0
1000
MTEXTEND
  0
POINT
  5
11C1
330
11BA
100
AcDbEntity
  8
DEFPOINTS
 62
     0
100
AcDbPoint
 10
1367.385580240554
 20
2457.611406092286
 30
0.0
  0
POINT
  5
11C2
330
11BA
100
AcDbEntity
  8
DEFPOINTS
 62
     0
100
AcDbPoint
 10
1547.385580240554
 20
2457.611406092286
 30
0.0
  0
POINT
  5
11C3
330
11BA
100
AcDbEntity
  8
DEFPOINTS
 62
     0
100
AcDbPoint
 10
1547.385580240554
 20
2830.727476489093
 30
0.0
  0
ENDBLK
  5
11C5
330
11BA
100
AcDbEntity
  8
0
100
AcDbBlockEnd
  0
BLOCK
  5
11D3
330
11C7
100
AcDbEntity
  8
0
100
AcDbBlockBegin
  2
*D6
 70
     1
 10
0.0
 20
0.0
 30
0.0
  3
*D6
  1

  0
LINE
  5
11C8
330
11C7
100
AcDbEntity
  8
SUNPO
 62
   144
100
AcDbLine
 10
1547.385580240554
 20
2497.611406092286
 30
0.0
 11
1547.385580240554
 21
2839.060809822426
 31
0.0
  0
LINE
  5
11C9
330
11C7
100
AcDbEntity
  8
SUNPO
 62
   144
100
AcDbLine
 10
1567.385580240554
 20
2277.611406092286
 30
0.0
 11
1567.385580240554
 21
2839.060809822426
 31
0.0
  0
LINE
  5
11CA
330
11C7
100
AcDbEntity
  8
SUNPO
 62
   144
100
AcDbLine
 10
1527.385580240554
 20
2829.060809822426
 30
0.0
 11
1507.385580240554
 21
2829.060809822426
 31
0.0
  0
LINE
  5
11CB
330
11C7
100
AcDbEntity
  8
SUNPO
 62
   144
100
AcDbLine
 10
1587.385580240554
 20
2829.060809822426
 30
0.0
 11
1607.385580240554
 21
2829.060809822426
 31
0.0
  0
LINE
  5
11CC
330
11C7
100
AcDbEntity
  8
SUNPO
 62
   144
100
AcDbLine
 10
1547.385580240554
 20
2829.060809822426
 30
0.0
 11
1567.385580240554
 21
2829.060809822426
 31
0.0
  0
SOLID
  5
11CD
330
11C7
100
AcDbEntity
  8
SUNPO
 62
   144
100
AcDbTrace
 10
1527.385580240554
 20
2832.394143155759
 30
0.0
 11
1527.385580240554
 21
2825.727476489093
 31
0.0
 12
1547.385580240554
 22
2829.060809822426
 32
0.0
 13
1547.385580240554
 23
2829.060809822426
 33
0.0
  0
SOLID
  5
11CE
330
11C7
100
AcDbEntity
  8
SUNPO
 62
   144
100
AcDbTrace
 10
1587.385580240554
 20
2832.394143155759
 30
0.0
 11
1587.385580240554
 21
2825.727476489093
 31
0.0
 12
1567.385580240554
 22
2829.060809822426
 32
0.0
 13
1567.385580240554
 23
2829.060809822426
 33
0.0
  0
MTEXT
  5
11CF
330
11C7
100
AcDbEntity
  8
SUNPO
 62
     7
100
AcDbMText
 10
1557.385580240554
 20
2861.560809822426
 30
0.0
 40
40.0
 41
0.0
 71
     5
 72
     1
  1
\A2;20
  7
ADD
1001
ACAD
1000
MTEXTBEGIN
1070
    73
1070
     1
1070
    44
1040
1.0
1070
    74
1070
     0
1000
MTEXTEND
1000
MTEXTBEGIN
1070
    73
1070
     1
1070
    44
1040
1.0
1070
    74
1070
     0
1000
MTEXTEND
1000
MTEXTBEGIN
1070
    73
1070
     1
1070
    44
1040
1.0
1070
    74
1070
     0
1000
MTEXTEND
1000
MTEXTBEGIN
1070
    73
1070
     1
1070
    44
1040
1.0
1070
    74
1070
     0
1000
MTEXTEND
  0
POINT
  5
11D0
330
11C7
100
AcDbEntity
  8
DEFPOINTS
 62
     0
100
AcDbPoint
 10
1547.385580240554
 20
2477.611406092286
 30
0.0
  0
POINT
  5
11D1
330
11C7
100
AcDbEntity
  8
DEFPOINTS
 62
     0
100
AcDbPoint
 10
1567.385580240554
 20
2257.611406092286
 30
0.0
  0
POINT
  5
11D2
330
11C7
100
AcDbEntity
  8
DEFPOINTS
 62
     0
100
AcDbPoint
 10
1567.385580240554
 20
2829.060809822426
 30
0.0
  0
ENDBLK
  5
11D4
330
11C7
100
AcDbEntity
  8
0
100
AcDbBlockEnd
  0
BLOCK
  5
11E0
330
11D6
100
AcDbEntity
  8
0
100
AcDbBlockBegin
  2
*D7
 70
     1
 10
0.0
 20
0.0
 30
0.0
  3
*D7
  1

  0
LINE
  5
11D7
330
11D6
100
AcDbEntity
  8
SUNPO
 62
   144
100
AcDbLine
 10
1567.385580240554
 20
2277.611406092286
 30
0.0
 11
1567.385580240554
 21
2839.060809822426
 31
0.0
  0
LINE
  5
11D8
330
11D6
100
AcDbEntity
  8
SUNPO
 62
   144
100
AcDbLine
 10
2067.385580240554
 20
2307.611406092286
 30
0.0
 11
2067.385580240554
 21
2839.060809822426
 31
0.0
  0
LINE
  5
11D9
330
11D6
100
AcDbEntity
  8
SUNPO
 62
   144
100
AcDbLine
 10
1587.385580240554
 20
2829.060809822426
 30
0.0
 11
2047.385580240554
 21
2829.060809822426
 31
0.0
  0
SOLID
  5
11DA
330
11D6
100
AcDbEntity
  8
SUNPO
 62
   144
100
AcDbTrace
 10
1587.385580240554
 20
2832.394143155759
 30
0.0
 11
1587.385580240554
 21
2825.727476489093
 31
0.0
 12
1567.385580240554
 22
2829.060809822426
 32
0.0
 13
1567.385580240554
 23
2829.060809822426
 33
0.0
  0
SOLID
  5
11DB
330
11D6
100
AcDbEntity
  8
SUNPO
 62
   144
100
AcDbTrace
 10
2047.385580240554
 20
2832.394143155759
 30
0.0
 11
2047.385580240554
 21
2825.727476489093
 31
0.0
 12
2067.385580240554
 22
2829.060809822426
 32
0.0
 13
2067.385580240554
 23
2829.060809822426
 33
0.0
  0
MTEXT
  5
11DC
330
11D6
100
AcDbEntity
  8
SUNPO
 62
     7
100
AcDbMText
 10
1817.385580240554
 20
2861.560809822426
 30
0.0
 40
40.0
 41
0.0
 71
     5
 72
     1
  1
\A2;500
  7
ADD
1001
ACAD
1000
MTEXTBEGIN
1070
    73
1070
     1
1070
    44
1040
1.0
1070
    74
1070
     0
1000
MTEXTEND
1000
MTEXTBEGIN
1070
    73
1070
     1
1070
    44
1040
1.0
1070
    74
1070
     0
1000
MTEXTEND
1000
MTEXTBEGIN
1070
    73
1070
     1
1070
    44
1040
1.0
1070
    74
1070
     0
1000
MTEXTEND
1000
MTEXTBEGIN
1070
    73
1070
     1
1070
    44
1040
1.0
1070
    74
1070
     0
1000
MTEXTEND
  0
POINT
  5
11DD
330
11D6
100
AcDbEntity
  8
DEFPOINTS
 62
     0
100
AcDbPoint
 10
1567.385580240554
 20
2257.611406092286
 30
0.0
  0
POINT
  5
11DE
330
11D6
100
AcDbEntity
  8
DEFPOINTS
 62
     0
100
AcDbPoint
 10
2067.385580240554
 20
2287.611406092286
 30
0.0
  0
POINT
  5
11DF
330
11D6
100
AcDbEntity
  8
DEFPOINTS
 62
     0
100
AcDbPoint
 10
2067.385580240554
 20
2829.060809822426
 30
0.0
  0
ENDBLK
  5
11E1
330
11D6
100
AcDbEntity
  8
0
100
AcDbBlockEnd
  0
BLOCK
  5
11FC
330
11F2
100
AcDbEntity
  8
0
100
AcDbBlockBegin
  2
*D8
 70
     1
 10
0.0
 20
0.0
 30
0.0
  3
*D8
  1

  0
LINE
  5
11F3
330
11F2
100
AcDbEntity
  8
SUNPO
 62
   144
100
AcDbLine
 10
1347.385580240554
 20
2457.611406092286
 30
0.0
 11
933.7860514980622
 21
2457.611406092286
 31
0.0
  0
LINE
  5
11F4
330
11F2
100
AcDbEntity
  8
SUNPO
 62
   144
100
AcDbLine
 10
1347.385580240554
 20
2137.611406092286
 30
0.0
 11
933.786051498062
 21
2137.611406092287
 31
0.0
  0
LINE
  5
11F5
330
11F2
100
AcDbEntity
  8
SUNPO
 62
   144
100
AcDbLine
 10
943.7860514980622
 20
2437.611406092287
 30
0.0
 11
943.786051498062
 21
2157.611406092287
 31
0.0
  0
SOLID
  5
11F6
330
11F2
100
AcDbEntity
  8
SUNPO
 62
   144
100
AcDbTrace
 10
940.4527181647289
 20
2437.611406092287
 30
0.0
 11
947.1193848313955
 21
2437.611406092287
 31
0.0
 12
943.7860514980622
 22
2457.611406092286
 32
0.0
 13
943.7860514980622
 23
2457.611406092286
 33
0.0
  0
SOLID
  5
11F7
330
11F2
100
AcDbEntity
  8
SUNPO
 62
   144
100
AcDbTrace
 10
940.4527181647287
 20
2157.611406092287
 30
0.0
 11
947.1193848313955
 21
2157.611406092287
 31
0.0
 12
943.786051498062
 22
2137.611406092287
 32
0.0
 13
943.786051498062
 23
2137.611406092287
 33
0.0
  0
MTEXT
  5
11F8
330
11F2
100
AcDbEntity
  8
SUNPO
 62
     7
100
AcDbMText
 10
911.2860514980617
 20
2297.611406092286
 30
0.0
 40
40.0
 41
0.0
 71
     5
 72
     1
  1
\A2;320
  7
ADD
 11
0.0000000000000001
 21
1.0
 31
0.0
1001
ACAD
1000
MTEXTBEGIN
1070
    73
1070
     1
1070
    44
1040
1.0
1070
    74
1070
     0
1000
MTEXTEND
1000
MTEXTBEGIN
1070
    73
1070
     1
1070
    44
1040
1.0
1070
    74
1070
     0
1000
MTEXTEND
1000
MTEXTBEGIN
1070
    73
1070
     1
1070
    44
1040
1.0
1070
    74
1070
     0
1000
MTEXTEND
1000
MTEXTBEGIN
1070
    73
1070
     1
1070
    44
1040
1.0
1070
    74
1070
     0
1000
MTEXTEND
  0
POINT
  5
11F9
330
11F2
100
AcDbEntity
  8
DEFPOINTS
 62
     0
100
AcDbPoint
 10
1367.385580240554
 20
2457.611406092286
 30
0.0
  0
POINT
  5
11FA
330
11F2
100
AcDbEntity
  8
DEFPOINTS
 62
     0
100
AcDbPoint
 10
1367.385580240554
 20
2137.611406092286
 30
0.0
  0
POINT
  5
11FB
330
11F2
100
AcDbEntity
  8
DEFPOINTS
 62
     0
100
AcDbPoint
 10
943.786051498062
 20
2137.611406092287
 30
0.0
  0
ENDBLK
  5
11FD
330
11F2
100
AcDbEntity
  8
0
100
AcDbBlockEnd
  0
BLOCK
  5
1206
330
11FF
100
AcDbEntity
  8
0
100
AcDbBlockBegin
  2
*D9
 70
     1
 10
0.0
 20
0.0
 30
0.0
  3
*D9
  1

  0
LINE
  5
1200
330
11FF
100
AcDbEntity
  8
SUNPO
 62
   144
100
AcDbLine
 10
1659.33243548771
 20
2568.322520237794
 30
0.0
 11
1555.386688928586
 21
2463.170171399816
 31
0.0
  0
MTEXT
  5
1201
330
11FF
100
AcDbEntity
  8
SUNPO
 62
     7
100
AcDbMText
 10
1591.276511868533
 20
2545.706076988718
 30
0.0
 40
40.0
 41
0.0
 71
     5
 72
     1
  1
\A2;R30
  7
ADD
 11
0.7030147110278956
 21
0.7111753061505755
 31
0.0
1001
ACAD
1000
MTEXTBEGIN
1070
    73
1070
     1
1070
    44
1040
1.0
1070
    74
1070
     0
1000
MTEXTEND
1000
MTEXTBEGIN
1070
    73
1070
     1
1070
    44
1040
1.0
1070
    74
1070
     0
1000
MTEXTEND
1000
MTEXTBEGIN
1070
    73
1070
     1
1070
    44
1040
1.0
1070
    74
1070
     0
1000
MTEXTEND
1000
MTEXTBEGIN
1070
    73
1070
     1
1070
    44
1040
1.0
1070
    74
1070
     0
1000
MTEXTEND
  0
LINE
  5
1202
330
11FF
100
AcDbEntity
  8
SUNPO
 62
   144
100
AcDbLine
 10
1520.235953377191
 20
2427.611406092287
 30
0.0
 11
1541.326394708028
 21
2448.946665276805
 31
0.0
  0
SOLID
  5
1203
330
11FF
100
AcDbEntity
  8
SUNPO
 62
   144
100
AcDbTrace
 10
1553.016104574751
 20
2465.513553769909
 30
0.0
 11
1557.757273282421
 21
2460.826789029724
 31
0.0
 12
1541.326394708028
 22
2448.946665276805
 32
0.0
 13
1541.326394708028
 23
2448.946665276805
 33
0.0
  0
POINT
  5
1204
330
11FF
100
AcDbEntity
  8
DEFPOINTS
 62
     0
100
AcDbPoint
 10
1541.326394708028
 20
2448.946665276805
 30
0.0
  0
POINT
  5
1205
330
11FF
100
AcDbEntity
  8
DEFPOINTS
 62
     0
100
AcDbPoint
 10
1520.235953377191
 20
2427.611406092287
 30
0.0
  0
ENDBLK
  5
1207
330
11FF
100
AcDbEntity
  8
0
100
AcDbBlockEnd
  0
BLOCK
  5
1210
330
1209
100
AcDbEntity
  8
0
100
AcDbBlockBegin
  2
*D10
 70
     1
 10
0.0
 20
0.0
 30
0.0
  3
*D10
  1

  0
LINE
  5
120A
330
1209
100
AcDbEntity
  8
SUNPO
 62
   144
100
AcDbLine
 10
1464.574026409018
 20
2134.859646970739
 30
0.0
 11
1559.652179428567
 21
2248.093385371752
 31
0.0
  0
MTEXT
  5
120B
330
1209
100
AcDbEntity
  8
SUNPO
 62
     7
100
AcDbMText
 10
1480.793154901789
 20
2204.717016774025
 30
0.0
 40
40.0
 41
0.0
 71
     5
 72
     1
  1
\A2;R20
  7
ADD
 11
0.6430406484413913
 21
0.7658320471566041
 31
0.0
1001
ACAD
1000
MTEXTBEGIN
1070
    73
1070
     1
1070
    44
1040
1.0
1070
    74
1070
     0
1000
MTEXTEND
1000
MTEXTBEGIN
1070
    73
1070
     1
1070
    44
1040
1.0
1070
    74
1070
     0
1000
MTEXTEND
1000
MTEXTBEGIN
1070
    73
1070
     1
1070
    44
1040
1.0
1070
    74
1070
     0
1000
MTEXTEND
1000
MTEXTBEGIN
1070
    73
1070
     1
1070
    44
1040
1.0
1070
    74
1070
     0
1000
MTEXTEND
  0
LINE
  5
120C
330
1209
100
AcDbEntity
  8
SUNPO
 62
   144
100
AcDbLine
 10
1585.373805366223
 20
2278.726667258016
 30
0.0
 11
1572.512992397395
 21
2263.410026314883
 31
0.0
  0
SOLID
  5
120D
330
1209
100
AcDbEntity
  8
SUNPO
 62
   144
100
AcDbTrace
 10
1557.099405938045
 20
2250.23685419989
 30
0.0
 11
1562.204952919089
 21
2245.949916543614
 31
0.0
 12
1572.512992397395
 22
2263.410026314883
 32
0.0
 13
1572.512992397395
 23
2263.410026314883
 33
0.0
  0
POINT
  5
120E
330
1209
100
AcDbEntity
  8
DEFPOINTS
 62
     0
100
AcDbPoint
 10
1572.512992397395
 20
2263.410026314883
 30
0.0
  0
POINT
  5
120F
330
1209
100
AcDbEntity
  8
DEFPOINTS
 62
     0
100
AcDbPoint
 10
1585.373805366223
 20
2278.726667258016
 30
0.0
  0
ENDBLK
  5
1211
330
1209
100
AcDbEntity
  8
0
100
AcDbBlockEnd
  0
BLOCK
  5
1328
330
131E
100
AcDbEntity
  8
0
100
AcDbBlockBegin
  2
*D13
 70
     1
 10
0.0
 20
0.0
 30
0.0
  3
*D13
  1

  0
LINE
  5
131F
330
131E
100
AcDbEntity
  8
SUNPO
 62
   144
100
AcDbLine
 10
1367.385580240554
 20
2117.611406092286
 30
0.0
 11
1367.385580240554
 21
1909.290341667483
 31
0.0
  0
LINE
  5
1320
330
131E
100
AcDbEntity
  8
SUNPO
 62
   144
100
AcDbLine
 10
2067.385580240554
 20
2117.611406092286
 30
0.0
 11
2067.385580240554
 21
1909.290341667483
 31
0.0
  0
LINE
  5
1321
330
131E
100
AcDbEntity
  8
SUNPO
 62
   144
100
AcDbLine
 10
1387.385580240554
 20
1919.290341667483
 30
0.0
 11
2047.385580240554
 21
1919.290341667483
 31
0.0
  0
SOLID
  5
1322
330
131E
100
AcDbEntity
  8
SUNPO
 62
   144
100
AcDbTrace
 10
1387.385580240554
 20
1922.623675000816
 30
0.0
 11
1387.385580240554
 21
1915.95700833415
 31
0.0
 12
1367.385580240554
 22
1919.290341667483
 32
0.0
 13
1367.385580240554
 23
1919.290341667483
 33
0.0
  0
SOLID
  5
1323
330
131E
100
AcDbEntity
  8
SUNPO
 62
   144
100
AcDbTrace
 10
2047.385580240554
 20
1922.623675000816
 30
0.0
 11
2047.385580240554
 21
1915.95700833415
 31
0.0
 12
2067.385580240554
 22
1919.290341667483
 32
0.0
 13
2067.385580240554
 23
1919.290341667483
 33
0.0
  0
MTEXT
  5
1324
330
131E
100
AcDbEntity
  8
SUNPO
 62
     7
100
AcDbMText
 10
1717.385580240554
 20
1951.790341667483
 30
0.0
 40
40.0
 41
0.0
 71
     5
 72
     1
  1
\A2;700
  7
ADD
1001
ACAD
1000
MTEXTBEGIN
1070
    73
1070
     1
1070
    44
1040
1.0
1070
    74
1070
     0
1000
MTEXTEND
1000
MTEXTBEGIN
1070
    73
1070
     1
1070
    44
1040
1.0
1070
    74
1070
     0
1000
MTEXTEND
  0
POINT
  5
1325
330
131E
100
AcDbEntity
  8
DEFPOINTS
 62
     0
100
AcDbPoint
 10
1367.385580240554
 20
2137.611406092286
 30
0.0
  0
POINT
  5
1326
330
131E
100
AcDbEntity
  8
DEFPOINTS
 62
     0
100
AcDbPoint
 10
2067.385580240554
 20
2137.611406092286
 30
0.0
  0
POINT
  5
1327
330
131E
100
AcDbEntity
  8
DEFPOINTS
 62
     0
100
AcDbPoint
 10
2067.385580240554
 20
1919.290341667483
 30
0.0
  0
ENDBLK
  5
1329
330
131E
100
AcDbEntity
  8
0
100
AcDbBlockEnd
  0
BLOCK
  5
1335
330
132B
100
AcDbEntity
  8
0
100
AcDbBlockBegin
  2
*D14
 70
     1
 10
0.0
 20
0.0
 30
0.0
  3
*D14
  1

  0
LINE
  5
132C
330
132B
100
AcDbEntity
  8
SUNPO
 62
   144
100
AcDbLine
 10
2921.206150868464
 20
2117.611406092286
 30
0.0
 11
2921.206150868464
 21
1909.290341667483
 31
0.0
  0
LINE
  5
132D
330
132B
100
AcDbEntity
  8
SUNPO
 62
   144
100
AcDbLine
 10
4921.206150868464
 20
2117.611406092286
 30
0.0
 11
4921.206150868464
 21
1909.290341667483
 31
0.0
  0
LINE
  5
132E
330
132B
100
AcDbEntity
  8
SUNPO
 62
   144
100
AcDbLine
 10
2941.206150868463
 20
1919.290341667483
 30
0.0
 11
4901.206150868464
 21
1919.290341667483
 31
0.0
  0
SOLID
  5
132F
330
132B
100
AcDbEntity
  8
SUNPO
 62
   144
100
AcDbTrace
 10
2941.206150868463
 20
1922.623675000816
 30
0.0
 11
2941.206150868463
 21
1915.95700833415
 31
0.0
 12
2921.206150868464
 22
1919.290341667483
 32
0.0
 13
2921.206150868464
 23
1919.290341667483
 33
0.0
  0
SOLID
  5
1330
330
132B
100
AcDbEntity
  8
SUNPO
 62
   144
100
AcDbTrace
 10
4901.206150868464
 20
1922.623675000816
 30
0.0
 11
4901.206150868464
 21
1915.95700833415
 31
0.0
 12
4921.206150868464
 22
1919.290341667483
 32
0.0
 13
4921.206150868464
 23
1919.290341667483
 33
0.0
  0
MTEXT
  5
1331
330
132B
100
AcDbEntity
  8
SUNPO
 62
     7
100
AcDbMText
 10
3921.206150868464
 20
1951.790341667483
 30
0.0
 40
40.0
 41
0.0
 71
     5
 72
     1
  1
\A2;2000
  7
ADD
1001
ACAD
1000
MTEXTBEGIN
1070
    73
1070
     1
1070
    44
1040
1.0
1070
    74
1070
     0
1000
MTEXTEND
1000
MTEXTBEGIN
1070
    73
1070
     1
1070
    44
1040
1.0
1070
    74
1070
     0
1000
MTEXTEND
  0
POINT
  5
1332
330
132B
100
AcDbEntity
  8
DEFPOINTS
 62
     0
100
AcDbPoint
 10
2921.206150868464
 20
2137.611406092286
 30
0.0
  0
POINT
  5
1333
330
132B
100
AcDbEntity
  8
DEFPOINTS
 62
     0
100
AcDbPoint
 10
4921.206150868464
 20
2137.611406092286
 30
0.0
  0
POINT
  5
1334
330
132B
100
AcDbEntity
  8
DEFPOINTS
 62
     0
100
AcDbPoint
 10
4921.206150868464
 20
1919.290341667483
 30
0.0
  0
ENDBLK
  5
1336
330
132B
100
AcDbEntity
  8
0
100
AcDbBlockEnd
  0
ENDSEC
  0
SECTION
  2
ENTITIES
  0
LINE
  5
60A
330
1F
100
AcDbEntity
  8
HOJO
100
AcDbLine
 10
360.0
 20
260.0
 30
0.0
 11
5580.0
 21
260.0
 31
0.0
  0
LINE
  5
60B
330
1F
100
AcDbEntity
  8
HOJO
100
AcDbLine
 10
360.0
 20
560.0
 30
0.0
 11
5580.0
 21
560.0
 31
0.0
  0
LINE
  5
60C
330
1F
100
AcDbEntity
  8
HOJO
100
AcDbLine
 10
360.0
 20
260.0
 30
0.0
 11
360.0
 21
560.0
 31
0.0
  0
LINE
  5
60D
330
1F
100
AcDbEntity
  8
HOJO
100
AcDbLine
 10
2360.0
 20
260.0
 30
0.0
 11
2360.0
 21
560.0
 31
0.0
  0
LINE
  5
60F
330
1F
100
AcDbEntity
  8
HOJO
100
AcDbLine
 10
3160.0
 20
260.0
 30
0.0
 11
3160.0
 21
560.0
 31
0.0
  0
LINE
  5
610
330
1F
100
AcDbEntity
  8
HOJO
100
AcDbLine
 10
3660.0
 20
260.0
 30
0.0
 11
3660.0
 21
560.0
 31
0.0
  0
LINE
  5
1057
330
1F
100
AcDbEntity
  8
3C1
100
AcDbLine
 10
2921.206150868464
 20
2137.611406092286
 30
0.0
 11
4921.206150868464
 21
2137.611406092286
 31
0.0
  0
LINE
  5
1058
330
1F
100
AcDbEntity
  8
3C1
100
AcDbLine
 10
2921.206150868464
 20
2137.611406092286
 30
0.0
 11
2921.206150868464
 21
2287.611406092286
 31
0.0
  0
LINE
  5
1059
330
1F
100
AcDbEntity
  8
3C1
100
AcDbLine
 10
2921.206150868464
 20
2287.611406092286
 30
0.0
 11
4921.206150868464
 21
2287.611406092286
 31
0.0
  0
LINE
  5
105A
330
1F
100
AcDbEntity
  8
3C1
100
AcDbLine
 10
2921.206150868464
 20
2287.611406092286
 30
0.0
 11
2921.206150868464
 21
2407.611406092286
 31
0.0
  0
LINE
  5
105B
330
1F
100
AcDbEntity
  8
3C1
100
AcDbLine
 10
2921.206150868464
 20
2407.611406092286
 30
0.0
 11
4921.206150868464
 21
2407.611406092286
 31
0.0
  0
LINE
  5
105C
330
1F
100
AcDbEntity
  8
3C1
100
AcDbLine
 10
4921.206150868464
 20
2407.611406092286
 30
0.0
 11
4921.206150868464
 21
2137.611406092286
 31
0.0
  0
LINE
  5
114E
330
1F
100
AcDbEntity
  8
3C1
100
AcDbLine
 10
1367.385580240554
 20
2137.611406092286
 30
0.0
 11
2067.385580240554
 21
2137.611406092286
 31
0.0
  0
LINE
  5
114F
330
1F
100
AcDbEntity
  8
3C1
100
AcDbLine
 10
1367.385580240554
 20
2137.611406092286
 30
0.0
 11
1367.385580240554
 21
2457.611406092286
 31
0.0
  0
LINE
  5
1150
330
1F
100
AcDbEntity
  8
3C1
100
AcDbLine
 10
1367.385580240554
 20
2457.611406092286
 30
0.0
 11
1520.235953377191
 21
2457.611406092286
 31
0.0
  0
LINE
  5
1152
330
1F
100
AcDbEntity
  8
3C1
100
AcDbLine
 10
2067.385580240554
 20
2137.611406092286
 30
0.0
 11
2067.385580240554
 21
2287.611406092286
 31
0.0
  0
LINE
  5
119A
330
1F
100
AcDbEntity
  8
3C1
100
AcDbLine
 10
1565.473061562023
 20
2276.736592877595
 30
0.0
 11
1550.087069083491
 21
2430.596517662917
 31
0.0
  0
LINE
  5
119B
330
1F
100
AcDbEntity
  8
3C1
100
AcDbLine
 10
2067.385580240554
 20
2287.611406092286
 30
0.0
 11
1586.571651180781
 21
2258.7625703487
 31
0.0
  0
ARC
  5
11E2
330
1F
100
AcDbEntity
  8
3C1
100
AcDbCircle
 10
1585.373805366223
 20
2278.726667258016
 30
0.0
 40
20.0
100
AcDbArc
 50
185.7105931374996
 51
273.4336303624505
  0
ARC
  5
11E3
330
1F
100
AcDbEntity
  8
3C1
100
AcDbCircle
 10
1520.235953377191
 20
2427.611406092287
 30
0.0
 40
30.0
100
AcDbArc
 50
5.710593137499684
 51
90.0
  0
LINE
  5
13AF
330
1F
100
AcDbEntity
  8
SUNPO
 62
   144
100
AcDbLine
 10
2921.206150868464
 20
2117.611406092286
 30
0.0
 11
2921.206150868464
 21
1909.290341667483
 31
0.0
  0
LINE
  5
13B0
330
1F
100
AcDbEntity
  8
SUNPO
 62
   144
100
AcDbLine
 10
4921.206150868464
 20
2117.611406092286
 30
0.0
 11
4921.206150868464
 21
1909.290341667483
 31
0.0
  0
LINE
  5
13B1
330
1F
100
AcDbEntity
  8
SUNPO
 62
   144
100
AcDbLine
 10
2941.206150868463
 20
1919.290341667483
 30
0.0
 11
4901.206150868464
 21
1919.290341667483
 31
0.0
  0
SOLID
  5
13B2
330
1F
100
AcDbEntity
  8
SUNPO
 62
   144
100
AcDbTrace
 10
2941.206150868463
 20
1922.623675000816
 30
0.0
 11
2941.206150868463
 21
1915.95700833415
 31
0.0
 12
2921.206150868464
 22
1919.290341667483
 32
0.0
 13
2921.206150868464
 23
1919.290341667483
 33
0.0
  0
SOLID
  5
13B3
330
1F
100
AcDbEntity
  8
SUNPO
 62
   144
100
AcDbTrace
 10
4901.206150868464
 20
1922.623675000816
 30
0.0
 11
4901.206150868464
 21
1915.95700833415
 31
0.0
 12
4921.206150868464
 22
1919.290341667483
 32
0.0
 13
4921.206150868464
 23
1919.290341667483
 33
0.0
  0
LINE
  5
13B5
330
1F
100
AcDbEntity
  8
SUNPO
 62
   144
100
AcDbLine
 10
1367.385580240554
 20
2117.611406092286
 30
0.0
 11
1367.385580240554
 21
1909.290341667483
 31
0.0
  0
LINE
  5
13B6
330
1F
100
AcDbEntity
  8
SUNPO
 62
   144
100
AcDbLine
 10
2067.385580240554
 20
2117.611406092286
 30
0.0
 11
2067.385580240554
 21
1909.290341667483
 31
0.0
  0
LINE
  5
13B7
330
1F
100
AcDbEntity
  8
SUNPO
 62
   144
100
AcDbLine
 10
1387.385580240554
 20
1919.290341667483
 30
0.0
 11
2047.385580240554
 21
1919.290341667483
 31
0.0
  0
SOLID
  5
13B8
330
1F
100
AcDbEntity
  8
SUNPO
 62
   144
100
AcDbTrace
 10
1387.385580240554
 20
1922.623675000816
 30
0.0
 11
1387.385580240554
 21
1915.95700833415
 31
0.0
 12
1367.385580240554
 22
1919.290341667483
 32
0.0
 13
1367.385580240554
 23
1919.290341667483
 33
0.0
  0
SOLID
  5
13B9
330
1F
100
AcDbEntity
  8
SUNPO
 62
   144
100
AcDbTrace
 10
2047.385580240554
 20
1922.623675000816
 30
0.0
 11
2047.385580240554
 21
1915.95700833415
 31
0.0
 12
2067.385580240554
 22
1919.290341667483
 32
0.0
 13
2067.385580240554
 23
1919.290341667483
 33
0.0
  0
TEXT
  5
13BB
330
1F
100
AcDbEntity
  8
SUNPO
100
AcDbText
 10
2576.766649736178
 20
358.942846802196
 30
0.0
 40
80.0
  1
５００Ｂ
  7
ADD
100
AcDbText
1001
ACAD
1000
MTEXTBEGIN
1070
    73
1070
     1
1070
    44
1040
1.0
1070
    74
1070
     0
1000
MTEXTEND
1000
MTEXTBEGIN
1070
    73
1070
     1
1070
    44
1040
1.0
1070
    74
1070
     0
1000
MTEXTEND
1000
MTEXTBEGIN
1070
    73
1070
     1
1070
    44
1040
1.0
1070
    74
1070
     0
1000
MTEXTEND
1000
MTEXTBEGIN
1070
    73
1070
     1
1070
    44
1040
1.0
1070
    74
1070
     0
1000
MTEXTEND
1000
MTEXTBEGIN
1070
    73
1070
     1
1070
    44
1040
1.0
1070
    74
1070
     0
1000
MTEXTEND
1000
MTEXTBEGIN
1070
    73
1070
     1
1070
    44
1040
1.0
1070
    74
1070
     0
1000
MTEXTEND
  0
LINE
  5
13BC
330
1F
100
AcDbEntity
  8
SUNPO
 62
   144
100
AcDbLine
 10
1464.574026409018
 20
2134.859646970739
 30
0.0
 11
1559.652179428567
 21
2248.093385371752
 31
0.0
  0
LINE
  5
13BE
330
1F
100
AcDbEntity
  8
SUNPO
 62
   144
100
AcDbLine
 10
1585.373805366223
 20
2278.726667258016
 30
0.0
 11
1572.512992397395
 21
2263.410026314883
 31
0.0
  0
SOLID
  5
13BF
330
1F
100
AcDbEntity
  8
SUNPO
 62
   144
100
AcDbTrace
 10
1557.099405938045
 20
2250.23685419989
 30
0.0
 11
1562.204952919089
 21
2245.949916543614
 31
0.0
 12
1572.512992397395
 22
2263.410026314883
 32
0.0
 13
1572.512992397395
 23
2263.410026314883
 33
0.0
  0
LINE
  5
13C0
330
1F
100
AcDbEntity
  8
SUNPO
 62
   144
100
AcDbLine
 10
1659.33243548771
 20
2568.322520237794
 30
0.0
 11
1555.386688928586
 21
2463.170171399816
 31
0.0
  0
LINE
  5
13C2
330
1F
100
AcDbEntity
  8
SUNPO
 62
   144
100
AcDbLine
 10
1520.235953377191
 20
2427.611406092287
 30
0.0
 11
1541.326394708028
 21
2448.946665276805
 31
0.0
  0
SOLID
  5
13C3
330
1F
100
AcDbEntity
  8
SUNPO
 62
   144
100
AcDbTrace
 10
1553.016104574751
 20
2465.513553769909
 30
0.0
 11
1557.757273282421
 21
2460.826789029724
 31
0.0
 12
1541.326394708028
 22
2448.946665276805
 32
0.0
 13
1541.326394708028
 23
2448.946665276805
 33
0.0
  0
LINE
  5
13C4
330
1F
100
AcDbEntity
  8
SUNPO
 62
   144
100
AcDbLine
 10
1347.385580240554
 20
2457.611406092286
 30
0.0
 11
933.7860514980622
 21
2457.611406092286
 31
0.0
  0
LINE
  5
13C5
330
1F
100
AcDbEntity
  8
SUNPO
 62
   144
100
AcDbLine
 10
1347.385580240554
 20
2137.611406092286
 30
0.0
 11
933.786051498062
 21
2137.611406092287
 31
0.0
  0
LINE
  5
13C6
330
1F
100
AcDbEntity
  8
SUNPO
 62
   144
100
AcDbLine
 10
943.7860514980622
 20
2437.611406092287
 30
0.0
 11
943.786051498062
 21
2157.611406092287
 31
0.0
  0
SOLID
  5
13C7
330
1F
100
AcDbEntity
  8
SUNPO
 62
   144
100
AcDbTrace
 10
940.4527181647289
 20
2437.611406092287
 30
0.0
 11
947.1193848313955
 21
2437.611406092287
 31
0.0
 12
943.7860514980622
 22
2457.611406092286
 32
0.0
 13
943.7860514980622
 23
2457.611406092286
 33
0.0
  0
SOLID
  5
13C8
330
1F
100
AcDbEntity
  8
SUNPO
 62
   144
100
AcDbTrace
 10
940.4527181647287
 20
2157.611406092287
 30
0.0
 11
947.1193848313955
 21
2157.611406092287
 31
0.0
 12
943.786051498062
 22
2137.611406092287
 32
0.0
 13
943.786051498062
 23
2137.611406092287
 33
0.0
  0
LINE
  5
13CA
330
1F
100
AcDbEntity
  8
SUNPO
 62
   144
100
AcDbLine
 10
1567.385580240554
 20
2277.611406092286
 30
0.0
 11
1567.385580240554
 21
2839.060809822426
 31
0.0
  0
LINE
  5
13CB
330
1F
100
AcDbEntity
  8
SUNPO
 62
   144
100
AcDbLine
 10
2067.385580240554
 20
2307.611406092286
 30
0.0
 11
2067.385580240554
 21
2839.060809822426
 31
0.0
  0
LINE
  5
13CC
330
1F
100
AcDbEntity
  8
SUNPO
 62
   144
100
AcDbLine
 10
1587.385580240554
 20
2829.060809822426
 30
0.0
 11
2047.385580240554
 21
2829.060809822426
 31
0.0
  0
SOLID
  5
13CD
330
1F
100
AcDbEntity
  8
SUNPO
 62
   144
100
AcDbTrace
 10
1587.385580240554
 20
2832.394143155759
 30
0.0
 11
1587.385580240554
 21
2825.727476489093
 31
0.0
 12
1567.385580240554
 22
2829.060809822426
 32
0.0
 13
1567.385580240554
 23
2829.060809822426
 33
0.0
  0
SOLID
  5
13CE
330
1F
100
AcDbEntity
  8
SUNPO
 62
   144
100
AcDbTrace
 10
2047.385580240554
 20
2832.394143155759
 30
0.0
 11
2047.385580240554
 21
2825.727476489093
 31
0.0
 12
2067.385580240554
 22
2829.060809822426
 32
0.0
 13
2067.385580240554
 23
2829.060809822426
 33
0.0
  0
LINE
  5
13D0
330
1F
100
AcDbEntity
  8
SUNPO
 62
   144
100
AcDbLine
 10
1547.385580240554
 20
2497.611406092286
 30
0.0
 11
1547.385580240554
 21
2839.060809822426
 31
0.0
  0
LINE
  5
13D1
330
1F
100
AcDbEntity
  8
SUNPO
 62
   144
100
AcDbLine
 10
1567.385580240554
 20
2277.611406092286
 30
0.0
 11
1567.385580240554
 21
2839.060809822426
 31
0.0
  0
LINE
  5
13D2
330
1F
100
AcDbEntity
  8
SUNPO
 62
   144
100
AcDbLine
 10
1527.385580240554
 20
2829.060809822426
 30
0.0
 11
1507.385580240554
 21
2829.060809822426
 31
0.0
  0
LINE
  5
13D3
330
1F
100
AcDbEntity
  8
SUNPO
 62
   144
100
AcDbLine
 10
1587.385580240554
 20
2829.060809822426
 30
0.0
 11
1607.385580240554
 21
2829.060809822426
 31
0.0
  0
LINE
  5
13D4
330
1F
100
AcDbEntity
  8
SUNPO
 62
   144
100
AcDbLine
 10
1547.385580240554
 20
2829.060809822426
 30
0.0
 11
1567.385580240554
 21
2829.060809822426
 31
0.0
  0
SOLID
  5
13D5
330
1F
100
AcDbEntity
  8
SUNPO
 62
   144
100
AcDbTrace
 10
1527.385580240554
 20
2832.394143155759
 30
0.0
 11
1527.385580240554
 21
2825.727476489093
 31
0.0
 12
1547.385580240554
 22
2829.060809822426
 32
0.0
 13
1547.385580240554
 23
2829.060809822426
 33
0.0
  0
SOLID
  5
13D6
330
1F
100
AcDbEntity
  8
SUNPO
 62
   144
100
AcDbTrace
 10
1587.385580240554
 20
2832.394143155759
 30
0.0
 11
1587.385580240554
 21
2825.727476489093
 31
0.0
 12
1567.385580240554
 22
2829.060809822426
 32
0.0
 13
1567.385580240554
 23
2829.060809822426
 33
0.0
  0
LINE
  5
13D8
330
1F
100
AcDbEntity
  8
SUNPO
 62
   144
100
AcDbLine
 10
1367.385580240554
 20
2477.611406092286
 30
0.0
 11
1367.385580240554
 21
2840.727476489093
 31
0.0
  0
LINE
  5
13D9
330
1F
100
AcDbEntity
  8
SUNPO
 62
   144
100
AcDbLine
 10
1547.385580240554
 20
2477.611406092286
 30
0.0
 11
1547.385580240554
 21
2840.727476489093
 31
0.0
  0
LINE
  5
13DA
330
1F
100
AcDbEntity
  8
SUNPO
 62
   144
100
AcDbLine
 10
1387.385580240554
 20
2830.727476489093
 30
0.0
 11
1527.385580240554
 21
2830.727476489093
 31
0.0
  0
SOLID
  5
13DB
330
1F
100
AcDbEntity
  8
SUNPO
 62
   144
100
AcDbTrace
 10
1387.385580240554
 20
2834.060809822426
 30
0.0
 11
1387.385580240554
 21
2827.39414315576
 31
0.0
 12
1367.385580240554
 22
2830.727476489093
 32
0.0
 13
1367.385580240554
 23
2830.727476489093
 33
0.0
  0
SOLID
  5
13DC
330
1F
100
AcDbEntity
  8
SUNPO
 62
   144
100
AcDbTrace
 10
1527.385580240554
 20
2834.060809822426
 30
0.0
 11
1527.385580240554
 21
2827.39414315576
 31
0.0
 12
1547.385580240554
 22
2830.727476489093
 32
0.0
 13
1547.385580240554
 23
2830.727476489093
 33
0.0
  0
LINE
  5
13DE
330
1F
100
AcDbEntity
  8
SUNPO
 62
   144
100
AcDbLine
 10
1347.385580240554
 20
2257.611406092286
 30
0.0
 11
1106.410884220751
 21
2257.611406092286
 31
0.0
  0
LINE
  5
13DF
330
1F
100
AcDbEntity
  8
SUNPO
 62
   144
100
AcDbLine
 10
1347.385580240554
 20
2137.611406092286
 30
0.0
 11
1106.410884220751
 21
2137.611406092286
 31
0.0
  0
LINE
  5
13E0
330
1F
100
AcDbEntity
  8
SUNPO
 62
   144
100
AcDbLine
 10
1116.410884220751
 20
2277.611406092286
 30
0.0
 11
1116.410884220751
 21
2297.611406092286
 31
0.0
  0
LINE
  5
13E1
330
1F
100
AcDbEntity
  8
SUNPO
 62
   144
100
AcDbLine
 10
1116.410884220751
 20
2117.611406092286
 30
0.0
 11
1116.410884220751
 21
2097.611406092286
 31
0.0
  0
LINE
  5
13E2
330
1F
100
AcDbEntity
  8
SUNPO
 62
   144
100
AcDbLine
 10
1116.410884220751
 20
2257.611406092286
 30
0.0
 11
1116.410884220751
 21
2137.611406092286
 31
0.0
  0
SOLID
  5
13E3
330
1F
100
AcDbEntity
  8
SUNPO
 62
   144
100
AcDbTrace
 10
1113.077550887418
 20
2277.611406092286
 30
0.0
 11
1119.744217554084
 21
2277.611406092286
 31
0.0
 12
1116.410884220751
 22
2257.611406092286
 32
0.0
 13
1116.410884220751
 23
2257.611406092286
 33
0.0
  0
SOLID
  5
13E4
330
1F
100
AcDbEntity
  8
SUNPO
 62
   144
100
AcDbTrace
 10
1113.077550887418
 20
2117.611406092286
 30
0.0
 11
1119.744217554084
 21
2117.611406092286
 31
0.0
 12
1116.410884220751
 22
2137.611406092286
 32
0.0
 13
1116.410884220751
 23
2137.611406092286
 33
0.0
  0
LINE
  5
13E6
330
1F
100
AcDbEntity
  8
SUNPO
 62
   144
100
AcDbLine
 10
1347.385580240554
 20
2457.611406092286
 30
0.0
 11
1106.410884220751
 21
2457.611406092286
 31
0.0
  0
LINE
  5
13E7
330
1F
100
AcDbEntity
  8
SUNPO
 62
   144
100
AcDbLine
 10
1547.385580240554
 20
2257.611406092286
 30
0.0
 11
1106.410884220751
 21
2257.611406092286
 31
0.0
  0
LINE
  5
13E8
330
1F
100
AcDbEntity
  8
SUNPO
 62
   144
100
AcDbLine
 10
1116.410884220751
 20
2437.611406092286
 30
0.0
 11
1116.410884220751
 21
2277.611406092286
 31
0.0
  0
SOLID
  5
13E9
330
1F
100
AcDbEntity
  8
SUNPO
 62
   144
100
AcDbTrace
 10
1113.077550887418
 20
2437.611406092286
 30
0.0
 11
1119.744217554084
 21
2437.611406092286
 31
0.0
 12
1116.410884220751
 22
2457.611406092286
 32
0.0
 13
1116.410884220751
 23
2457.611406092286
 33
0.0
  0
SOLID
  5
13EA
330
1F
100
AcDbEntity
  8
SUNPO
 62
   144
100
AcDbTrace
 10
1113.077550887418
 20
2277.611406092286
 30
0.0
 11
1119.744217554084
 21
2277.611406092286
 31
0.0
 12
1116.410884220751
 22
2257.611406092286
 32
0.0
 13
1116.410884220751
 23
2257.611406092286
 33
0.0
  0
LINE
  5
13EC
330
1F
100
AcDbEntity
  8
SUNPO
 62
   144
100
AcDbLine
 10
2087.385580240554
 20
2287.611406092286
 30
0.0
 11
2322.992445529866
 21
2287.611406092286
 31
0.0
  0
LINE
  5
13ED
330
1F
100
AcDbEntity
  8
SUNPO
 62
   144
100
AcDbLine
 10
2087.385580240554
 20
2137.611406092286
 30
0.0
 11
2322.992445529866
 21
2137.611406092286
 31
0.0
  0
LINE
  5
13EE
330
1F
100
AcDbEntity
  8
SUNPO
 62
   144
100
AcDbLine
 10
2312.992445529866
 20
2267.611406092286
 30
0.0
 11
2312.992445529866
 21
2157.611406092286
 31
0.0
  0
SOLID
  5
13EF
330
1F
100
AcDbEntity
  8
SUNPO
 62
   144
100
AcDbTrace
 10
2309.659112196532
 20
2267.611406092286
 30
0.0
 11
2316.325778863199
 21
2267.611406092286
 31
0.0
 12
2312.992445529866
 22
2287.611406092286
 32
0.0
 13
2312.992445529866
 23
2287.611406092286
 33
0.0
  0
SOLID
  5
13F0
330
1F
100
AcDbEntity
  8
SUNPO
 62
   144
100
AcDbTrace
 10
2309.659112196532
 20
2157.611406092286
 30
0.0
 11
2316.325778863199
 21
2157.611406092286
 31
0.0
 12
2312.992445529866
 22
2137.611406092286
 32
0.0
 13
2312.992445529866
 23
2137.611406092286
 33
0.0
  0
TEXT
  5
13F2
330
1F
100
AcDbEntity
  8
SUNPO
100
AcDbText
 10
479.769955436197
 20
364.6805196678378
 30
0.0
 40
80.0
  1
道路用鉄筋コンクリートＬ形側溝２種
  7
ADD
100
AcDbText
1001
ACAD
1000
MTEXTBEGIN
1070
    73
1070
     1
1070
    44
1040
1.0
1070
    74
1070
     0
1000
MTEXTEND
1000
MTEXTBEGIN
1070
    73
1070
     1
1070
    44
1040
1.0
1070
    74
1070
     0
1000
MTEXTEND
1000
MTEXTBEGIN
1070
    73
1070
     1
1070
    44
1040
1.0
1070
    74
1070
     0
1000
MTEXTEND
1000
MTEXTBEGIN
1070
    73
1070
     1
1070
    44
1040
1.0
1070
    74
1070
     0
1000
MTEXTEND
1000
MTEXTBEGIN
1070
    73
1070
     1
1070
    44
1040
1.0
1070
    74
1070
     0
1000
MTEXTEND
1000
MTEXTBEGIN
1070
    73
1070
     1
1070
    44
1040
1.0
1070
    74
1070
     0
1000
MTEXTEND
  0
TEXT
  5
13F3
330
1F
100
AcDbEntity
  8
SUNPO
100
AcDbText
 10
3246.680311730542
 20
359.2274732162223
 30
0.0
 40
70.0
  1
１／２０
  7
ADD
100
AcDbText
1001
ACAD
1000
MTEXTBEGIN
1070
    73
1070
     1
1070
    44
1040
1.0
1070
    74
1070
     0
1000
MTEXTEND
1000
MTEXTBEGIN
1070
    73
1070
     1
1070
    44
1040
1.0
1070
    74
1070
     0
1000
MTEXTEND
1000
MTEXTBEGIN
1070
    73
1070
     1
1070
    44
1040
1.0
1070
    74
1070
     0
1000
MTEXTEND
1000
MTEXTBEGIN
1070
    73
1070
     1
1070
    44
1040
1.0
1070
    74
1070
     0
1000
MTEXTEND
1000
MTEXTBEGIN
1070
    73
1070
     1
1070
    44
1040
1.0
1070
    74
1070
     0
1000
MTEXTEND
1000
MTEXTBEGIN
1070
    73
1070
     1
1070
    44
1040
1.0
1070
    74
1070
     0
1000
MTEXTEND
1000
MTEXTBEGIN
1070
    73
1070
     1
1070
    44
1040
1.0
1070
    74
1070
     0
1000
MTEXTEND
1000
MTEXTBEGIN
1070
    73
1070
     1
1070
    44
1040
1.0
1070
    74
1070
     0
1000
MTEXTEND
1000
MTEXTBEGIN
1070
    73
1070
     1
1070
    44
1040
1.0
1070
    74
1070
     0
1000
MTEXTEND
1000
MTEXTBEGIN
1070
    73
1070
     1
1070
    44
1040
1.0
1070
    74
1070
     0
1000
MTEXTEND
1000
MTEXTBEGIN
1070
    73
1070
     1
1070
    44
1040
1.0
1070
    74
1070
     0
1000
MTEXTEND
  0
TEXT
  5
13F4
330
1F
100
AcDbEntity
  8
SUNPO
100
AcDbText
 10
381.8862574011546
 20
488.6918916770627
 30
0.0
 40
50.0
  1
製品名
  7
ADD
100
AcDbText
1001
ACAD
1000
MTEXTBEGIN
1070
    73
1070
     1
1070
    44
1040
1.0
1070
    74
1070
     0
1000
MTEXTEND
1000
MTEXTBEGIN
1070
    73
1070
     1
1070
    44
1040
1.0
1070
    74
1070
     0
1000
MTEXTEND
1000
MTEXTBEGIN
1070
    73
1070
     1
1070
    44
1040
1.0
1070
    74
1070
     0
1000
MTEXTEND
1000
MTEXTBEGIN
1070
    73
1070
     1
1070
    44
1040
1.0
1070
    74
1070
     0
1000
MTEXTEND
1000
MTEXTBEGIN
1070
    73
1070
     1
1070
    44
1040
1.0
1070
    74
1070
     0
1000
MTEXTEND
1000
MTEXTBEGIN
1070
    73
1070
     1
1070
    44
1040
1.0
1070
    74
1070
     0
1000
MTEXTEND
1000
MTEXTBEGIN
1070
    73
1070
     1
1070
    44
1040
1.0
1070
    74
1070
     0
1000
MTEXTEND
1000
MTEXTBEGIN
1070
    73
1070
     1
1070
    44
1040
1.0
1070
    74
1070
     0
1000
MTEXTEND
1000
MTEXTBEGIN
1070
    73
1070
     1
1070
    44
1040
1.0
1070
    74
1070
     0
1000
MTEXTEND
1000
MTEXTBEGIN
1070
    73
1070
     1
1070
    44
1040
1.0
1070
    74
1070
     0
1000
MTEXTEND
1000
MTEXTBEGIN
1070
    73
1070
     1
1070
    44
1040
1.0
1070
    74
1070
     0
1000
MTEXTEND
  0
TEXT
  5
13F5
330
1F
100
AcDbEntity
  8
SUNPO
100
AcDbText
 10
2376.290169028722
 20
494.4531736811823
 30
0.0
 40
50.0
  1
型式
  7
ADD
100
AcDbText
1001
ACAD
1000
MTEXTBEGIN
1070
    73
1070
     1
1070
    44
1040
1.0
1070
    74
1070
     0
1000
MTEXTEND
1000
MTEXTBEGIN
1070
    73
1070
     1
1070
    44
1040
1.0
1070
    74
1070
     0
1000
MTEXTEND
1000
MTEXTBEGIN
1070
    73
1070
     1
1070
    44
1040
1.0
1070
    74
1070
     0
1000
MTEXTEND
1000
MTEXTBEGIN
1070
    73
1070
     1
1070
    44
1040
1.0
1070
    74
1070
     0
1000
MTEXTEND
1000
MTEXTBEGIN
1070
    73
1070
     1
1070
    44
1040
1.0
1070
    74
1070
     0
1000
MTEXTEND
1000
MTEXTBEGIN
1070
    73
1070
     1
1070
    44
1040
1.0
1070
    74
1070
     0
1000
MTEXTEND
1000
MTEXTBEGIN
1070
    73
1070
     1
1070
    44
1040
1.0
1070
    74
1070
     0
1000
MTEXTEND
1000
MTEXTBEGIN
1070
    73
1070
     1
1070
    44
1040
1.0
1070
    74
1070
     0
1000
MTEXTEND
1000
MTEXTBEGIN
1070
    73
1070
     1
1070
    44
1040
1.0
1070
    74
1070
     0
1000
MTEXTEND
1000
MTEXTBEGIN
1070
    73
1070
     1
1070
    44
1040
1.0
1070
    74
1070
     0
1000
MTEXTEND
1000
MTEXTBEGIN
1070
    73
1070
     1
1070
    44
1040
1.0
1070
    74
1070
     0
1000
MTEXTEND
  0
TEXT
  5
13F6
330
1F
100
AcDbEntity
  8
SUNPO
100
AcDbText
 10
3177.510249231658
 20
488.6918916770627
 30
0.0
 40
50.0
  1
縮尺
  7
ADD
100
AcDbText
1001
ACAD
1000
MTEXTBEGIN
1070
    73
1070
     1
1070
    44
1040
1.0
1070
    74
1070
     0
1000
MTEXTEND
1000
MTEXTBEGIN
1070
    73
1070
     1
1070
    44
1040
1.0
1070
    74
1070
     0
1000
MTEXTEND
1000
MTEXTBEGIN
1070
    73
1070
     1
1070
    44
1040
1.0
1070
    74
1070
     0
1000
MTEXTEND
1000
MTEXTBEGIN
1070
    73
1070
     1
1070
    44
1040
1.0
1070
    74
1070
     0
1000
MTEXTEND
1000
MTEXTBEGIN
1070
    73
1070
     1
1070
    44
1040
1.0
1070
    74
1070
     0
1000
MTEXTEND
1000
MTEXTBEGIN
1070
    73
1070
     1
1070
    44
1040
1.0
1070
    74
1070
     0
1000
MTEXTEND
1000
MTEXTBEGIN
1070
    73
1070
     1
1070
    44
1040
1.0
1070
    74
1070
     0
1000
MTEXTEND
1000
MTEXTBEGIN
1070
    73
1070
     1
1070
    44
1040
1.0
1070
    74
1070
     0
1000
MTEXTEND
1000
MTEXTBEGIN
1070
    73
1070
     1
1070
    44
1040
1.0
1070
    74
1070
     0
1000
MTEXTEND
1000
MTEXTBEGIN
1070
    73
1070
     1
1070
    44
1040
1.0
1070
    74
1070
     0
1000
MTEXTEND
1000
MTEXTBEGIN
1070
    73
1070
     1
1070
    44
1040
1.0
1070
    74
1070
     0
1000
MTEXTEND
  0
TEXT
  5
13F7
330
1F
100
AcDbEntity
  8
SUNPO
100
AcDbText
 10
3730.870883051572
 20
352.2726133092145
 30
0.0
 40
100.0
  1
千葉県コンクリート製品協同組合
  7
ADD
100
AcDbText
1001
ACAD
1000
MTEXTBEGIN
1070
    73
1070
     1
1070
    44
1040
1.0
1070
    74
1070
     0
1000
MTEXTEND
1000
MTEXTBEGIN
1070
    73
1070
     1
1070
    44
1040
1.0
1070
    74
1070
     0
1000
MTEXTEND
1000
MTEXTBEGIN
1070
    73
1070
     1
1070
    44
1040
1.0
1070
    74
1070
     0
1000
MTEXTEND
1000
MTEXTBEGIN
1070
    73
1070
     1
1070
    44
1040
1.0
1070
    74
1070
     0
1000
MTEXTEND
1000
MTEXTBEGIN
1070
    73
1070
     1
1070
    44
1040
1.0
1070
    74
1070
     0
1000
MTEXTEND
1000
MTEXTBEGIN
1070
    73
1070
     1
1070
    44
1040
1.0
1070
    74
1070
     0
1000
MTEXTEND
1000
MTEXTBEGIN
1070
    73
1070
     1
1070
    44
1040
1.0
1070
    74
1070
     0
1000
MTEXTEND
1000
MTEXTBEGIN
1070
    73
1070
     1
1070
    44
1040
1.0
1070
    74
1070
     0
1000
MTEXTEND
1000
MTEXTBEGIN
1070
    73
1070
     1
1070
    44
1040
1.0
1070
    74
1070
     0
1000
MTEXTEND
1000
MTEXTBEGIN
1070
    73
1070
     1
1070
    44
1040
1.0
1070
    74
1070
     0
1000
MTEXTEND
1000
MTEXTBEGIN
1070
    73
1070
     1
1070
    44
1040
1.0
1070
    74
1070
     0
1000
MTEXTEND
  0
LINE
  5
13F8
330
1F
100
AcDbEntity
  8
HOJO
100
AcDbLine
 10
360.0
 20
260.0
 30
0.0
 11
5580.0
 21
260.0
 31
0.0
  0
LINE
  5
13F9
330
1F
100
AcDbEntity
  8
HOJO
100
AcDbLine
 10
5580.0
 20
260.0
 30
0.0
 11
5580.0
 21
3940.0
 31
0.0
  0
LINE
  5
13FA
330
1F
100
AcDbEntity
  8
HOJO
100
AcDbLine
 10
5580.0
 20
3940.0
 30
0.0
 11
360.0
 21
3940.0
 31
0.0
  0
LINE
  5
13FB
330
1F
100
AcDbEntity
  8
HOJO
100
AcDbLine
 10
360.0
 20
3940.0
 30
0.0
 11
360.0
 21
260.0
 31
0.0
  0
LINE
  5
13FC
330
1F
100
AcDbEntity
  8
HOJO
100
AcDbLine
 10
0.0
 20
0.0
 30
0.0
 11
5940.0
 21
0.0
 31
0.0
  0
LINE
  5
13FD
330
1F
100
AcDbEntity
  8
HOJO
100
AcDbLine
 10
5940.0
 20
0.0
 30
0.0
 11
5940.0
 21
4200.0
 31
0.0
  0
LINE
  5
13FE
330
1F
100
AcDbEntity
  8
HOJO
100
AcDbLine
 10
5940.0
 20
4200.0
 30
0.0
 11
0.0
 21
4200.0
 31
0.0
  0
LINE
  5
13FF
330
1F
100
AcDbEntity
  8
HOJO
100
AcDbLine
 10
0.0
 20
4200.0
 30
0.0
 11
0.0
 21
0.0
 31
0.0
  0
TEXT
  5
1400
330
1F
100
AcDbEntity
  8
SUNPO
 62
     7
100
AcDbText
 10
2300.492445529865
 20
2152.611406092286
 30
0.0
 40
40.0
  1
150
 50
90.0
  7
ADD
100
AcDbText
1001
ACAD
1000
MTEXTBEGIN
1070
    73
1070
     1
1070
    44
1040
1.0
1070
    74
1070
     0
1000
MTEXTEND
1000
MTEXTBEGIN
1070
    73
1070
     1
1070
    44
1040
1.0
1070
    74
1070
     0
1000
MTEXTEND
1000
MTEXTBEGIN
1070
    73
1070
     1
1070
    44
1040
1.0
1070
    74
1070
     0
1000
MTEXTEND
  0
TEXT
  5
1401
330
1F
100
AcDbEntity
  8
SUNPO
 62
     7
100
AcDbText
 10
1103.910884220751
 20
2300.468548949429
 30
0.0
 40
40.0
  1
200
 50
90.0
  7
ADD
100
AcDbText
1001
ACAD
1000
MTEXTBEGIN
1070
    73
1070
     1
1070
    44
1040
1.0
1070
    74
1070
     0
1000
MTEXTEND
1000
MTEXTBEGIN
1070
    73
1070
     1
1070
    44
1040
1.0
1070
    74
1070
     0
1000
MTEXTEND
1000
MTEXTBEGIN
1070
    73
1070
     1
1070
    44
1040
1.0
1070
    74
1070
     0
1000
MTEXTEND
  0
TEXT
  5
1402
330
1F
100
AcDbEntity
  8
SUNPO
 62
     7
100
AcDbText
 10
1103.910884220751
 20
2137.611406092287
 30
0.0
 40
40.0
  1
120
 50
90.0
  7
ADD
100
AcDbText
1001
ACAD
1000
MTEXTBEGIN
1070
    73
1070
     1
1070
    44
1040
1.0
1070
    74
1070
     0
1000
MTEXTEND
1000
MTEXTBEGIN
1070
    73
1070
     1
1070
    44
1040
1.0
1070
    74
1070
     0
1000
MTEXTEND
1000
MTEXTBEGIN
1070
    73
1070
     1
1070
    44
1040
1.0
1070
    74
1070
     0
1000
MTEXTEND
  0
TEXT
  5
1403
330
1F
100
AcDbEntity
  8
SUNPO
 62
     7
100
AcDbText
 10
1397.385580240554
 20
2843.227476489093
 30
0.0
 40
40.0
  1
180
  7
ADD
100
AcDbText
1001
ACAD
1000
MTEXTBEGIN
1070
    73
1070
     1
1070
    44
1040
1.0
1070
    74
1070
     0
1000
MTEXTEND
1000
MTEXTBEGIN
1070
    73
1070
     1
1070
    44
1040
1.0
1070
    74
1070
     0
1000
MTEXTEND
1000
MTEXTBEGIN
1070
    73
1070
     1
1070
    44
1040
1.0
1070
    74
1070
     0
1000
MTEXTEND
  0
TEXT
  5
1404
330
1F
100
AcDbEntity
  8
SUNPO
 62
     7
100
AcDbText
 10
1519.290342145316
 20
2841.560809822426
 30
0.0
 40
40.0
  1
20
  7
ADD
100
AcDbText
1001
ACAD
1000
MTEXTBEGIN
1070
    73
1070
     1
1070
    44
1040
1.0
1070
    74
1070
     0
1000
MTEXTEND
1000
MTEXTBEGIN
1070
    73
1070
     1
1070
    44
1040
1.0
1070
    74
1070
     0
1000
MTEXTEND
1000
MTEXTBEGIN
1070
    73
1070
     1
1070
    44
1040
1.0
1070
    74
1070
     0
1000
MTEXTEND
  0
TEXT
  5
1405
330
1F
100
AcDbEntity
  8
SUNPO
 62
     7
100
AcDbText
 10
1760.242723097697
 20
2841.560809822426
 30
0.0
 40
40.0
  1
500
  7
ADD
100
AcDbText
1001
ACAD
1000
MTEXTBEGIN
1070
    73
1070
     1
1070
    44
1040
1.0
1070
    74
1070
     0
1000
MTEXTEND
1000
MTEXTBEGIN
1070
    73
1070
     1
1070
    44
1040
1.0
1070
    74
1070
     0
1000
MTEXTEND
1000
MTEXTBEGIN
1070
    73
1070
     1
1070
    44
1040
1.0
1070
    74
1070
     0
1000
MTEXTEND
  0
TEXT
  5
1406
330
1F
100
AcDbEntity
  8
SUNPO
 62
     7
100
AcDbText
 10
931.2860514980616
 20
2240.468548949429
 30
0.0
 40
40.0
  1
320
 50
90.0
  7
ADD
100
AcDbText
1001
ACAD
1000
MTEXTBEGIN
1070
    73
1070
     1
1070
    44
1040
1.0
1070
    74
1070
     0
1000
MTEXTEND
1000
MTEXTBEGIN
1070
    73
1070
     1
1070
    44
1040
1.0
1070
    74
1070
     0
1000
MTEXTEND
1000
MTEXTBEGIN
1070
    73
1070
     1
1070
    44
1040
1.0
1070
    74
1070
     0
1000
MTEXTEND
  0
TEXT
  5
1407
330
1F
100
AcDbEntity
  8
SUNPO
 62
     7
100
AcDbText
 10
1563.988673149897
 20
2489.652574214507
 30
0.0
 40
40.0
  1
R30
 50
45.33062209707335
  7
ADD
100
AcDbText
1001
ACAD
1000
MTEXTBEGIN
1070
    73
1070
     1
1070
    44
1040
1.0
1070
    74
1070
     0
1000
MTEXTEND
1000
MTEXTBEGIN
1070
    73
1070
     1
1070
    44
1040
1.0
1070
    74
1070
     0
1000
MTEXTEND
1000
MTEXTBEGIN
1070
    73
1070
     1
1070
    44
1040
1.0
1070
    74
1070
     0
1000
MTEXTEND
  0
TEXT
  5
1408
330
1F
100
AcDbEntity
  8
SUNPO
 62
     7
100
AcDbText
 10
1458.13977660362
 20
2146.635644830236
 30
0.0
 40
40.0
  1
R20
 50
49.98107151240137
  7
ADD
100
AcDbText
1001
ACAD
1000
MTEXTBEGIN
1070
    73
1070
     1
1070
    44
1040
1.0
1070
    74
1070
     0
1000
MTEXTEND
1000
MTEXTBEGIN
1070
    73
1070
     1
1070
    44
1040
1.0
1070
    74
1070
     0
1000
MTEXTEND
1000
MTEXTBEGIN
1070
    73
1070
     1
1070
    44
1040
1.0
1070
    74
1070
     0
1000
MTEXTEND
  0
TEXT
  5
1409
330
1F
100
AcDbEntity
  8
SUNPO
 62
     7
100
AcDbText
 10
1660.242723097697
 20
1931.790341667483
 30
0.0
 40
40.0
  1
700
  7
ADD
100
AcDbText
1001
ACAD
1000
MTEXTBEGIN
1070
    73
1070
     1
1070
    44
1040
1.0
1070
    74
1070
     0
1000
MTEXTEND
  0
TEXT
  5
140A
330
1F
100
AcDbEntity
  8
SUNPO
 62
     7
100
AcDbText
 10
3845.015674677987
 20
1931.790341667483
 30
0.0
 40
40.0
  1
2000
  7
ADD
100
AcDbText
1001
ACAD
1000
MTEXTBEGIN
1070
    73
1070
     1
1070
    44
1040
1.0
1070
    74
1070
     0
1000
MTEXTEND
  0
VIEWPORT
  5
72
330
1B
100
AcDbEntity
 67
     1
  8
0
100
AcDbViewport
 10
429.8380103383459
 20
277.0
 30
0.0
 40
948.9782706766918
 41
628.4520000000001
 68
     1
 69
     1
1001
ACAD
1000
MVIEW
1002
{
1070
    16
1010
0.0
1020
0.0
1030
0.0
1010
0.0
1020
0.0
1030
1.0
1040
0.0
1040
628.4520000000001
1040
429.8380103383459
1040
277.0
1040
50.0
1040
0.0
1040
0.0
1070
     0
1070
   100
1070
     1
1070
     1
1070
     0
1070
     0
1070
     0
1070
     0
1040
0.0
1040
0.0
1040
0.0
1040
10.0
1040
10.0
1040
10.0
1040
10.0
1070
     0
1002
{
1002
}
1002
}
  0
VIEWPORT
  5
74
330
1B
100
AcDbEntity
 67
     1
  8
VIEWPORT
100
AcDbViewport
 10
414.3779638919211
 20
277.3177265058034
 30
0.0
 40
840.0353682728887
 41
567.2285469943826
 68
     2
 69
     2
1001
ACAD
1000
MVIEW
1002
{
1070
    16
1010
0.0
1020
0.0
1030
0.0
1010
0.0
1020
0.0
1030
1.0
1040
0.0
1040
579.5583043546323
1040
424.4938908624541
1040
286.1973242720074
1040
50.0
1040
0.0
1040
0.0
1070
     0
1070
   100
1070
     1
1070
     1
1070
     0
1070
     0
1070
     0
1070
     0
1040
0.0
1040
0.0
1040
0.0
1040
10.0
1040
10.0
1040
10.0
1040
10.0
1070
     0
1002
{
1002
}
1002
}
  0
ENDSEC
  0
SECTION
  2
OBJECTS
  0
DICTIONARY
  5
C
330
0
100
AcDbDictionary
  3
ACAD_GROUP
350
D
  3
ACAD_LAYOUT
350
1A
  3
ACAD_MLINESTYLE
350
17
  3
ACAD_PLOTSETTINGS
350
19
  3
DWGPROPS
350
4C7
1001
ACAD
1000
TREAT_AS_HARD
1070
     0
  0
DICTIONARY
  5
65D
330
1F
100
AcDbDictionary
  3
ACAD_LAYOUTSELFREF
350
140D
1001
ACAD
1000
TREAT_AS_HARD
1070
     1
  0
DICTIONARY
  5
65F
330
1B
100
AcDbDictionary
  3
ACAD_LAYOUTSELFREF
350
140C
1001
ACAD
1000
TREAT_AS_HARD
1070
     1
  0
DICTIONARY
  5
D
102
{ACAD_REACTORS
330
C
102
}
330
C
100
AcDbDictionary
1001
ACAD
1000
TREAT_AS_HARD
1070
     0
  0
DICTIONARY
  5
1A
102
{ACAD_REACTORS
330
C
102
}
330
C
100
AcDbDictionary
1001
ACAD
1000
TREAT_AS_HARD
1070
     0
  0
DICTIONARY
  5
17
102
{ACAD_REACTORS
330
C
102
}
330
C
100
AcDbDictionary
  3
STANDARD
350
18
1001
ACAD
1000
TREAT_AS_HARD
1070
     0
  0
DICTIONARY
  5
19
102
{ACAD_REACTORS
330
C
102
}
330
C
100
AcDbDictionary
1001
ACAD
1000
TREAT_AS_HARD
1070
     0
  0
XRECORD
  5
4C7
102
{ACAD_REACTORS
330
C
102
}
330
C
100
AcDbXrecord
  1
DWGPROPS COOKIE
  2
印刷用テスト
  3
AutoCAD2000による建築設計
  4
鈴木 裕二
  6

  7

  8
U2
  9

300
=
301
=
302
=
303
=
304
=
305
=
306
=
307
=
308
=
309
=
 40
0.7653446875
 41
2451285.4846114
 42
2451333.689743032
  1

 90
        0
  0
XRECORD
  5
140D
102
{ACAD_REACTORS
330
65D
102
}
330
65D
100
AcDbXrecord
340
1F
  0
XRECORD
  5
140C
102
{ACAD_REACTORS
330
65F
102
}
330
65F
100
AcDbXrecord
340
1B
  0
MLINESTYLE
  5
18
102
{ACAD_REACTORS
330
17
102
}
330
17
100
AcDbMlineStyle
  2
STANDARD
 70
     0
  3

 62
   256
 51
90.0
 52
90.0
 71
     2
 49
0.5
 62
   256
  6
BYLAYER
 49
-0.5
 62
   256
  6
BYLAYER
  0
ENDSEC
  0
EOF
