  0
SECTION
  2
HEADER
  9
$ACADVER
  1
AC1012
  9
$DWGCODEPAGE
  3
dos932
  9
$INSBASE
 10
0.0
 20
0.0
 30
0.0
  9
$EXTMIN
 10
0.0
 20
0.0
 30
0.0
  9
$EXTMAX
 10
5940.0
 20
4200.0
 30
0.0
  9
$LIMMIN
 10
0.0
 20
0.0
  9
$LIMMAX
 10
5940.0
 20
4200.0
  9
$ORTHOMODE
 70
     0
  9
$REGENMODE
 70
     1
  9
$FILLMODE
 70
     1
  9
$QTEXTMODE
 70
     0
  9
$MIRRTEXT
 70
     0
  9
$DRAGMODE
 70
     2
  9
$LTSCALE
 40
10.0
  9
$OSMODE
 70
    39
  9
$ATTMODE
 70
     1
  9
$TEXTSIZE
 40
50.0
  9
$TRACEWID
 40
1.0
  9
$TEXTSTYLE
  7
ADD
  9
$CLAYER
  8
SUNPO
  9
$CELTYPE
  6
BYLAYER
  9
$CECOLOR
 62
   256
  9
$CELTSCALE
 40
1.0
  9
$DELOBJ
 70
     1
  9
$DISPSILH
 70
     0
  9
$DIMSCALE
 40
20.0
  9
$DIMASZ
 40
1.0
  9
$DIMEXO
 40
1.0
  9
$DIMDLI
 40
7.0
  9
$DIMRND
 40
0.0
  9
$DIMDLE
 40
0.0
  9
$DIMEXE
 40
0.5
  9
$DIMTP
 40
0.0
  9
$DIMTM
 40
0.0
  9
$DIMTXT
 40
2.0
  9
$DIMCEN
 40
1.0
  9
$DIMTSZ
 40
0.0
  9
$DIMTOL
 70
     0
  9
$DIMLIM
 70
     0
  9
$DIMTIH
 70
     0
  9
$DIMTOH
 70
     0
  9
$DIMSE1
 70
     0
  9
$DIMSE2
 70
     0
  9
$DIMTAD
 70
     1
  9
$DIMZIN
 70
     8
  9
$DIMBLK
  1

  9
$DIMASO
 70
     1
  9
$DIMSHO
 70
     1
  9
$DIMPOST
  1

  9
$DIMAPOST
  1

  9
$DIMALT
 70
     0
  9
$DIMALTD
 70
     3
  9
$DIMALTF
 40
0.03937007874016
  9
$DIMLFAC
 40
1.0
  9
$DIMTOFL
 70
     1
  9
$DIMTVP
 40
0.7
  9
$DIMTIX
 70
     1
  9
$DIMSOXD
 70
     0
  9
$DIMSAH
 70
     0
  9
$DIMBLK1
  1

  9
$DIMBLK2
  1

  9
$DIMSTYLE
  2
ADD
  9
$DIMCLRD
 70
   144
  9
$DIMCLRE
 70
   144
  9
$DIMCLRT
 70
     7
  9
$DIMTFAC
 40
1.0
  9
$DIMGAP
 40
0.625
  9
$DIMJUST
 70
     0
  9
$DIMSD1
 70
     0
  9
$DIMSD2
 70
     0
  9
$DIMTOLJ
 70
     2
  9
$DIMTZIN
 70
     8
  9
$DIMALTZ
 70
     0
  9
$DIMALTTZ
 70
     0
  9
$DIMFIT
 70
     5
  9
$DIMUPT
 70
     0
  9
$DIMUNIT
 70
     2
  9
$DIMDEC
 70
     1
  9
$DIMTDEC
 70
     1
  9
$DIMALTU
 70
     2
  9
$DIMALTTD
 70
     3
  9
$DIMTXSTY
  7
ADD
  9
$DIMAUNIT
 70
     0
  9
$LUNITS
 70
     2
  9
$LUPREC
 70
     4
  9
$SKETCHINC
 40
1.0
  9
$FILLETRAD
 40
20.0
  9
$AUNITS
 70
     0
  9
$AUPREC
 70
     1
  9
$MENU
  1
.
  9
$ELEVATION
 40
0.0
  9
$PELEVATION
 40
0.0
  9
$THICKNESS
 40
0.0
  9
$LIMCHECK
 70
     0
  9
$BLIPMODE
 70
     0
  9
$CHAMFERA
 40
10.0
  9
$CHAMFERB
 40
10.0
  9
$CHAMFERC
 40
20.0
  9
$CHAMFERD
 40
0.0
  9
$SKPOLY
 70
     0
  9
$TDCREATE
 40
2451801.142532870
  9
$TDUPDATE
 40
2452179.686446041
  9
$TDINDWG
 40
0.1770530208
  9
$TDUSRTIMER
 40
0.1770530208
  9
$USRTIMER
 70
     1
  9
$ANGBASE
 50
0.0
  9
$ANGDIR
 70
     0
  9
$PDMODE
 70
     0
  9
$PDSIZE
 40
0.0
  9
$PLINEWID
 40
0.0
  9
$COORDS
 70
     1
  9
$SPLFRAME
 70
     0
  9
$SPLINETYPE
 70
     6
  9
$SPLINESEGS
 70
     8
  9
$ATTDIA
 70
     0
  9
$ATTREQ
 70
     1
  9
$HANDLING
 70
-16383
  9
$HANDSEED
  5
151D
  9
$SURFTAB1
 70
     6
  9
$SURFTAB2
 70
     6
  9
$SURFTYPE
 70
     6
  9
$SURFU
 70
     6
  9
$SURFV
 70
     6
  9
$UCSNAME
  2

  9
$UCSORG
 10
0.0
 20
0.0
 30
0.0
  9
$UCSXDIR
 10
1.0
 20
0.0
 30
0.0
  9
$UCSYDIR
 10
0.0
 20
1.0
 30
0.0
  9
$PUCSNAME
  2

  9
$PUCSORG
 10
0.0
 20
0.0
 30
0.0
  9
$PUCSXDIR
 10
1.0
 20
0.0
 30
0.0
  9
$PUCSYDIR
 10
0.0
 20
1.0
 30
0.0
  9
$USERI1
 70
     0
  9
$USERI2
 70
     0
  9
$USERI3
 70
     0
  9
$USERI4
 70
     0
  9
$USERI5
 70
     0
  9
$USERR1
 40
841.0
  9
$USERR2
 40
594.0
  9
$USERR3
 40
1.0
  9
$USERR4
 40
0.0
  9
$USERR5
 40
0.0
  9
$WORLDVIEW
 70
     1
  9
$SHADEDGE
 70
     3
  9
$SHADEDIF
 70
    70
  9
$TILEMODE
 70
     1
  9
$MAXACTVP
 70
    48
  9
$PINSBASE
 10
0.0
 20
0.0
 30
0.0
  9
$PLIMCHECK
 70
     0
  9
$PEXTMIN
 10
-5.662975978526674
 20
-6.331907780761866
 30
-0.0015258207003583
  9
$PEXTMAX
 10
834.4213426047982
 20
560.9663709967471
 30
0.0000000349246037
  9
$PLIMMIN
 10
-7.500000000000001
 20
-20.0
  9
$PLIMMAX
 10
833.5000000000002
 20
574.0000000000001
  9
$UNITMODE
 70
     0
  9
$VISRETAIN
 70
     1
  9
$PLINEGEN
 70
     0
  9
$PSLTSCALE
 70
     1
  9
$TREEDEPTH
 70
  3020
  9
$PICKSTYLE
 70
     1
  9
$CMLSTYLE
  2
STANDARD
  9
$CMLJUST
 70
     0
  9
$CMLSCALE
 40
20.0
  9
$SAVEIMAGES
 70
     1
  0
ENDSEC
  0
SECTION
  2
CLASSES
  0
CLASS
  1
ACDBDICTIONARYWDFLT
  2
AcDbDictionaryWithDefault
  3
AutoCAD 2000
 90
    32768
280
     0
281
     0
  0
CLASS
  1
ACDBPLACEHOLDER
  2
AcDbPlaceHolder
  3
AutoCAD 2000
 90
    32768
280
     0
281
     0
  0
CLASS
  1
LAYOUT
  2
AcDbLayout
  3
AutoCAD 2000
 90
    32768
280
     0
281
     0
  0
CLASS
  1
RTEXT
  2
RText
  3
RText|AutoCAD Express Tool|expresstools@autodesk.com
 90
    32768
280
     0
281
     1
  0
CLASS
  1
DICTIONARYVAR
  2
AcDbDictionaryVar
  3
AutoCAD 2000
 90
    32768
280
     0
281
     0
  0
CLASS
  1
LONG_TRANSACTION
  2
AcDbLongTransaction
  3
AutoCAD 2000
 90
    32768
280
     0
281
     0
  0
CLASS
  1
LWPOLYLINE
  2
AcDbPolyline
  3
AutoCAD 2000
 90
    32768
280
     0
281
     1
  0
CLASS
  1
HATCH
  2
AcDbHatch
  3
AutoCAD 2000
 90
    32768
280
     0
281
     1
  0
CLASS
  1
XRECORD
  2
AcDbXrecord
  3
AutoCAD 2000
 90
    32768
280
     0
281
     0
  0
CLASS
  1
LONG_TRANSACTION
  2
AcDbLongTransaction
  3
AutoCAD 2000
 90
    32768
280
     0
281
     0
  0
CLASS
  1
LWPOLYLINE
  2
AcDbPolyline
  3
AutoCAD 2000
 90
    32768
280
     0
281
     1
  0
CLASS
  1
HATCH
  2
AcDbHatch
  3
AutoCAD 2000
 90
    32768
280
     0
281
     1
  0
CLASS
  1
XRECORD
  2
AcDbXrecord
  3
AutoCAD 2000
 90
    32768
280
     0
281
     0
  0
CLASS
  1
LONG_TRANSACTION
  2
AcDbLongTransaction
  3
AutoCAD 2000
 90
    32768
280
     0
281
     0
  0
CLASS
  1
LWPOLYLINE
  2
AcDbPolyline
  3
AutoCAD 2000
 90
    32768
280
     0
281
     1
  0
CLASS
  1
HATCH
  2
AcDbHatch
  3
AutoCAD 2000
 90
    32768
280
     0
281
     1
  0
CLASS
  1
XRECORD
  2
AcDbXrecord
  3
AutoCAD 2000
 90
    32768
280
     0
281
     0
  0
CLASS
  1
LONG_TRANSACTION
  2
AcDbLongTransaction
  3
AutoCAD 2000
 90
    32768
280
     0
281
     0
  0
CLASS
  1
LWPOLYLINE
  2
AcDbPolyline
  3
AutoCAD 2000
 90
    32768
280
     0
281
     1
  0
CLASS
  1
HATCH
  2
AcDbHatch
  3
AutoCAD 2000
 90
    32768
280
     0
281
     1
  0
CLASS
  1
XRECORD
  2
AcDbXrecord
  3
AutoCAD 2000
 90
    32768
280
     0
281
     0
  0
CLASS
  1
LONG_TRANSACTION
  2
AcDbLongTransaction
  3
AutoCAD 2000
 90
    32768
280
     0
281
     0
  0
CLASS
  1
LWPOLYLINE
  2
AcDbPolyline
  3
AutoCAD 2000
 90
    32768
280
     0
281
     1
  0
CLASS
  1
HATCH
  2
AcDbHatch
  3
AutoCAD 2000
 90
    32768
280
     0
281
     1
  0
CLASS
  1
XRECORD
  2
AcDbXrecord
  3
AutoCAD 2000
 90
    32768
280
     0
281
     0
  0
CLASS
  1
LONG_TRANSACTION
  2
AcDbLongTransaction
  3
AutoCAD 2000
 90
    32768
280
     0
281
     0
  0
CLASS
  1
LWPOLYLINE
  2
AcDbPolyline
  3
AutoCAD 2000
 90
    32768
280
     0
281
     1
  0
CLASS
  1
HATCH
  2
AcDbHatch
  3
AutoCAD 2000
 90
    32768
280
     0
281
     1
  0
CLASS
  1
XRECORD
  2
AcDbXrecord
  3
AutoCAD 2000
 90
    32768
280
     0
281
     0
  0
CLASS
  1
LONG_TRANSACTION
  2
AcDbLongTransaction
  3
AutoCAD 2000
 90
    32768
280
     0
281
     0
  0
CLASS
  1
LWPOLYLINE
  2
AcDbPolyline
  3
AutoCAD 2000
 90
    32768
280
     0
281
     1
  0
CLASS
  1
HATCH
  2
AcDbHatch
  3
AutoCAD 2000
 90
    32768
280
     0
281
     1
  0
CLASS
  1
XRECORD
  2
AcDbXrecord
  3
AutoCAD 2000
 90
    32768
280
     0
281
     0
  0
CLASS
  1
LONG_TRANSACTION
  2
AcDbLongTransaction
  3
AutoCAD 2000
 90
    32768
280
     0
281
     0
  0
CLASS
  1
LWPOLYLINE
  2
AcDbPolyline
  3
AutoCAD 2000
 90
    32768
280
     0
281
     1
  0
CLASS
  1
HATCH
  2
AcDbHatch
  3
AutoCAD 2000
 90
    32768
280
     0
281
     1
  0
CLASS
  1
XRECORD
  2
AcDbXrecord
  3
AutoCAD 2000
 90
    32768
280
     0
281
     0
  0
CLASS
  1
LONG_TRANSACTION
  2
AcDbLongTransaction
  3
AutoCAD 2000
 90
    32768
280
     0
281
     0
  0
CLASS
  1
LWPOLYLINE
  2
AcDbPolyline
  3
AutoCAD 2000
 90
    32768
280
     0
281
     1
  0
CLASS
  1
HATCH
  2
AcDbHatch
  3
AutoCAD 2000
 90
    32768
280
     0
281
     1
  0
CLASS
  1
XRECORD
  2
AcDbXrecord
  3
AutoCAD 2000
 90
    32768
280
     0
281
     0
  0
CLASS
  1
LONG_TRANSACTION
  2
AcDbLongTransaction
  3
AutoCAD 2000
 90
    32768
280
     0
281
     0
  0
CLASS
  1
LWPOLYLINE
  2
AcDbPolyline
  3
AutoCAD 2000
 90
    32768
280
     0
281
     1
  0
CLASS
  1
HATCH
  2
AcDbHatch
  3
AutoCAD 2000
 90
    32768
280
     0
281
     1
  0
CLASS
  1
XRECORD
  2
AcDbXrecord
  3
AutoCAD 2000
 90
    32768
280
     0
281
     0
  0
CLASS
  1
LONG_TRANSACTION
  2
AcDbLongTransaction
  3
AutoCAD 2000
 90
    32768
280
     0
281
     0
  0
CLASS
  1
LWPOLYLINE
  2
AcDbPolyline
  3
AutoCAD 2000
 90
    32768
280
     0
281
     1
  0
CLASS
  1
HATCH
  2
AcDbHatch
  3
AutoCAD 2000
 90
    32768
280
     0
281
     1
  0
CLASS
  1
XRECORD
  2
AcDbXrecord
  3
AutoCAD 2000
 90
    32768
280
     0
281
     0
  0
ENDSEC
  0
SECTION
  2
TABLES
  0
TABLE
  2
VPORT
  5
8
330
0
100
AcDbSymbolTable
 70
     2
  0
VPORT
  5
150D
330
8
100
AcDbSymbolTableRecord
100
AcDbViewportTableRecord
  2
*ACTIVE
 70
     0
 10
0.0
 20
0.0
 11
1.0
 21
1.0
 12
2969.773455393134
 22
2099.839816944641
 13
0.0
 23
0.0
 14
10.0
 24
10.0
 15
10.0
 25
10.0
 16
0.0
 26
0.0
 36
1.0
 17
0.0
 27
0.0
 37
0.0
 40
4232.923150937878
 41
1.560880829015544
 42
50.0
 43
0.0
 44
0.0
 50
0.0
 51
0.0
 71
     0
 72
   100
 73
     1
 74
     1
 75
     0
 76
     0
 77
     0
 78
     0
  0
ENDTAB
  0
TABLE
  2
LTYPE
  5
5
330
0
100
AcDbSymbolTable
 70
     5
  0
LTYPE
  5
14
330
5
100
AcDbSymbolTableRecord
100
AcDbLinetypeTableRecord
  2
BYBLOCK
 70
     0
  3

 72
    65
 73
     0
 40
0.0
  0
LTYPE
  5
15
330
5
100
AcDbSymbolTableRecord
100
AcDbLinetypeTableRecord
  2
BYLAYER
 70
     0
  3

 72
    65
 73
     0
 40
0.0
  0
LTYPE
  5
16
330
5
100
AcDbSymbolTableRecord
100
AcDbLinetypeTableRecord
  2
CONTINUOUS
 70
     0
  3
Solid line
 72
    65
 73
     0
 40
0.0
  0
LTYPE
  5
555
330
5
100
AcDbSymbolTableRecord
100
AcDbLinetypeTableRecord
  2
CENTER
 70
     0
  3
Center ____ _ ____ _ ____ _ ____ _ ____ _ ____
 72
    65
 73
     4
 40
50.8
 49
31.75
 74
     0
 49
-6.349999999999999
 74
     0
 49
6.349999999999999
 74
     0
 49
-6.349999999999999
 74
     0
  0
LTYPE
  5
556
330
5
100
AcDbSymbolTableRecord
100
AcDbLinetypeTableRecord
  2
HIDDEN
 70
     0
  3
Hidden __ __ __ __ __ __ __ __ __ __ __ __ __ _
 72
    65
 73
     2
 40
9.524999999999998
 49
6.349999999999999
 74
     0
 49
-3.174999999999999
 74
     0
  0
LTYPE
  5
557
330
5
100
AcDbSymbolTableRecord
100
AcDbLinetypeTableRecord
  2
HIDDEN2
 70
     0
  3
Hidden (.5x) _ _ _ _ _ _ _ _ _ _ _ _ _ _ _ _ _
 72
    65
 73
     2
 40
4.762499999999999
 49
3.174999999999999
 74
     0
 49
-1.587499999999999
 74
     0
  0
LTYPE
  5
558
330
5
100
AcDbSymbolTableRecord
100
AcDbLinetypeTableRecord
  2
PHANTOM
 70
     0
  3
Phantom ______  __  __  ______  __  __  ______
 72
    65
 73
     6
 40
63.5
 49
31.75
 74
     0
 49
-6.349999999999999
 74
     0
 49
6.349999999999999
 74
     0
 49
-6.349999999999999
 74
     0
 49
6.349999999999999
 74
     0
 49
-6.349999999999999
 74
     0
  0
ENDTAB
  0
TABLE
  2
LAYER
  5
2
330
0
100
AcDbSymbolTable
 70
    22
  0
LAYER
  5
10
330
2
100
AcDbSymbolTableRecord
100
AcDbLayerTableRecord
  2
0
 70
     0
 62
     7
  6
CONTINUOUS
  0
LAYER
  5
75
330
2
100
AcDbSymbolTableRecord
100
AcDbLayerTableRecord
  2
VIEWPORT
 70
     0
 62
     1
  6
CONTINUOUS
  0
LAYER
  5
504
330
2
100
AcDbSymbolTableRecord
100
AcDbLayerTableRecord
  2
DEFPOINTS
 70
     4
 62
     6
  6
CONTINUOUS
  0
LAYER
  5
505
330
2
100
AcDbSymbolTableRecord
100
AcDbLayerTableRecord
  2
1C1
 70
     0
 62
   254
  6
CONTINUOUS
  0
LAYER
  5
506
330
2
100
AcDbSymbolTableRecord
100
AcDbLayerTableRecord
  2
1C2
 70
     0
 62
   254
  6
CONTINUOUS
  0
LAYER
  5
507
330
2
100
AcDbSymbolTableRecord
100
AcDbLayerTableRecord
  2
2C1
 70
     0
 62
   144
  6
CONTINUOUS
  0
LAYER
  5
508
330
2
100
AcDbSymbolTableRecord
100
AcDbLayerTableRecord
  2
2C2
 70
     0
 62
   144
  6
CONTINUOUS
  0
LAYER
  5
509
330
2
100
AcDbSymbolTableRecord
100
AcDbLayerTableRecord
  2
2H1
 70
     0
 62
   144
  6
HIDDEN
  0
LAYER
  5
50A
330
2
100
AcDbSymbolTableRecord
100
AcDbLayerTableRecord
  2
2H2
 70
     0
 62
   144
  6
HIDDEN2
  0
LAYER
  5
50B
330
2
100
AcDbSymbolTableRecord
100
AcDbLayerTableRecord
  2
2P1
 70
     0
 62
   144
  6
PHANTOM
  0
LAYER
  5
50C
330
2
100
AcDbSymbolTableRecord
100
AcDbLayerTableRecord
  2
3C1
 70
     0
 62
     7
  6
CONTINUOUS
  0
LAYER
  5
50D
330
2
100
AcDbSymbolTableRecord
100
AcDbLayerTableRecord
  2
3C2
 70
     0
 62
     7
  6
CONTINUOUS
  0
LAYER
  5
50E
330
2
100
AcDbSymbolTableRecord
100
AcDbLayerTableRecord
  2
3C3
 70
     0
 62
     7
  6
CONTINUOUS
  0
LAYER
  5
50F
330
2
100
AcDbSymbolTableRecord
100
AcDbLayerTableRecord
  2
4H1
 70
     0
 62
     6
  6
HIDDEN
  0
LAYER
  5
510
330
2
100
AcDbSymbolTableRecord
100
AcDbLayerTableRecord
  2
4H2
 70
     0
 62
     6
  6
HIDDEN2
  0
LAYER
  5
511
330
2
100
AcDbSymbolTableRecord
100
AcDbLayerTableRecord
  2
5C1
 70
     0
 62
    55
  6
CONTINUOUS
  0
LAYER
  5
512
330
2
100
AcDbSymbolTableRecord
100
AcDbLayerTableRecord
  2
5C2
 70
     0
 62
    55
  6
CONTINUOUS
  0
LAYER
  5
513
330
2
100
AcDbSymbolTableRecord
100
AcDbLayerTableRecord
  2
8C1
 70
     0
 62
    92
  6
CONTINUOUS
  0
LAYER
  5
514
330
2
100
AcDbSymbolTableRecord
100
AcDbLayerTableRecord
  2
HOJO
 70
     0
 62
     5
  6
CONTINUOUS
  0
LAYER
  5
515
330
2
100
AcDbSymbolTableRecord
100
AcDbLayerTableRecord
  2
KIJUN
 70
     0
 62
     1
  6
CENTER
  0
LAYER
  5
516
330
2
100
AcDbSymbolTableRecord
100
AcDbLayerTableRecord
  2
MOJI
 70
     0
 62
     7
  6
CONTINUOUS
  0
LAYER
  5
517
330
2
100
AcDbSymbolTableRecord
100
AcDbLayerTableRecord
  2
SUNPO
 70
     0
 62
   144
  6
CONTINUOUS
  0
ENDTAB
  0
TABLE
  2
STYLE
  5
3
330
0
100
AcDbSymbolTable
 70
     6
  0
STYLE
  5
11
330
3
100
AcDbSymbolTableRecord
100
AcDbTextStyleTableRecord
  2
STANDARD
 70
     0
 40
0.0
 41
1.0
 50
0.0
 71
     0
 42
2.5
  3
txt
  4

  0
STYLE
  5
2C
330
3
100
AcDbSymbolTableRecord
100
AcDbTextStyleTableRecord
  2

 70
     1
 40
0.0
 41
1.0
 50
0.0
 71
     0
 42
2.5
  3
ltypeshp.shx
  4

  0
STYLE
  5
18E
330
3
100
AcDbSymbolTableRecord
100
AcDbTextStyleTableRecord
  2
ADD
 70
     0
 40
0.0
 41
1.0
 50
0.0
 71
     0
 42
50.0
  3
romans.shx
  4
bigfont.shx
  0
STYLE
  5
191
330
3
100
AcDbSymbolTableRecord
100
AcDbTextStyleTableRecord
  2
MSG
 70
     0
 40
0.0
 41
1.0
 50
0.0
 71
     0
 42
2.5
  3
MS Gothic.ttf
  4

1001
ACAD
1000
MS Gothic
1071
    32817
  0
STYLE
  5
5C8
330
3
100
AcDbSymbolTableRecord
100
AcDbTextStyleTableRecord
  2
STANDARD15
 70
     0
 40
0.0
 41
1.0
 50
15.0
 71
     0
 42
2.5
  3
ROMANS
  4
bigfont
  0
STYLE
  5
5C9
330
3
100
AcDbSymbolTableRecord
100
AcDbTextStyleTableRecord
  2
ROMANS15
 70
     0
 40
0.0
 41
1.0
 50
15.0
 71
     0
 42
2.5
  3
romans
  4

  0
ENDTAB
  0
TABLE
  2
VIEW
  5
6
330
0
100
AcDbSymbolTable
 70
     1
  0
VIEW
  5
54D
330
6
100
AcDbSymbolTableRecord
100
AcDbViewTableRecord
  2
ALL
 70
     0
 40
594.0
 10
420.5
 20
297.0
 41
865.125
 11
0.0
 21
0.0
 31
1.0
 12
0.0
 22
0.0
 32
0.0
 42
50.0
 43
0.0
 44
0.0
 50
0.0
 71
     0
  0
ENDTAB
  0
TABLE
  2
UCS
  5
7
330
0
100
AcDbSymbolTable
 70
     0
  0
ENDTAB
  0
TABLE
  2
APPID
  5
9
330
0
100
AcDbSymbolTable
 70
     4
  0
APPID
  5
12
330
9
100
AcDbSymbolTableRecord
100
AcDbRegAppTableRecord
  2
ACAD
 70
     0
  0
APPID
  5
5CB
330
9
100
AcDbSymbolTableRecord
100
AcDbRegAppTableRecord
  2
ARAIGUMI_YOHEKI
 70
     0
  0
APPID
  5
5CC
330
9
100
AcDbSymbolTableRecord
100
AcDbRegAppTableRecord
  2
CONTENTTABDATA
 70
     0
  0
APPID
  5
5CD
330
9
100
AcDbSymbolTableRecord
100
AcDbRegAppTableRecord
  2
CONTENTCURRENTTAB
 70
     0
  0
ENDTAB
  0
TABLE
  2
DIMSTYLE
  5
A
330
0
100
AcDbSymbolTable
 70
    10
  0
DIMSTYLE
105
27
330
A
100
AcDbSymbolTableRecord
100
AcDbDimStyleTableRecord
  2
ISO-25
 70
     0
  3

  4

  5

  6

  7

 40
1.0
 41
2.5
 42
0.625
 43
3.75
 44
1.25
 45
0.0
 46
0.0
 47
0.0
 48
0.0
140
2.5
141
2.5
142
0.0
143
0.03937007874016
144
1.0
145
0.0
146
1.0
147
0.625
 71
     0
 72
     0
 73
     0
 74
     0
 75
     0
 76
     0
 77
     1
 78
     8
170
     0
171
     3
172
     1
173
     0
174
     0
175
     0
176
     0
177
     0
178
     0
270
     2
271
     2
272
     2
273
     2
274
     3
340
11
275
     0
280
     0
281
     0
282
     0
283
     0
284
     8
285
     0
286
     0
287
     3
288
     0
  0
DIMSTYLE
105
197
330
A
100
AcDbSymbolTableRecord
100
AcDbDimStyleTableRecord
  2
ADD
 70
     0
  3

  4

  5

  6

  7

 40
1.0
 41
2.5
 42
1.0
 43
7.0
 44
0.5
 45
0.0
 46
0.0
 47
0.0
 48
0.0
140
2.5
141
2.5
142
0.0
143
0.03937007874016
144
1.0
145
0.7
146
1.0
147
0.625
 71
     0
 72
     0
 73
     0
 74
     0
 75
     0
 76
     0
 77
     1
 78
     8
170
     0
171
     3
172
     1
173
     0
174
     1
175
     0
176
   144
177
   144
178
     7
270
     2
271
     1
272
     1
273
     2
274
     3
340
18E
275
     0
280
     0
281
     0
282
     0
283
     2
284
     8
285
     0
286
     0
287
     5
288
     0
  0
DIMSTYLE
105
3E6
330
A
100
AcDbSymbolTableRecord
100
AcDbDimStyleTableRecord
  2
ADD$2
 70
     0
  3

  4

  5

  6

  7

 40
1.0
 41
2.5
 42
1.0
 43
7.0
 44
0.5
 45
0.0
 46
0.0
 47
0.0
 48
0.0
140
2.5
141
2.5
142
0.0
143
0.03937007874016
144
1.0
145
0.7
146
1.0
147
0.625
 71
     0
 72
     0
 73
     0
 74
     0
 75
     0
 76
     0
 77
     1
 78
     8
170
     0
171
     3
172
     1
173
     0
174
     1
175
     0
176
   144
177
   144
178
     7
270
     2
271
     1
272
     1
273
     2
274
     3
340
18E
275
     0
280
     0
281
     0
282
     0
283
     2
284
     8
285
     0
286
     0
287
     5
288
     0
  0
DIMSTYLE
105
3E7
330
A
100
AcDbSymbolTableRecord
100
AcDbDimStyleTableRecord
  2
ADD$4
 70
     0
  3

  4

  5

  6

  7

 40
1.0
 41
2.5
 42
1.0
 43
7.0
 44
0.5
 45
0.0
 46
0.0
 47
0.0
 48
0.0
140
2.5
141
2.5
142
0.0
143
0.03937007874016
144
1.0
145
0.0
146
1.0
147
0.625
 71
     0
 72
     0
 73
     0
 74
     0
 75
     0
 76
     0
 77
     1
 78
     8
170
     0
171
     3
172
     1
173
     0
174
     1
175
     0
176
   144
177
   144
178
     7
270
     2
271
     1
272
     1
273
     2
274
     3
340
18E
275
     0
280
     0
281
     0
282
     0
283
     2
284
     8
285
     0
286
     0
287
     5
288
     0
  0
DIMSTYLE
105
3E8
330
A
100
AcDbSymbolTableRecord
100
AcDbDimStyleTableRecord
  2
ADD$3
 70
     0
  3

  4

  5

  6

  7

 40
1.0
 41
2.5
 42
1.0
 43
7.0
 44
0.5
 45
0.0
 46
0.0
 47
0.0
 48
0.0
140
2.5
141
2.5
142
0.0
143
0.03937007874016
144
1.0
145
0.0
146
1.0
147
0.625
 71
     0
 72
     0
 73
     0
 74
     0
 75
     0
 76
     0
 77
     1
 78
     8
170
     0
171
     3
172
     1
173
     0
174
     1
175
     0
176
   144
177
   144
178
     7
270
     2
271
     1
272
     1
273
     2
274
     3
340
18E
275
     0
280
     0
281
     0
282
     0
283
     2
284
     8
285
     0
286
     0
287
     5
288
     0
  0
DIMSTYLE
105
3E9
330
A
100
AcDbSymbolTableRecord
100
AcDbDimStyleTableRecord
  2
ADD$6
 70
     0
  3

  4

  5

  6

  7

 40
1.0
 41
2.5
 42
1.0
 43
7.0
 44
0.5
 45
0.0
 46
0.0
 47
0.0
 48
0.0
140
2.5
141
2.5
142
0.0
143
0.03937007874016
144
1.0
145
0.0
146
1.0
147
0.625
 71
     0
 72
     0
 73
     0
 74
     0
 75
     0
 76
     0
 77
     1
 78
     8
170
     0
171
     3
172
     1
173
     0
174
     1
175
     0
176
   144
177
   144
178
     7
270
     2
271
     1
272
     1
273
     2
274
     3
340
18E
275
     0
280
     0
281
     0
282
     0
283
     2
284
     8
285
     0
286
     0
287
     5
288
     0
  0
DIMSTYLE
105
3EA
330
A
100
AcDbSymbolTableRecord
100
AcDbDimStyleTableRecord
  2
ADD$7
 70
     0
  3

  4

  5

  6

  7

 40
1.0
 41
2.5
 42
1.0
 43
7.0
 44
0.5
 45
0.0
 46
0.0
 47
0.0
 48
0.0
140
2.5
141
2.5
142
0.0
143
0.03937007874016
144
1.0
145
0.0
146
1.0
147
0.625
 71
     0
 72
     0
 73
     0
 74
     0
 75
     0
 76
     0
 77
     0
 78
     8
170
     0
171
     3
172
     1
173
     0
174
     1
175
     0
176
   144
177
   144
178
     7
270
     2
271
     1
272
     1
273
     2
274
     3
340
18E
275
     0
280
     0
281
     0
282
     0
283
     2
284
     8
285
     0
286
     0
287
     5
288
     0
  0
DIMSTYLE
105
518
330
A
100
AcDbSymbolTableRecord
100
AcDbDimStyleTableRecord
  2
STANDARD
 70
     0
  3

  4

  5

  6

  7

 40
1.0
 41
0.18
 42
0.0625
 43
0.38
 44
0.18
 45
0.0
 46
0.0
 47
0.0
 48
0.0
140
0.18
141
0.09
142
0.0
143
25.4
144
1.0
145
0.0
146
1.0
147
0.09
 71
     0
 72
     0
 73
     1
 74
     1
 75
     0
 76
     0
 77
     0
 78
     0
170
     0
171
     2
172
     0
173
     0
174
     0
175
     0
176
     0
177
     0
178
     0
270
     2
271
     4
272
     4
273
     2
274
     2
340
11
275
     0
280
     0
281
     0
282
     0
283
     1
284
     0
285
     0
286
     0
287
     3
288
     0
  0
DIMSTYLE
105
550
330
A
100
AcDbSymbolTableRecord
100
AcDbDimStyleTableRecord
  2
ADD$0
 70
     0
  3

  4

  5

  6

  7

 40
1.0
 41
2.5
 42
1.0
 43
7.0
 44
0.5
 45
0.0
 46
0.0
 47
0.0
 48
0.0
140
2.5
141
2.5
142
0.0
143
0.03937007874016
144
1.0
145
0.7
146
1.0
147
0.625
 71
     0
 72
     0
 73
     0
 74
     0
 75
     0
 76
     0
 77
     1
 78
     8
170
     0
171
     3
172
     1
173
     0
174
     1
175
     0
176
   144
177
   144
178
     7
270
     2
271
     1
272
     1
273
     2
274
     3
340
18E
275
     0
280
     0
281
     0
282
     0
283
     2
284
     8
285
     0
286
     0
287
     5
288
     0
  0
DIMSTYLE
105
59B
330
A
100
AcDbSymbolTableRecord
100
AcDbDimStyleTableRecord
  2
ADD_M
 70
     0
  3

  4

  5

  6

  7

 40
1.0
 41
2.5
 42
1.0
 43
7.0
 44
0.5
 45
0.0
 46
0.0
 47
0.0
 48
0.0
140
2.5
141
2.5
142
0.0
143
0.03937007874016
144
1.0
145
0.7
146
1.0
147
0.625
 71
     0
 72
     0
 73
     0
 74
     0
 75
     0
 76
     0
 77
     1
 78
     8
170
     0
171
     3
172
     1
173
     0
174
     1
175
     0
176
   144
177
   144
178
     7
270
     2
271
     1
272
     1
273
     2
274
     3
340
18E
275
     0
280
     0
281
     0
282
     0
283
     2
284
     8
285
     0
286
     0
287
     5
288
     0
  0
ENDTAB
  0
TABLE
  2
BLOCK_RECORD
  5
1
330
0
100
AcDbSymbolTable
 70
    15
  0
BLOCK_RECORD
  5
1F
102
{ACAD_XDICTIONARY
360
65D
102
}
330
1
100
AcDbSymbolTableRecord
100
AcDbBlockTableRecord
  2
*MODEL_SPACE
  0
BLOCK_RECORD
  5
1B
102
{ACAD_XDICTIONARY
360
65F
102
}
330
1
100
AcDbSymbolTableRecord
100
AcDbBlockTableRecord
  2
*PAPER_SPACE
  0
BLOCK_RECORD
  5
192
330
1
100
AcDbSymbolTableRecord
100
AcDbBlockTableRecord
  2
_DOT
  0
BLOCK_RECORD
  5
5CE
330
1
100
AcDbSymbolTableRecord
100
AcDbBlockTableRecord
  2
A4
  0
BLOCK_RECORD
  5
129A
330
1
100
AcDbSymbolTableRecord
100
AcDbBlockTableRecord
  2
*D2
  0
BLOCK_RECORD
  5
12B6
330
1
100
AcDbSymbolTableRecord
100
AcDbBlockTableRecord
  2
*D3
  0
BLOCK_RECORD
  5
12C3
330
1
100
AcDbSymbolTableRecord
100
AcDbBlockTableRecord
  2
*D4
  0
BLOCK_RECORD
  5
12D2
330
1
100
AcDbSymbolTableRecord
100
AcDbBlockTableRecord
  2
*D5
  0
BLOCK_RECORD
  5
12DF
330
1
100
AcDbSymbolTableRecord
100
AcDbBlockTableRecord
  2
*D6
  0
BLOCK_RECORD
  5
12EE
330
1
100
AcDbSymbolTableRecord
100
AcDbBlockTableRecord
  2
*D7
  0
BLOCK_RECORD
  5
12FB
330
1
100
AcDbSymbolTableRecord
100
AcDbBlockTableRecord
  2
*D8
  0
BLOCK_RECORD
  5
1308
330
1
100
AcDbSymbolTableRecord
100
AcDbBlockTableRecord
  2
*D9
  0
BLOCK_RECORD
  5
1312
330
1
100
AcDbSymbolTableRecord
100
AcDbBlockTableRecord
  2
*D10
  0
BLOCK_RECORD
  5
1420
330
1
100
AcDbSymbolTableRecord
100
AcDbBlockTableRecord
  2
*D13
  0
BLOCK_RECORD
  5
142D
330
1
100
AcDbSymbolTableRecord
100
AcDbBlockTableRecord
  2
*D14
  0
ENDTAB
  0
ENDSEC
  0
SECTION
  2
BLOCKS
  0
BLOCK
  5
20
330
1F
100
AcDbEntity
  8
0
100
AcDbBlockBegin
  2
*MODEL_SPACE
 70
     0
 10
0.0
 20
0.0
 30
0.0
  3
*MODEL_SPACE
  1

  0
ENDBLK
  5
21
330
1F
100
AcDbEntity
  8
0
100
AcDbBlockEnd
  0
BLOCK
  5
1C
330
1B
100
AcDbEntity
 67
     1
  8
0
100
AcDbBlockBegin
  2
*PAPER_SPACE
 70
     0
 10
0.0
 20
0.0
 30
0.0
  3
*PAPER_SPACE
  1

  0
ENDBLK
  5
1D
330
1B
100
AcDbEntity
 67
     1
  8
0
100
AcDbBlockEnd
  0
BLOCK
  5
195
330
192
100
AcDbEntity
  8
0
100
AcDbBlockBegin
  2
_DOT
 70
     0
 10
0.0
 20
0.0
 30
0.0
  3
_DOT
  1

  0
POLYLINE
  5
193
330
192
100
AcDbEntity
  8
0
 62
     0
100
AcDb2dPolyline
 66
     1
 10
0.0
 20
0.0
 30
0.0
 70
     1
 40
0.5
 41
0.5
  0
VERTEX
  5
1510
330
193
100
AcDbEntity
  8
0
 62
     0
100
AcDbVertex
100
AcDb2dVertex
 10
-0.25
 20
0.0
 30
0.0
 42
1.0
  0
VERTEX
  5
1511
330
193
100
AcDbEntity
  8
0
 62
     0
100
AcDbVertex
100
AcDb2dVertex
 10
0.25
 20
0.0
 30
0.0
 42
1.0
  0
SEQEND
  5
1512
330
193
100
AcDbEntity
  8
0
 62
     0
  0
LINE
  5
194
330
192
100
AcDbEntity
  8
0
 62
     0
100
AcDbLine
 10
-0.5
 20
0.0
 30
0.0
 11
-1.0
 21
0.0
 31
0.0
  0
ENDBLK
  5
196
330
192
100
AcDbEntity
  8
0
100
AcDbBlockEnd
  0
BLOCK
  5
5D1
330
5CE
100
AcDbEntity
  8
0
100
AcDbBlockBegin
  2
A4
 70
     0
 10
0.0
 20
0.0
 30
0.0
  3
A4
  1

  0
POLYLINE
  5
5CF
330
5CE
100
AcDbEntity
  8
HOJO
100
AcDb2dPolyline
 66
     1
 10
0.0
 20
0.0
 30
0.0
 70
     1
  0
VERTEX
  5
1513
330
5CF
100
AcDbEntity
  8
HOJO
100
AcDbVertex
100
AcDb2dVertex
 10
0.0
 20
0.0
 30
0.0
  0
VERTEX
  5
1514
330
5CF
100
AcDbEntity
  8
HOJO
100
AcDbVertex
100
AcDb2dVertex
 10
297.0
 20
0.0
 30
0.0
  0
VERTEX
  5
1515
330
5CF
100
AcDbEntity
  8
HOJO
100
AcDbVertex
100
AcDb2dVertex
 10
297.0
 20
210.0
 30
0.0
  0
VERTEX
  5
1516
330
5CF
100
AcDbEntity
  8
HOJO
100
AcDbVertex
100
AcDb2dVertex
 10
0.0
 20
210.0
 30
0.0
  0
SEQEND
  5
1517
330
5CF
100
AcDbEntity
  8
HOJO
  0
POLYLINE
  5
5D0
330
5CE
100
AcDbEntity
  8
HOJO
100
AcDb2dPolyline
 66
     1
 10
0.0
 20
0.0
 30
0.0
 70
     1
  0
VERTEX
  5
1518
330
5D0
100
AcDbEntity
  8
HOJO
100
AcDbVertex
100
AcDb2dVertex
 10
18.0
 20
13.0
 30
0.0
  0
VERTEX
  5
1519
330
5D0
100
AcDbEntity
  8
HOJO
100
AcDbVertex
100
AcDb2dVertex
 10
279.0
 20
13.0
 30
0.0
  0
VERTEX
  5
151A
330
5D0
100
AcDbEntity
  8
HOJO
100
AcDbVertex
100
AcDb2dVertex
 10
279.0
 20
197.0
 30
0.0
  0
VERTEX
  5
151B
330
5D0
100
AcDbEntity
  8
HOJO
100
AcDbVertex
100
AcDb2dVertex
 10
18.0
 20
197.0
 30
0.0
  0
SEQEND
  5
151C
330
5D0
100
AcDbEntity
  8
HOJO
  0
ENDBLK
  5
5D2
330
5CE
100
AcDbEntity
  8
0
100
AcDbBlockEnd
  0
BLOCK
  5
12A6
330
129A
100
AcDbEntity
  8
0
100
AcDbBlockBegin
  2
*D2
 70
     1
 10
0.0
 20
0.0
 30
0.0
  3
*D2
  1

  0
LINE
  5
129B
330
129A
100
AcDbEntity
  8
SUNPO
 62
   144
100
AcDbLine
 10
1552.385580240554
 20
2257.611406092286
 30
0.0
 11
1092.309512949048
 21
2257.611406092286
 31
0.0
  0
LINE
  5
129C
330
129A
100
AcDbEntity
  8
SUNPO
 62
   144
100
AcDbLine
 10
1552.385580240554
 20
2137.611406092286
 30
0.0
 11
1092.309512949048
 21
2137.611406092286
 31
0.0
  0
LINE
  5
129D
330
129A
100
AcDbEntity
  8
SUNPO
 62
   144
100
AcDbLine
 10
1102.309512949048
 20
2277.611406092286
 30
0.0
 11
1102.309512949048
 21
2297.611406092286
 31
0.0
  0
LINE
  5
129E
330
129A
100
AcDbEntity
  8
SUNPO
 62
   144
100
AcDbLine
 10
1102.309512949048
 20
2117.611406092286
 30
0.0
 11
1102.309512949048
 21
2097.611406092286
 31
0.0
  0
LINE
  5
129F
330
129A
100
AcDbEntity
  8
SUNPO
 62
   144
100
AcDbLine
 10
1102.309512949048
 20
2257.611406092286
 30
0.0
 11
1102.309512949048
 21
2137.611406092286
 31
0.0
  0
SOLID
  5
12A0
330
129A
100
AcDbEntity
  8
SUNPO
 62
   144
100
AcDbTrace
 10
1098.976179615715
 20
2277.611406092286
 30
0.0
 11
1105.642846282381
 21
2277.611406092286
 31
0.0
 12
1102.309512949048
 22
2257.611406092286
 32
0.0
 13
1102.309512949048
 23
2257.611406092286
 33
0.0
  0
SOLID
  5
12A1
330
129A
100
AcDbEntity
  8
SUNPO
 62
   144
100
AcDbTrace
 10
1098.976179615715
 20
2117.611406092286
 30
0.0
 11
1105.642846282381
 21
2117.611406092286
 31
0.0
 12
1102.309512949048
 22
2137.611406092286
 32
0.0
 13
1102.309512949048
 23
2137.611406092286
 33
0.0
  0
MTEXT
  5
12A2
330
129A
100
AcDbEntity
  8
SUNPO
 62
     7
100
AcDbMText
 10
1069.809512949048
 20
2197.611406092286
 30
0.0
 40
40.0
 41
0.0
 71
     5
 72
     1
  1
\A2;120
  7
ADD
 11
0.0000000000000001
 21
1.0
 31
0.0
1001
ACAD
1000
MTEXTBEGIN
1070
    73
1070
     1
1070
    44
1040
1.0
1070
    74
1070
     0
1000
MTEXTEND
1000
MTEXTBEGIN
1070
    73
1070
     1
1070
    44
1040
1.0
1070
    74
1070
     0
1000
MTEXTEND
1000
MTEXTBEGIN
1070
    73
1070
     1
1070
    44
1040
1.0
1070
    74
1070
     0
1000
MTEXTEND
  0
POINT
  5
12A3
330
129A
100
AcDbEntity
  8
DEFPOINTS
 62
     0
100
AcDbPoint
 10
1572.385580240554
 20
2257.611406092286
 30
0.0
  0
POINT
  5
12A4
330
129A
100
AcDbEntity
  8
DEFPOINTS
 62
     0
100
AcDbPoint
 10
1572.385580240554
 20
2137.611406092286
 30
0.0
  0
POINT
  5
12A5
330
129A
100
AcDbEntity
  8
DEFPOINTS
 62
     0
100
AcDbPoint
 10
1102.309512949048
 20
2137.611406092286
 30
0.0
  0
ENDBLK
  5
12A7
330
129A
100
AcDbEntity
  8
0
100
AcDbBlockEnd
  0
BLOCK
  5
12C0
330
12B6
100
AcDbEntity
  8
0
100
AcDbBlockBegin
  2
*D3
 70
     1
 10
0.0
 20
0.0
 30
0.0
  3
*D3
  1

  0
LINE
  5
12B7
330
12B6
100
AcDbEntity
  8
SUNPO
 62
   144
100
AcDbLine
 10
1367.385580240554
 20
2527.611406092286
 30
0.0
 11
1367.385580240554
 21
2866.958461245114
 31
0.0
  0
LINE
  5
12B8
330
12B6
100
AcDbEntity
  8
SUNPO
 62
   144
100
AcDbLine
 10
1547.385580240554
 20
2527.611406092286
 30
0.0
 11
1547.385580240554
 21
2866.958461245114
 31
0.0
  0
LINE
  5
12B9
330
12B6
100
AcDbEntity
  8
SUNPO
 62
   144
100
AcDbLine
 10
1387.385580240554
 20
2856.958461245114
 30
0.0
 11
1527.385580240554
 21
2856.958461245114
 31
0.0
  0
SOLID
  5
12BA
330
12B6
100
AcDbEntity
  8
SUNPO
 62
   144
100
AcDbTrace
 10
1387.385580240554
 20
2860.291794578447
 30
0.0
 11
1387.385580240554
 21
2853.625127911781
 31
0.0
 12
1367.385580240554
 22
2856.958461245114
 32
0.0
 13
1367.385580240554
 23
2856.958461245114
 33
0.0
  0
SOLID
  5
12BB
330
12B6
100
AcDbEntity
  8
SUNPO
 62
   144
100
AcDbTrace
 10
1527.385580240554
 20
2860.291794578447
 30
0.0
 11
1527.385580240554
 21
2853.625127911781
 31
0.0
 12
1547.385580240554
 22
2856.958461245114
 32
0.0
 13
1547.385580240554
 23
2856.958461245114
 33
0.0
  0
MTEXT
  5
12BC
330
12B6
100
AcDbEntity
  8
SUNPO
 62
     7
100
AcDbMText
 10
1457.385580240554
 20
2889.458461245114
 30
0.0
 40
40.0
 41
0.0
 71
     5
 72
     1
  1
\A2;180
  7
ADD
1001
ACAD
1000
MTEXTBEGIN
1070
    73
1070
     1
1070
    44
1040
1.0
1070
    74
1070
     0
1000
MTEXTEND
1000
MTEXTBEGIN
1070
    73
1070
     1
1070
    44
1040
1.0
1070
    74
1070
     0
1000
MTEXTEND
1000
MTEXTBEGIN
1070
    73
1070
     1
1070
    44
1040
1.0
1070
    74
1070
     0
1000
MTEXTEND
  0
POINT
  5
12BD
330
12B6
100
AcDbEntity
  8
DEFPOINTS
 62
     0
100
AcDbPoint
 10
1367.385580240554
 20
2507.611406092286
 30
0.0
  0
POINT
  5
12BE
330
12B6
100
AcDbEntity
  8
DEFPOINTS
 62
     0
100
AcDbPoint
 10
1547.385580240554
 20
2507.611406092286
 30
0.0
  0
POINT
  5
12BF
330
12B6
100
AcDbEntity
  8
DEFPOINTS
 62
     0
100
AcDbPoint
 10
1547.385580240554
 20
2856.958461245114
 30
0.0
  0
ENDBLK
  5
12C1
330
12B6
100
AcDbEntity
  8
0
100
AcDbBlockEnd
  0
BLOCK
  5
12CF
330
12C3
100
AcDbEntity
  8
0
100
AcDbBlockBegin
  2
*D4
 70
     1
 10
0.0
 20
0.0
 30
0.0
  3
*D4
  1

  0
LINE
  5
12C4
330
12C3
100
AcDbEntity
  8
SUNPO
 62
   144
100
AcDbLine
 10
1547.385580240554
 20
2527.611406092286
 30
0.0
 11
1547.385580240554
 21
2866.958461245114
 31
0.0
  0
LINE
  5
12C5
330
12C3
100
AcDbEntity
  8
SUNPO
 62
   144
100
AcDbLine
 10
1572.385580240554
 20
2277.611406092286
 30
0.0
 11
1572.385580240554
 21
2866.958461245114
 31
0.0
  0
LINE
  5
12C6
330
12C3
100
AcDbEntity
  8
SUNPO
 62
   144
100
AcDbLine
 10
1527.385580240554
 20
2856.958461245114
 30
0.0
 11
1507.385580240554
 21
2856.958461245114
 31
0.0
  0
LINE
  5
12C7
330
12C3
100
AcDbEntity
  8
SUNPO
 62
   144
100
AcDbLine
 10
1592.385580240554
 20
2856.958461245114
 30
0.0
 11
1612.385580240554
 21
2856.958461245114
 31
0.0
  0
LINE
  5
12C8
330
12C3
100
AcDbEntity
  8
SUNPO
 62
   144
100
AcDbLine
 10
1547.385580240554
 20
2856.958461245114
 30
0.0
 11
1572.385580240554
 21
2856.958461245114
 31
0.0
  0
SOLID
  5
12C9
330
12C3
100
AcDbEntity
  8
SUNPO
 62
   144
100
AcDbTrace
 10
1527.385580240554
 20
2860.291794578447
 30
0.0
 11
1527.385580240554
 21
2853.625127911781
 31
0.0
 12
1547.385580240554
 22
2856.958461245114
 32
0.0
 13
1547.385580240554
 23
2856.958461245114
 33
0.0
  0
SOLID
  5
12CA
330
12C3
100
AcDbEntity
  8
SUNPO
 62
   144
100
AcDbTrace
 10
1592.385580240554
 20
2860.291794578447
 30
0.0
 11
1592.385580240554
 21
2853.625127911781
 31
0.0
 12
1572.385580240554
 22
2856.958461245114
 32
0.0
 13
1572.385580240554
 23
2856.958461245114
 33
0.0
  0
MTEXT
  5
12CB
330
12C3
100
AcDbEntity
  8
SUNPO
 62
     7
100
AcDbMText
 10
1559.885580240554
 20
2889.458461245114
 30
0.0
 40
40.0
 41
0.0
 71
     5
 72
     1
  1
\A2;25
  7
ADD
1001
ACAD
1000
MTEXTBEGIN
1070
    73
1070
     1
1070
    44
1040
1.0
1070
    74
1070
     0
1000
MTEXTEND
1000
MTEXTBEGIN
1070
    73
1070
     1
1070
    44
1040
1.0
1070
    74
1070
     0
1000
MTEXTEND
1000
MTEXTBEGIN
1070
    73
1070
     1
1070
    44
1040
1.0
1070
    74
1070
     0
1000
MTEXTEND
  0
POINT
  5
12CC
330
12C3
100
AcDbEntity
  8
DEFPOINTS
 62
     0
100
AcDbPoint
 10
1547.385580240554
 20
2507.611406092286
 30
0.0
  0
POINT
  5
12CD
330
12C3
100
AcDbEntity
  8
DEFPOINTS
 62
     0
100
AcDbPoint
 10
1572.385580240554
 20
2257.611406092286
 30
0.0
  0
POINT
  5
12CE
330
12C3
100
AcDbEntity
  8
DEFPOINTS
 62
     0
100
AcDbPoint
 10
1572.385580240554
 20
2856.958461245114
 30
0.0
  0
ENDBLK
  5
12D0
330
12C3
100
AcDbEntity
  8
0
100
AcDbBlockEnd
  0
BLOCK
  5
12DC
330
12D2
100
AcDbEntity
  8
0
100
AcDbBlockBegin
  2
*D5
 70
     1
 10
0.0
 20
0.0
 30
0.0
  3
*D5
  1

  0
LINE
  5
12D3
330
12D2
100
AcDbEntity
  8
SUNPO
 62
   144
100
AcDbLine
 10
1572.385580240554
 20
2277.611406092286
 30
0.0
 11
1572.385580240554
 21
2866.958461245114
 31
0.0
  0
LINE
  5
12D4
330
12D2
100
AcDbEntity
  8
SUNPO
 62
   144
100
AcDbLine
 10
2072.385580240554
 20
2307.611406092286
 30
0.0
 11
2072.385580240554
 21
2866.958461245114
 31
0.0
  0
LINE
  5
12D5
330
12D2
100
AcDbEntity
  8
SUNPO
 62
   144
100
AcDbLine
 10
1592.385580240554
 20
2856.958461245114
 30
0.0
 11
2052.385580240554
 21
2856.958461245114
 31
0.0
  0
SOLID
  5
12D6
330
12D2
100
AcDbEntity
  8
SUNPO
 62
   144
100
AcDbTrace
 10
1592.385580240554
 20
2860.291794578447
 30
0.0
 11
1592.385580240554
 21
2853.625127911781
 31
0.0
 12
1572.385580240554
 22
2856.958461245114
 32
0.0
 13
1572.385580240554
 23
2856.958461245114
 33
0.0
  0
SOLID
  5
12D7
330
12D2
100
AcDbEntity
  8
SUNPO
 62
   144
100
AcDbTrace
 10
2052.385580240554
 20
2860.291794578447
 30
0.0
 11
2052.385580240554
 21
2853.625127911781
 31
0.0
 12
2072.385580240554
 22
2856.958461245114
 32
0.0
 13
2072.385580240554
 23
2856.958461245114
 33
0.0
  0
MTEXT
  5
12D8
330
12D2
100
AcDbEntity
  8
SUNPO
 62
     7
100
AcDbMText
 10
1822.385580240554
 20
2889.458461245114
 30
0.0
 40
40.0
 41
0.0
 71
     5
 72
     1
  1
\A2;500
  7
ADD
1001
ACAD
1000
MTEXTBEGIN
1070
    73
1070
     1
1070
    44
1040
1.0
1070
    74
1070
     0
1000
MTEXTEND
1000
MTEXTBEGIN
1070
    73
1070
     1
1070
    44
1040
1.0
1070
    74
1070
     0
1000
MTEXTEND
1000
MTEXTBEGIN
1070
    73
1070
     1
1070
    44
1040
1.0
1070
    74
1070
     0
1000
MTEXTEND
  0
POINT
  5
12D9
330
12D2
100
AcDbEntity
  8
DEFPOINTS
 62
     0
100
AcDbPoint
 10
1572.385580240554
 20
2257.611406092286
 30
0.0
  0
POINT
  5
12DA
330
12D2
100
AcDbEntity
  8
DEFPOINTS
 62
     0
100
AcDbPoint
 10
2072.385580240554
 20
2287.611406092286
 30
0.0
  0
POINT
  5
12DB
330
12D2
100
AcDbEntity
  8
DEFPOINTS
 62
     0
100
AcDbPoint
 10
2072.385580240554
 20
2856.958461245114
 30
0.0
  0
ENDBLK
  5
12DD
330
12D2
100
AcDbEntity
  8
0
100
AcDbBlockEnd
  0
BLOCK
  5
12E9
330
12DF
100
AcDbEntity
  8
0
100
AcDbBlockBegin
  2
*D6
 70
     1
 10
0.0
 20
0.0
 30
0.0
  3
*D6
  1

  0
LINE
  5
12E0
330
12DF
100
AcDbEntity
  8
SUNPO
 62
   144
100
AcDbLine
 10
2092.385580240553
 20
2287.611406092286
 30
0.0
 11
2308.332681586604
 21
2287.611406092286
 31
0.0
  0
LINE
  5
12E1
330
12DF
100
AcDbEntity
  8
SUNPO
 62
   144
100
AcDbLine
 10
2092.385580240553
 20
2137.611406092286
 30
0.0
 11
2308.332681586604
 21
2137.611406092286
 31
0.0
  0
LINE
  5
12E2
330
12DF
100
AcDbEntity
  8
SUNPO
 62
   144
100
AcDbLine
 10
2298.332681586603
 20
2267.611406092286
 30
0.0
 11
2298.332681586603
 21
2157.611406092286
 31
0.0
  0
SOLID
  5
12E3
330
12DF
100
AcDbEntity
  8
SUNPO
 62
   144
100
AcDbTrace
 10
2294.99934825327
 20
2267.611406092286
 30
0.0
 11
2301.666014919937
 21
2267.611406092286
 31
0.0
 12
2298.332681586603
 22
2287.611406092286
 32
0.0
 13
2298.332681586603
 23
2287.611406092286
 33
0.0
  0
SOLID
  5
12E4
330
12DF
100
AcDbEntity
  8
SUNPO
 62
   144
100
AcDbTrace
 10
2294.99934825327
 20
2157.611406092286
 30
0.0
 11
2301.666014919937
 21
2157.611406092286
 31
0.0
 12
2298.332681586603
 22
2137.611406092286
 32
0.0
 13
2298.332681586603
 23
2137.611406092286
 33
0.0
  0
MTEXT
  5
12E5
330
12DF
100
AcDbEntity
  8
SUNPO
 62
     7
100
AcDbMText
 10
2265.832681586603
 20
2212.611406092287
 30
0.0
 40
40.0
 41
0.0
 71
     5
 72
     1
  1
\A2;150
  7
ADD
 11
0.0000000000000001
 21
1.0
 31
0.0
1001
ACAD
1000
MTEXTBEGIN
1070
    73
1070
     1
1070
    44
1040
1.0
1070
    74
1070
     0
1000
MTEXTEND
1000
MTEXTBEGIN
1070
    73
1070
     1
1070
    44
1040
1.0
1070
    74
1070
     0
1000
MTEXTEND
1000
MTEXTBEGIN
1070
    73
1070
     1
1070
    44
1040
1.0
1070
    74
1070
     0
1000
MTEXTEND
  0
POINT
  5
12E6
330
12DF
100
AcDbEntity
  8
DEFPOINTS
 62
     0
100
AcDbPoint
 10
2072.385580240554
 20
2287.611406092286
 30
0.0
  0
POINT
  5
12E7
330
12DF
100
AcDbEntity
  8
DEFPOINTS
 62
     0
100
AcDbPoint
 10
2072.385580240554
 20
2137.611406092286
 30
0.0
  0
POINT
  5
12E8
330
12DF
100
AcDbEntity
  8
DEFPOINTS
 62
     0
100
AcDbPoint
 10
2298.332681586603
 20
2137.611406092286
 30
0.0
  0
ENDBLK
  5
12EA
330
12DF
100
AcDbEntity
  8
0
100
AcDbBlockEnd
  0
BLOCK
  5
12F8
330
12EE
100
AcDbEntity
  8
0
100
AcDbBlockBegin
  2
*D7
 70
     1
 10
0.0
 20
0.0
 30
0.0
  3
*D7
  1

  0
LINE
  5
12EF
330
12EE
100
AcDbEntity
  8
SUNPO
 62
   144
100
AcDbLine
 10
1347.385580240554
 20
2507.611406092286
 30
0.0
 11
1092.309512949048
 21
2507.611406092286
 31
0.0
  0
LINE
  5
12F0
330
12EE
100
AcDbEntity
  8
SUNPO
 62
   144
100
AcDbLine
 10
1347.385580240554
 20
2257.611406092286
 30
0.0
 11
1092.309512949048
 21
2257.611406092286
 31
0.0
  0
LINE
  5
12F1
330
12EE
100
AcDbEntity
  8
SUNPO
 62
   144
100
AcDbLine
 10
1102.309512949048
 20
2487.611406092286
 30
0.0
 11
1102.309512949048
 21
2277.611406092286
 31
0.0
  0
SOLID
  5
12F2
330
12EE
100
AcDbEntity
  8
SUNPO
 62
   144
100
AcDbTrace
 10
1098.976179615715
 20
2487.611406092286
 30
0.0
 11
1105.642846282381
 21
2487.611406092286
 31
0.0
 12
1102.309512949048
 22
2507.611406092286
 32
0.0
 13
1102.309512949048
 23
2507.611406092286
 33
0.0
  0
SOLID
  5
12F3
330
12EE
100
AcDbEntity
  8
SUNPO
 62
   144
100
AcDbTrace
 10
1098.976179615715
 20
2277.611406092286
 30
0.0
 11
1105.642846282381
 21
2277.611406092286
 31
0.0
 12
1102.309512949048
 22
2257.611406092286
 32
0.0
 13
1102.309512949048
 23
2257.611406092286
 33
0.0
  0
MTEXT
  5
12F4
330
12EE
100
AcDbEntity
  8
SUNPO
 62
     7
100
AcDbMText
 10
1069.809512949048
 20
2382.611406092287
 30
0.0
 40
40.0
 41
0.0
 71
     5
 72
     1
  1
\A2;250
  7
ADD
 11
0.0000000000000001
 21
1.0
 31
0.0
1001
ACAD
1000
MTEXTBEGIN
1070
    73
1070
     1
1070
    44
1040
1.0
1070
    74
1070
     0
1000
MTEXTEND
1000
MTEXTBEGIN
1070
    73
1070
     1
1070
    44
1040
1.0
1070
    74
1070
     0
1000
MTEXTEND
1000
MTEXTBEGIN
1070
    73
1070
     1
1070
    44
1040
1.0
1070
    74
1070
     0
1000
MTEXTEND
  0
POINT
  5
12F5
330
12EE
100
AcDbEntity
  8
DEFPOINTS
 62
     0
100
AcDbPoint
 10
1367.385580240554
 20
2507.611406092286
 30
0.0
  0
POINT
  5
12F6
330
12EE
100
AcDbEntity
  8
DEFPOINTS
 62
     0
100
AcDbPoint
 10
1367.385580240554
 20
2257.611406092286
 30
0.0
  0
POINT
  5
12F7
330
12EE
100
AcDbEntity
  8
DEFPOINTS
 62
     0
100
AcDbPoint
 10
1102.309512949048
 20
2257.611406092286
 30
0.0
  0
ENDBLK
  5
12F9
330
12EE
100
AcDbEntity
  8
0
100
AcDbBlockEnd
  0
BLOCK
  5
1305
330
12FB
100
AcDbEntity
  8
0
100
AcDbBlockBegin
  2
*D8
 70
     1
 10
0.0
 20
0.0
 30
0.0
  3
*D8
  1

  0
LINE
  5
12FC
330
12FB
100
AcDbEntity
  8
SUNPO
 62
   144
100
AcDbLine
 10
1347.385580240554
 20
2507.611406092286
 30
0.0
 11
917.5658641010469
 21
2507.611406092287
 31
0.0
  0
LINE
  5
12FD
330
12FB
100
AcDbEntity
  8
SUNPO
 62
   144
100
AcDbLine
 10
1347.385580240554
 20
2137.611406092286
 30
0.0
 11
917.5658641010468
 21
2137.611406092287
 31
0.0
  0
LINE
  5
12FE
330
12FB
100
AcDbEntity
  8
SUNPO
 62
   144
100
AcDbLine
 10
927.5658641010469
 20
2487.611406092287
 30
0.0
 11
927.5658641010467
 21
2157.611406092287
 31
0.0
  0
SOLID
  5
12FF
330
12FB
100
AcDbEntity
  8
SUNPO
 62
   144
100
AcDbTrace
 10
924.2325307677136
 20
2487.611406092287
 30
0.0
 11
930.8991974343802
 21
2487.611406092287
 31
0.0
 12
927.5658641010469
 22
2507.611406092287
 32
0.0
 13
927.5658641010469
 23
2507.611406092287
 33
0.0
  0
SOLID
  5
1300
330
12FB
100
AcDbEntity
  8
SUNPO
 62
   144
100
AcDbTrace
 10
924.2325307677134
 20
2157.611406092287
 30
0.0
 11
930.8991974343802
 21
2157.611406092287
 31
0.0
 12
927.5658641010467
 22
2137.611406092287
 32
0.0
 13
927.5658641010467
 23
2137.611406092287
 33
0.0
  0
MTEXT
  5
1301
330
12FB
100
AcDbEntity
  8
SUNPO
 62
     7
100
AcDbMText
 10
895.0658641010464
 20
2322.611406092286
 30
0.0
 40
40.0
 41
0.0
 71
     5
 72
     1
  1
\A2;370
  7
ADD
 11
0.0000000000000001
 21
1.0
 31
0.0
1001
ACAD
1000
MTEXTBEGIN
1070
    73
1070
     1
1070
    44
1040
1.0
1070
    74
1070
     0
1000
MTEXTEND
1000
MTEXTBEGIN
1070
    73
1070
     1
1070
    44
1040
1.0
1070
    74
1070
     0
1000
MTEXTEND
1000
MTEXTBEGIN
1070
    73
1070
     1
1070
    44
1040
1.0
1070
    74
1070
     0
1000
MTEXTEND
  0
POINT
  5
1302
330
12FB
100
AcDbEntity
  8
DEFPOINTS
 62
     0
100
AcDbPoint
 10
1367.385580240554
 20
2507.611406092286
 30
0.0
  0
POINT
  5
1303
330
12FB
100
AcDbEntity
  8
DEFPOINTS
 62
     0
100
AcDbPoint
 10
1367.385580240554
 20
2137.611406092286
 30
0.0
  0
POINT
  5
1304
330
12FB
100
AcDbEntity
  8
DEFPOINTS
 62
     0
100
AcDbPoint
 10
927.5658641010467
 20
2137.611406092287
 30
0.0
  0
ENDBLK
  5
1306
330
12FB
100
AcDbEntity
  8
0
100
AcDbBlockEnd
  0
BLOCK
  5
130F
330
1308
100
AcDbEntity
  8
0
100
AcDbBlockBegin
  2
*D9
 70
     1
 10
0.0
 20
0.0
 30
0.0
  3
*D9
  1

  0
LINE
  5
1309
330
1308
100
AcDbEntity
  8
SUNPO
 62
   144
100
AcDbLine
 10
1662.015902701203
 20
2615.618271679736
 30
0.0
 11
1556.064821437411
 21
2512.486787287671
 31
0.0
  0
MTEXT
  5
130A
330
1308
100
AcDbEntity
  8
SUNPO
 62
     7
100
AcDbMText
 10
1593.537137904351
 20
2594.316369961923
 30
0.0
 40
40.0
 41
0.0
 71
     5
 72
     1
  1
\A2;R30
  7
ADD
 11
0.7165773612043957
 21
0.6975076239076854
 31
0.0
1001
ACAD
1000
MTEXTBEGIN
1070
    73
1070
     1
1070
    44
1040
1.0
1070
    74
1070
     0
1000
MTEXTEND
1000
MTEXTBEGIN
1070
    73
1070
     1
1070
    44
1040
1.0
1070
    74
1070
     0
1000
MTEXTEND
1000
MTEXTBEGIN
1070
    73
1070
     1
1070
    44
1040
1.0
1070
    74
1070
     0
1000
MTEXTEND
  0
LINE
  5
130B
330
1308
100
AcDbEntity
  8
SUNPO
 62
   144
100
AcDbLine
 10
1520.23595337719
 20
2477.611406092286
 30
0.0
 11
1541.733274213323
 21
2498.536634809517
 31
0.0
  0
SOLID
  5
130C
330
1308
100
AcDbEntity
  8
SUNPO
 62
   144
100
AcDbTrace
 10
1553.739796024385
 20
2514.875378491685
 30
0.0
 11
1558.389846850436
 21
2510.098196083656
 31
0.0
 12
1541.733274213323
 22
2498.536634809517
 32
0.0
 13
1541.733274213323
 23
2498.536634809517
 33
0.0
  0
POINT
  5
130D
330
1308
100
AcDbEntity
  8
DEFPOINTS
 62
     0
100
AcDbPoint
 10
1541.733274213323
 20
2498.536634809517
 30
0.0
  0
POINT
  5
130E
330
1308
100
AcDbEntity
  8
DEFPOINTS
 62
     0
100
AcDbPoint
 10
1520.23595337719
 20
2477.611406092286
 30
0.0
  0
ENDBLK
  5
1310
330
1308
100
AcDbEntity
  8
0
100
AcDbBlockEnd
  0
BLOCK
  5
1319
330
1312
100
AcDbEntity
  8
0
100
AcDbBlockBegin
  2
*D10
 70
     1
 10
0.0
 20
0.0
 30
0.0
  3
*D10
  1

  0
LINE
  5
1313
330
1312
100
AcDbEntity
  8
SUNPO
 62
   144
100
AcDbLine
 10
1491.311632856494
 20
2119.111529817666
 30
0.0
 11
1569.280719204455
 21
2244.740174114824
 31
0.0
  0
MTEXT
  5
1314
330
1312
100
AcDbEntity
  8
SUNPO
 62
     7
100
AcDbMText
 10
1497.408878811189
 20
2190.567361186884
 30
0.0
 40
40.0
 41
0.0
 71
     5
 72
     1
  1
\A2;R20
  7
ADD
 11
0.5273271540441843
 21
0.8496623285798076
 31
0.0
1001
ACAD
1000
MTEXTBEGIN
1070
    73
1070
     1
1070
    44
1040
1.0
1070
    74
1070
     0
1000
MTEXTEND
1000
MTEXTBEGIN
1070
    73
1070
     1
1070
    44
1040
1.0
1070
    74
1070
     0
1000
MTEXTEND
1000
MTEXTBEGIN
1070
    73
1070
     1
1070
    44
1040
1.0
1070
    74
1070
     0
1000
MTEXTEND
  0
LINE
  5
1315
330
1312
100
AcDbEntity
  8
SUNPO
 62
   144
100
AcDbLine
 10
1590.373805366222
 20
2278.726667258016
 30
0.0
 11
1579.827262285339
 21
2261.73342068642
 31
0.0
  0
SOLID
  5
1316
330
1312
100
AcDbEntity
  8
SUNPO
 62
   144
100
AcDbTrace
 10
1566.448511442523
 20
2246.497931294971
 30
0.0
 11
1572.112926966388
 21
2242.982416934677
 31
0.0
 12
1579.827262285339
 22
2261.73342068642
 32
0.0
 13
1579.827262285339
 23
2261.73342068642
 33
0.0
  0
POINT
  5
1317
330
1312
100
AcDbEntity
  8
DEFPOINTS
 62
     0
100
AcDbPoint
 10
1579.827262285339
 20
2261.73342068642
 30
0.0
  0
POINT
  5
1318
330
1312
100
AcDbEntity
  8
DEFPOINTS
 62
     0
100
AcDbPoint
 10
1590.373805366222
 20
2278.726667258016
 30
0.0
  0
ENDBLK
  5
131A
330
1312
100
AcDbEntity
  8
0
100
AcDbBlockEnd
  0
BLOCK
  5
142A
330
1420
100
AcDbEntity
  8
0
100
AcDbBlockBegin
  2
*D13
 70
     1
 10
0.0
 20
0.0
 30
0.0
  3
*D13
  1

  0
LINE
  5
1421
330
1420
100
AcDbEntity
  8
SUNPO
 62
   144
100
AcDbLine
 10
1367.385580240554
 20
2117.611406092286
 30
0.0
 11
1367.385580240554
 21
1832.46933083855
 31
0.0
  0
LINE
  5
1422
330
1420
100
AcDbEntity
  8
SUNPO
 62
   144
100
AcDbLine
 10
2072.385580240554
 20
2117.611406092286
 30
0.0
 11
2072.385580240554
 21
1832.46933083855
 31
0.0
  0
LINE
  5
1423
330
1420
100
AcDbEntity
  8
SUNPO
 62
   144
100
AcDbLine
 10
1387.385580240554
 20
1842.46933083855
 30
0.0
 11
2052.385580240554
 21
1842.46933083855
 31
0.0
  0
SOLID
  5
1424
330
1420
100
AcDbEntity
  8
SUNPO
 62
   144
100
AcDbTrace
 10
1387.385580240554
 20
1845.802664171883
 30
0.0
 11
1387.385580240554
 21
1839.135997505217
 31
0.0
 12
1367.385580240554
 22
1842.46933083855
 32
0.0
 13
1367.385580240554
 23
1842.46933083855
 33
0.0
  0
SOLID
  5
1425
330
1420
100
AcDbEntity
  8
SUNPO
 62
   144
100
AcDbTrace
 10
2052.385580240554
 20
1845.802664171883
 30
0.0
 11
2052.385580240554
 21
1839.135997505217
 31
0.0
 12
2072.385580240554
 22
1842.46933083855
 32
0.0
 13
2072.385580240554
 23
1842.46933083855
 33
0.0
  0
MTEXT
  5
1426
330
1420
100
AcDbEntity
  8
SUNPO
 62
     7
100
AcDbMText
 10
1719.885580240554
 20
1874.96933083855
 30
0.0
 40
40.0
 41
0.0
 71
     5
 72
     1
  1
\A2;705
  7
ADD
1001
ACAD
1000
MTEXTBEGIN
1070
    73
1070
     1
1070
    44
1040
1.0
1070
    74
1070
     0
1000
MTEXTEND
1000
MTEXTBEGIN
1070
    73
1070
     1
1070
    44
1040
1.0
1070
    74
1070
     0
1000
MTEXTEND
  0
POINT
  5
1427
330
1420
100
AcDbEntity
  8
DEFPOINTS
 62
     0
100
AcDbPoint
 10
1367.385580240554
 20
2137.611406092286
 30
0.0
  0
POINT
  5
1428
330
1420
100
AcDbEntity
  8
DEFPOINTS
 62
     0
100
AcDbPoint
 10
2072.385580240554
 20
2137.611406092286
 30
0.0
  0
POINT
  5
1429
330
1420
100
AcDbEntity
  8
DEFPOINTS
 62
     0
100
AcDbPoint
 10
2072.385580240554
 20
1842.46933083855
 30
0.0
  0
ENDBLK
  5
142B
330
1420
100
AcDbEntity
  8
0
100
AcDbBlockEnd
  0
BLOCK
  5
1437
330
142D
100
AcDbEntity
  8
0
100
AcDbBlockBegin
  2
*D14
 70
     1
 10
0.0
 20
0.0
 30
0.0
  3
*D14
  1

  0
LINE
  5
142E
330
142D
100
AcDbEntity
  8
SUNPO
 62
   144
100
AcDbLine
 10
2921.206150868464
 20
2117.611406092286
 30
0.0
 11
2921.206150868464
 21
1832.46933083855
 31
0.0
  0
LINE
  5
142F
330
142D
100
AcDbEntity
  8
SUNPO
 62
   144
100
AcDbLine
 10
4921.206150868464
 20
2117.611406092286
 30
0.0
 11
4921.206150868464
 21
1832.46933083855
 31
0.0
  0
LINE
  5
1430
330
142D
100
AcDbEntity
  8
SUNPO
 62
   144
100
AcDbLine
 10
2941.206150868463
 20
1842.46933083855
 30
0.0
 11
4901.206150868464
 21
1842.46933083855
 31
0.0
  0
SOLID
  5
1431
330
142D
100
AcDbEntity
  8
SUNPO
 62
   144
100
AcDbTrace
 10
2941.206150868463
 20
1845.802664171883
 30
0.0
 11
2941.206150868463
 21
1839.135997505217
 31
0.0
 12
2921.206150868464
 22
1842.46933083855
 32
0.0
 13
2921.206150868464
 23
1842.46933083855
 33
0.0
  0
SOLID
  5
1432
330
142D
100
AcDbEntity
  8
SUNPO
 62
   144
100
AcDbTrace
 10
4901.206150868464
 20
1845.802664171883
 30
0.0
 11
4901.206150868464
 21
1839.135997505217
 31
0.0
 12
4921.206150868464
 22
1842.46933083855
 32
0.0
 13
4921.206150868464
 23
1842.46933083855
 33
0.0
  0
MTEXT
  5
1433
330
142D
100
AcDbEntity
  8
SUNPO
 62
     7
100
AcDbMText
 10
3921.206150868464
 20
1874.96933083855
 30
0.0
 40
40.0
 41
0.0
 71
     5
 72
     1
  1
\A2;2000
  7
ADD
1001
ACAD
1000
MTEXTBEGIN
1070
    73
1070
     1
1070
    44
1040
1.0
1070
    74
1070
     0
1000
MTEXTEND
1000
MTEXTBEGIN
1070
    73
1070
     1
1070
    44
1040
1.0
1070
    74
1070
     0
1000
MTEXTEND
  0
POINT
  5
1434
330
142D
100
AcDbEntity
  8
DEFPOINTS
 62
     0
100
AcDbPoint
 10
2921.206150868464
 20
2137.611406092286
 30
0.0
  0
POINT
  5
1435
330
142D
100
AcDbEntity
  8
DEFPOINTS
 62
     0
100
AcDbPoint
 10
4921.206150868464
 20
2137.611406092286
 30
0.0
  0
POINT
  5
1436
330
142D
100
AcDbEntity
  8
DEFPOINTS
 62
     0
100
AcDbPoint
 10
4921.206150868464
 20
1842.46933083855
 30
0.0
  0
ENDBLK
  5
1438
330
142D
100
AcDbEntity
  8
0
100
AcDbBlockEnd
  0
ENDSEC
  0
SECTION
  2
ENTITIES
  0
LINE
  5
60A
330
1F
100
AcDbEntity
  8
HOJO
100
AcDbLine
 10
360.0
 20
260.0
 30
0.0
 11
5580.0
 21
260.0
 31
0.0
  0
LINE
  5
60B
330
1F
100
AcDbEntity
  8
HOJO
100
AcDbLine
 10
360.0
 20
560.0
 30
0.0
 11
5580.0
 21
560.0
 31
0.0
  0
LINE
  5
60C
330
1F
100
AcDbEntity
  8
HOJO
100
AcDbLine
 10
360.0
 20
260.0
 30
0.0
 11
360.0
 21
560.0
 31
0.0
  0
LINE
  5
60D
330
1F
100
AcDbEntity
  8
HOJO
100
AcDbLine
 10
2360.0
 20
260.0
 30
0.0
 11
2360.0
 21
560.0
 31
0.0
  0
LINE
  5
60F
330
1F
100
AcDbEntity
  8
HOJO
100
AcDbLine
 10
3160.0
 20
260.0
 30
0.0
 11
3160.0
 21
560.0
 31
0.0
  0
LINE
  5
610
330
1F
100
AcDbEntity
  8
HOJO
100
AcDbLine
 10
3660.0
 20
260.0
 30
0.0
 11
3660.0
 21
560.0
 31
0.0
  0
LINE
  5
1057
330
1F
100
AcDbEntity
  8
3C1
100
AcDbLine
 10
2921.206150868464
 20
2137.611406092286
 30
0.0
 11
4921.206150868464
 21
2137.611406092286
 31
0.0
  0
LINE
  5
1058
330
1F
100
AcDbEntity
  8
3C1
100
AcDbLine
 10
2921.206150868464
 20
2137.611406092286
 30
0.0
 11
2921.206150868464
 21
2287.611406092286
 31
0.0
  0
LINE
  5
1059
330
1F
100
AcDbEntity
  8
3C1
100
AcDbLine
 10
2921.206150868464
 20
2287.611406092286
 30
0.0
 11
4921.206150868464
 21
2287.611406092286
 31
0.0
  0
LINE
  5
105A
330
1F
100
AcDbEntity
  8
3C1
100
AcDbLine
 10
2921.206150868464
 20
2287.611406092286
 30
0.0
 11
2921.206150868464
 21
2407.611406092286
 31
0.0
  0
LINE
  5
105B
330
1F
100
AcDbEntity
  8
3C1
100
AcDbLine
 10
2921.206150868464
 20
2407.611406092286
 30
0.0
 11
4921.206150868464
 21
2407.611406092286
 31
0.0
  0
LINE
  5
105C
330
1F
100
AcDbEntity
  8
3C1
100
AcDbLine
 10
4921.206150868464
 20
2407.611406092286
 30
0.0
 11
4921.206150868464
 21
2137.611406092286
 31
0.0
  0
LINE
  5
1284
330
1F
100
AcDbEntity
  8
3C1
100
AcDbLine
 10
1367.385580240554
 20
2137.611406092286
 30
0.0
 11
2072.385580240554
 21
2137.611406092286
 31
0.0
  0
LINE
  5
1285
330
1F
100
AcDbEntity
  8
3C1
100
AcDbLine
 10
2072.385580240554
 20
2137.611406092286
 30
0.0
 11
2072.385580240554
 21
2287.611406092286
 31
0.0
  0
LINE
  5
1286
330
1F
100
AcDbEntity
  8
3C1
100
AcDbLine
 10
1367.385580240554
 20
2137.611406092286
 30
0.0
 11
1367.385580240554
 21
2507.611406092286
 31
0.0
  0
LINE
  5
1287
330
1F
100
AcDbEntity
  8
3C1
100
AcDbLine
 10
1367.385580240554
 20
2507.611406092286
 30
0.0
 11
1520.235953377191
 21
2507.611406092286
 31
0.0
  0
LINE
  5
128A
330
1F
100
AcDbEntity
  8
3C1
100
AcDbLine
 10
1570.473061562023
 20
2276.736592877596
 30
0.0
 11
1550.08706908349
 21
2480.596517662916
 31
0.0
  0
LINE
  5
128B
330
1F
100
AcDbEntity
  8
3C1
100
AcDbLine
 10
2072.385580240554
 20
2287.611406092286
 30
0.0
 11
1591.571651180782
 21
2258.7625703487
 31
0.0
  0
ARC
  5
12EB
330
1F
100
AcDbEntity
  8
3C1
100
AcDbCircle
 10
1520.235953377191
 20
2477.611406092286
 30
0.0
 40
30.0
100
AcDbArc
 50
5.710593137499633
 51
90.0
  0
ARC
  5
12EC
330
1F
100
AcDbEntity
  8
3C1
100
AcDbCircle
 10
1590.373805366223
 20
2278.726667258016
 30
0.0
 40
20.0
100
AcDbArc
 50
185.7105931374997
 51
273.4336303624505
  0
LINE
  5
14B1
330
1F
100
AcDbEntity
  8
SUNPO
 62
   144
100
AcDbLine
 10
2921.206150868464
 20
2117.611406092286
 30
0.0
 11
2921.206150868464
 21
1832.46933083855
 31
0.0
  0
LINE
  5
14B2
330
1F
100
AcDbEntity
  8
SUNPO
 62
   144
100
AcDbLine
 10
4921.206150868464
 20
2117.611406092286
 30
0.0
 11
4921.206150868464
 21
1832.46933083855
 31
0.0
  0
LINE
  5
14B3
330
1F
100
AcDbEntity
  8
SUNPO
 62
   144
100
AcDbLine
 10
2941.206150868463
 20
1842.46933083855
 30
0.0
 11
4901.206150868464
 21
1842.46933083855
 31
0.0
  0
SOLID
  5
14B4
330
1F
100
AcDbEntity
  8
SUNPO
 62
   144
100
AcDbTrace
 10
2941.206150868463
 20
1845.802664171883
 30
0.0
 11
2941.206150868463
 21
1839.135997505217
 31
0.0
 12
2921.206150868464
 22
1842.46933083855
 32
0.0
 13
2921.206150868464
 23
1842.46933083855
 33
0.0
  0
SOLID
  5
14B5
330
1F
100
AcDbEntity
  8
SUNPO
 62
   144
100
AcDbTrace
 10
4901.206150868464
 20
1845.802664171883
 30
0.0
 11
4901.206150868464
 21
1839.135997505217
 31
0.0
 12
4921.206150868464
 22
1842.46933083855
 32
0.0
 13
4921.206150868464
 23
1842.46933083855
 33
0.0
  0
LINE
  5
14B7
330
1F
100
AcDbEntity
  8
SUNPO
 62
   144
100
AcDbLine
 10
1367.385580240554
 20
2117.611406092286
 30
0.0
 11
1367.385580240554
 21
1832.46933083855
 31
0.0
  0
LINE
  5
14B8
330
1F
100
AcDbEntity
  8
SUNPO
 62
   144
100
AcDbLine
 10
2072.385580240554
 20
2117.611406092286
 30
0.0
 11
2072.385580240554
 21
1832.46933083855
 31
0.0
  0
LINE
  5
14B9
330
1F
100
AcDbEntity
  8
SUNPO
 62
   144
100
AcDbLine
 10
1387.385580240554
 20
1842.46933083855
 30
0.0
 11
2052.385580240554
 21
1842.46933083855
 31
0.0
  0
SOLID
  5
14BA
330
1F
100
AcDbEntity
  8
SUNPO
 62
   144
100
AcDbTrace
 10
1387.385580240554
 20
1845.802664171883
 30
0.0
 11
1387.385580240554
 21
1839.135997505217
 31
0.0
 12
1367.385580240554
 22
1842.46933083855
 32
0.0
 13
1367.385580240554
 23
1842.46933083855
 33
0.0
  0
SOLID
  5
14BB
330
1F
100
AcDbEntity
  8
SUNPO
 62
   144
100
AcDbTrace
 10
2052.385580240554
 20
1845.802664171883
 30
0.0
 11
2052.385580240554
 21
1839.135997505217
 31
0.0
 12
2072.385580240554
 22
1842.46933083855
 32
0.0
 13
2072.385580240554
 23
1842.46933083855
 33
0.0
  0
TEXT
  5
14BD
330
1F
100
AcDbEntity
  8
SUNPO
100
AcDbText
 10
2576.766649736178
 20
358.942846802196
 30
0.0
 40
80.0
  1
５００Ｃ
  7
ADD
100
AcDbText
1001
ACAD
1000
MTEXTBEGIN
1070
    73
1070
     1
1070
    44
1040
1.0
1070
    74
1070
     0
1000
MTEXTEND
1000
MTEXTBEGIN
1070
    73
1070
     1
1070
    44
1040
1.0
1070
    74
1070
     0
1000
MTEXTEND
1000
MTEXTBEGIN
1070
    73
1070
     1
1070
    44
1040
1.0
1070
    74
1070
     0
1000
MTEXTEND
1000
MTEXTBEGIN
1070
    73
1070
     1
1070
    44
1040
1.0
1070
    74
1070
     0
1000
MTEXTEND
1000
MTEXTBEGIN
1070
    73
1070
     1
1070
    44
1040
1.0
1070
    74
1070
     0
1000
MTEXTEND
  0
LINE
  5
14BE
330
1F
100
AcDbEntity
  8
SUNPO
 62
   144
100
AcDbLine
 10
1491.311632856494
 20
2119.111529817666
 30
0.0
 11
1569.280719204455
 21
2244.740174114824
 31
0.0
  0
LINE
  5
14C0
330
1F
100
AcDbEntity
  8
SUNPO
 62
   144
100
AcDbLine
 10
1590.373805366222
 20
2278.726667258016
 30
0.0
 11
1579.827262285339
 21
2261.73342068642
 31
0.0
  0
SOLID
  5
14C1
330
1F
100
AcDbEntity
  8
SUNPO
 62
   144
100
AcDbTrace
 10
1566.448511442523
 20
2246.497931294971
 30
0.0
 11
1572.112926966388
 21
2242.982416934677
 31
0.0
 12
1579.827262285339
 22
2261.73342068642
 32
0.0
 13
1579.827262285339
 23
2261.73342068642
 33
0.0
  0
LINE
  5
14C2
330
1F
100
AcDbEntity
  8
SUNPO
 62
   144
100
AcDbLine
 10
1662.015902701203
 20
2615.618271679736
 30
0.0
 11
1556.064821437411
 21
2512.486787287671
 31
0.0
  0
LINE
  5
14C4
330
1F
100
AcDbEntity
  8
SUNPO
 62
   144
100
AcDbLine
 10
1520.23595337719
 20
2477.611406092286
 30
0.0
 11
1541.733274213323
 21
2498.536634809517
 31
0.0
  0
SOLID
  5
14C5
330
1F
100
AcDbEntity
  8
SUNPO
 62
   144
100
AcDbTrace
 10
1553.739796024385
 20
2514.875378491685
 30
0.0
 11
1558.389846850436
 21
2510.098196083656
 31
0.0
 12
1541.733274213323
 22
2498.536634809517
 32
0.0
 13
1541.733274213323
 23
2498.536634809517
 33
0.0
  0
LINE
  5
14C6
330
1F
100
AcDbEntity
  8
SUNPO
 62
   144
100
AcDbLine
 10
1347.385580240554
 20
2507.611406092286
 30
0.0
 11
917.5658641010469
 21
2507.611406092287
 31
0.0
  0
LINE
  5
14C7
330
1F
100
AcDbEntity
  8
SUNPO
 62
   144
100
AcDbLine
 10
1347.385580240554
 20
2137.611406092286
 30
0.0
 11
917.5658641010468
 21
2137.611406092287
 31
0.0
  0
LINE
  5
14C8
330
1F
100
AcDbEntity
  8
SUNPO
 62
   144
100
AcDbLine
 10
927.5658641010469
 20
2487.611406092287
 30
0.0
 11
927.5658641010467
 21
2157.611406092287
 31
0.0
  0
SOLID
  5
14C9
330
1F
100
AcDbEntity
  8
SUNPO
 62
   144
100
AcDbTrace
 10
924.2325307677136
 20
2487.611406092287
 30
0.0
 11
930.8991974343802
 21
2487.611406092287
 31
0.0
 12
927.5658641010469
 22
2507.611406092287
 32
0.0
 13
927.5658641010469
 23
2507.611406092287
 33
0.0
  0
SOLID
  5
14CA
330
1F
100
AcDbEntity
  8
SUNPO
 62
   144
100
AcDbTrace
 10
924.2325307677134
 20
2157.611406092287
 30
0.0
 11
930.8991974343802
 21
2157.611406092287
 31
0.0
 12
927.5658641010467
 22
2137.611406092287
 32
0.0
 13
927.5658641010467
 23
2137.611406092287
 33
0.0
  0
LINE
  5
14CC
330
1F
100
AcDbEntity
  8
SUNPO
 62
   144
100
AcDbLine
 10
1347.385580240554
 20
2507.611406092286
 30
0.0
 11
1092.309512949048
 21
2507.611406092286
 31
0.0
  0
LINE
  5
14CD
330
1F
100
AcDbEntity
  8
SUNPO
 62
   144
100
AcDbLine
 10
1347.385580240554
 20
2257.611406092286
 30
0.0
 11
1092.309512949048
 21
2257.611406092286
 31
0.0
  0
LINE
  5
14CE
330
1F
100
AcDbEntity
  8
SUNPO
 62
   144
100
AcDbLine
 10
1102.309512949048
 20
2487.611406092286
 30
0.0
 11
1102.309512949048
 21
2277.611406092286
 31
0.0
  0
SOLID
  5
14CF
330
1F
100
AcDbEntity
  8
SUNPO
 62
   144
100
AcDbTrace
 10
1098.976179615715
 20
2487.611406092286
 30
0.0
 11
1105.642846282381
 21
2487.611406092286
 31
0.0
 12
1102.309512949048
 22
2507.611406092286
 32
0.0
 13
1102.309512949048
 23
2507.611406092286
 33
0.0
  0
SOLID
  5
14D0
330
1F
100
AcDbEntity
  8
SUNPO
 62
   144
100
AcDbTrace
 10
1098.976179615715
 20
2277.611406092286
 30
0.0
 11
1105.642846282381
 21
2277.611406092286
 31
0.0
 12
1102.309512949048
 22
2257.611406092286
 32
0.0
 13
1102.309512949048
 23
2257.611406092286
 33
0.0
  0
LINE
  5
14D2
330
1F
100
AcDbEntity
  8
SUNPO
 62
   144
100
AcDbLine
 10
2092.385580240553
 20
2287.611406092286
 30
0.0
 11
2308.332681586604
 21
2287.611406092286
 31
0.0
  0
LINE
  5
14D3
330
1F
100
AcDbEntity
  8
SUNPO
 62
   144
100
AcDbLine
 10
2092.385580240553
 20
2137.611406092286
 30
0.0
 11
2308.332681586604
 21
2137.611406092286
 31
0.0
  0
LINE
  5
14D4
330
1F
100
AcDbEntity
  8
SUNPO
 62
   144
100
AcDbLine
 10
2298.332681586603
 20
2267.611406092286
 30
0.0
 11
2298.332681586603
 21
2157.611406092286
 31
0.0
  0
SOLID
  5
14D5
330
1F
100
AcDbEntity
  8
SUNPO
 62
   144
100
AcDbTrace
 10
2294.99934825327
 20
2267.611406092286
 30
0.0
 11
2301.666014919937
 21
2267.611406092286
 31
0.0
 12
2298.332681586603
 22
2287.611406092286
 32
0.0
 13
2298.332681586603
 23
2287.611406092286
 33
0.0
  0
SOLID
  5
14D6
330
1F
100
AcDbEntity
  8
SUNPO
 62
   144
100
AcDbTrace
 10
2294.99934825327
 20
2157.611406092286
 30
0.0
 11
2301.666014919937
 21
2157.611406092286
 31
0.0
 12
2298.332681586603
 22
2137.611406092286
 32
0.0
 13
2298.332681586603
 23
2137.611406092286
 33
0.0
  0
LINE
  5
14D8
330
1F
100
AcDbEntity
  8
SUNPO
 62
   144
100
AcDbLine
 10
1572.385580240554
 20
2277.611406092286
 30
0.0
 11
1572.385580240554
 21
2866.958461245114
 31
0.0
  0
LINE
  5
14D9
330
1F
100
AcDbEntity
  8
SUNPO
 62
   144
100
AcDbLine
 10
2072.385580240554
 20
2307.611406092286
 30
0.0
 11
2072.385580240554
 21
2866.958461245114
 31
0.0
  0
LINE
  5
14DA
330
1F
100
AcDbEntity
  8
SUNPO
 62
   144
100
AcDbLine
 10
1592.385580240554
 20
2856.958461245114
 30
0.0
 11
2052.385580240554
 21
2856.958461245114
 31
0.0
  0
SOLID
  5
14DB
330
1F
100
AcDbEntity
  8
SUNPO
 62
   144
100
AcDbTrace
 10
1592.385580240554
 20
2860.291794578447
 30
0.0
 11
1592.385580240554
 21
2853.625127911781
 31
0.0
 12
1572.385580240554
 22
2856.958461245114
 32
0.0
 13
1572.385580240554
 23
2856.958461245114
 33
0.0
  0
SOLID
  5
14DC
330
1F
100
AcDbEntity
  8
SUNPO
 62
   144
100
AcDbTrace
 10
2052.385580240554
 20
2860.291794578447
 30
0.0
 11
2052.385580240554
 21
2853.625127911781
 31
0.0
 12
2072.385580240554
 22
2856.958461245114
 32
0.0
 13
2072.385580240554
 23
2856.958461245114
 33
0.0
  0
LINE
  5
14DE
330
1F
100
AcDbEntity
  8
SUNPO
 62
   144
100
AcDbLine
 10
1547.385580240554
 20
2527.611406092286
 30
0.0
 11
1547.385580240554
 21
2866.958461245114
 31
0.0
  0
LINE
  5
14DF
330
1F
100
AcDbEntity
  8
SUNPO
 62
   144
100
AcDbLine
 10
1572.385580240554
 20
2277.611406092286
 30
0.0
 11
1572.385580240554
 21
2866.958461245114
 31
0.0
  0
LINE
  5
14E0
330
1F
100
AcDbEntity
  8
SUNPO
 62
   144
100
AcDbLine
 10
1527.385580240554
 20
2856.958461245114
 30
0.0
 11
1507.385580240554
 21
2856.958461245114
 31
0.0
  0
LINE
  5
14E1
330
1F
100
AcDbEntity
  8
SUNPO
 62
   144
100
AcDbLine
 10
1592.385580240554
 20
2856.958461245114
 30
0.0
 11
1612.385580240554
 21
2856.958461245114
 31
0.0
  0
LINE
  5
14E2
330
1F
100
AcDbEntity
  8
SUNPO
 62
   144
100
AcDbLine
 10
1547.385580240554
 20
2856.958461245114
 30
0.0
 11
1572.385580240554
 21
2856.958461245114
 31
0.0
  0
SOLID
  5
14E3
330
1F
100
AcDbEntity
  8
SUNPO
 62
   144
100
AcDbTrace
 10
1527.385580240554
 20
2860.291794578447
 30
0.0
 11
1527.385580240554
 21
2853.625127911781
 31
0.0
 12
1547.385580240554
 22
2856.958461245114
 32
0.0
 13
1547.385580240554
 23
2856.958461245114
 33
0.0
  0
SOLID
  5
14E4
330
1F
100
AcDbEntity
  8
SUNPO
 62
   144
100
AcDbTrace
 10
1592.385580240554
 20
2860.291794578447
 30
0.0
 11
1592.385580240554
 21
2853.625127911781
 31
0.0
 12
1572.385580240554
 22
2856.958461245114
 32
0.0
 13
1572.385580240554
 23
2856.958461245114
 33
0.0
  0
LINE
  5
14E6
330
1F
100
AcDbEntity
  8
SUNPO
 62
   144
100
AcDbLine
 10
1367.385580240554
 20
2527.611406092286
 30
0.0
 11
1367.385580240554
 21
2866.958461245114
 31
0.0
  0
LINE
  5
14E7
330
1F
100
AcDbEntity
  8
SUNPO
 62
   144
100
AcDbLine
 10
1547.385580240554
 20
2527.611406092286
 30
0.0
 11
1547.385580240554
 21
2866.958461245114
 31
0.0
  0
LINE
  5
14E8
330
1F
100
AcDbEntity
  8
SUNPO
 62
   144
100
AcDbLine
 10
1387.385580240554
 20
2856.958461245114
 30
0.0
 11
1527.385580240554
 21
2856.958461245114
 31
0.0
  0
SOLID
  5
14E9
330
1F
100
AcDbEntity
  8
SUNPO
 62
   144
100
AcDbTrace
 10
1387.385580240554
 20
2860.291794578447
 30
0.0
 11
1387.385580240554
 21
2853.625127911781
 31
0.0
 12
1367.385580240554
 22
2856.958461245114
 32
0.0
 13
1367.385580240554
 23
2856.958461245114
 33
0.0
  0
SOLID
  5
14EA
330
1F
100
AcDbEntity
  8
SUNPO
 62
   144
100
AcDbTrace
 10
1527.385580240554
 20
2860.291794578447
 30
0.0
 11
1527.385580240554
 21
2853.625127911781
 31
0.0
 12
1547.385580240554
 22
2856.958461245114
 32
0.0
 13
1547.385580240554
 23
2856.958461245114
 33
0.0
  0
LINE
  5
14EC
330
1F
100
AcDbEntity
  8
SUNPO
 62
   144
100
AcDbLine
 10
1552.385580240554
 20
2257.611406092286
 30
0.0
 11
1092.309512949048
 21
2257.611406092286
 31
0.0
  0
LINE
  5
14ED
330
1F
100
AcDbEntity
  8
SUNPO
 62
   144
100
AcDbLine
 10
1552.385580240554
 20
2137.611406092286
 30
0.0
 11
1092.309512949048
 21
2137.611406092286
 31
0.0
  0
LINE
  5
14EE
330
1F
100
AcDbEntity
  8
SUNPO
 62
   144
100
AcDbLine
 10
1102.309512949048
 20
2277.611406092286
 30
0.0
 11
1102.309512949048
 21
2297.611406092286
 31
0.0
  0
LINE
  5
14EF
330
1F
100
AcDbEntity
  8
SUNPO
 62
   144
100
AcDbLine
 10
1102.309512949048
 20
2117.611406092286
 30
0.0
 11
1102.309512949048
 21
2097.611406092286
 31
0.0
  0
LINE
  5
14F0
330
1F
100
AcDbEntity
  8
SUNPO
 62
   144
100
AcDbLine
 10
1102.309512949048
 20
2257.611406092286
 30
0.0
 11
1102.309512949048
 21
2137.611406092286
 31
0.0
  0
SOLID
  5
14F1
330
1F
100
AcDbEntity
  8
SUNPO
 62
   144
100
AcDbTrace
 10
1098.976179615715
 20
2277.611406092286
 30
0.0
 11
1105.642846282381
 21
2277.611406092286
 31
0.0
 12
1102.309512949048
 22
2257.611406092286
 32
0.0
 13
1102.309512949048
 23
2257.611406092286
 33
0.0
  0
SOLID
  5
14F2
330
1F
100
AcDbEntity
  8
SUNPO
 62
   144
100
AcDbTrace
 10
1098.976179615715
 20
2117.611406092286
 30
0.0
 11
1105.642846282381
 21
2117.611406092286
 31
0.0
 12
1102.309512949048
 22
2137.611406092286
 32
0.0
 13
1102.309512949048
 23
2137.611406092286
 33
0.0
  0
TEXT
  5
14F4
330
1F
100
AcDbEntity
  8
SUNPO
100
AcDbText
 10
479.769955436197
 20
364.6805196678378
 30
0.0
 40
80.0
  1
道路用鉄筋コンクリートＬ形側溝２種
  7
ADD
100
AcDbText
1001
ACAD
1000
MTEXTBEGIN
1070
    73
1070
     1
1070
    44
1040
1.0
1070
    74
1070
     0
1000
MTEXTEND
1000
MTEXTBEGIN
1070
    73
1070
     1
1070
    44
1040
1.0
1070
    74
1070
     0
1000
MTEXTEND
1000
MTEXTBEGIN
1070
    73
1070
     1
1070
    44
1040
1.0
1070
    74
1070
     0
1000
MTEXTEND
1000
MTEXTBEGIN
1070
    73
1070
     1
1070
    44
1040
1.0
1070
    74
1070
     0
1000
MTEXTEND
1000
MTEXTBEGIN
1070
    73
1070
     1
1070
    44
1040
1.0
1070
    74
1070
     0
1000
MTEXTEND
  0
TEXT
  5
14F5
330
1F
100
AcDbEntity
  8
SUNPO
100
AcDbText
 10
3246.680311730542
 20
359.2274732162223
 30
0.0
 40
70.0
  1
１／２０
  7
ADD
100
AcDbText
1001
ACAD
1000
MTEXTBEGIN
1070
    73
1070
     1
1070
    44
1040
1.0
1070
    74
1070
     0
1000
MTEXTEND
1000
MTEXTBEGIN
1070
    73
1070
     1
1070
    44
1040
1.0
1070
    74
1070
     0
1000
MTEXTEND
1000
MTEXTBEGIN
1070
    73
1070
     1
1070
    44
1040
1.0
1070
    74
1070
     0
1000
MTEXTEND
1000
MTEXTBEGIN
1070
    73
1070
     1
1070
    44
1040
1.0
1070
    74
1070
     0
1000
MTEXTEND
1000
MTEXTBEGIN
1070
    73
1070
     1
1070
    44
1040
1.0
1070
    74
1070
     0
1000
MTEXTEND
1000
MTEXTBEGIN
1070
    73
1070
     1
1070
    44
1040
1.0
1070
    74
1070
     0
1000
MTEXTEND
1000
MTEXTBEGIN
1070
    73
1070
     1
1070
    44
1040
1.0
1070
    74
1070
     0
1000
MTEXTEND
1000
MTEXTBEGIN
1070
    73
1070
     1
1070
    44
1040
1.0
1070
    74
1070
     0
1000
MTEXTEND
1000
MTEXTBEGIN
1070
    73
1070
     1
1070
    44
1040
1.0
1070
    74
1070
     0
1000
MTEXTEND
1000
MTEXTBEGIN
1070
    73
1070
     1
1070
    44
1040
1.0
1070
    74
1070
     0
1000
MTEXTEND
  0
TEXT
  5
14F6
330
1F
100
AcDbEntity
  8
SUNPO
100
AcDbText
 10
381.8862574011546
 20
488.6918916770627
 30
0.0
 40
50.0
  1
製品名
  7
ADD
100
AcDbText
1001
ACAD
1000
MTEXTBEGIN
1070
    73
1070
     1
1070
    44
1040
1.0
1070
    74
1070
     0
1000
MTEXTEND
1000
MTEXTBEGIN
1070
    73
1070
     1
1070
    44
1040
1.0
1070
    74
1070
     0
1000
MTEXTEND
1000
MTEXTBEGIN
1070
    73
1070
     1
1070
    44
1040
1.0
1070
    74
1070
     0
1000
MTEXTEND
1000
MTEXTBEGIN
1070
    73
1070
     1
1070
    44
1040
1.0
1070
    74
1070
     0
1000
MTEXTEND
1000
MTEXTBEGIN
1070
    73
1070
     1
1070
    44
1040
1.0
1070
    74
1070
     0
1000
MTEXTEND
1000
MTEXTBEGIN
1070
    73
1070
     1
1070
    44
1040
1.0
1070
    74
1070
     0
1000
MTEXTEND
1000
MTEXTBEGIN
1070
    73
1070
     1
1070
    44
1040
1.0
1070
    74
1070
     0
1000
MTEXTEND
1000
MTEXTBEGIN
1070
    73
1070
     1
1070
    44
1040
1.0
1070
    74
1070
     0
1000
MTEXTEND
1000
MTEXTBEGIN
1070
    73
1070
     1
1070
    44
1040
1.0
1070
    74
1070
     0
1000
MTEXTEND
1000
MTEXTBEGIN
1070
    73
1070
     1
1070
    44
1040
1.0
1070
    74
1070
     0
1000
MTEXTEND
  0
TEXT
  5
14F7
330
1F
100
AcDbEntity
  8
SUNPO
100
AcDbText
 10
2376.290169028722
 20
494.4531736811823
 30
0.0
 40
50.0
  1
型式
  7
ADD
100
AcDbText
1001
ACAD
1000
MTEXTBEGIN
1070
    73
1070
     1
1070
    44
1040
1.0
1070
    74
1070
     0
1000
MTEXTEND
1000
MTEXTBEGIN
1070
    73
1070
     1
1070
    44
1040
1.0
1070
    74
1070
     0
1000
MTEXTEND
1000
MTEXTBEGIN
1070
    73
1070
     1
1070
    44
1040
1.0
1070
    74
1070
     0
1000
MTEXTEND
1000
MTEXTBEGIN
1070
    73
1070
     1
1070
    44
1040
1.0
1070
    74
1070
     0
1000
MTEXTEND
1000
MTEXTBEGIN
1070
    73
1070
     1
1070
    44
1040
1.0
1070
    74
1070
     0
1000
MTEXTEND
1000
MTEXTBEGIN
1070
    73
1070
     1
1070
    44
1040
1.0
1070
    74
1070
     0
1000
MTEXTEND
1000
MTEXTBEGIN
1070
    73
1070
     1
1070
    44
1040
1.0
1070
    74
1070
     0
1000
MTEXTEND
1000
MTEXTBEGIN
1070
    73
1070
     1
1070
    44
1040
1.0
1070
    74
1070
     0
1000
MTEXTEND
1000
MTEXTBEGIN
1070
    73
1070
     1
1070
    44
1040
1.0
1070
    74
1070
     0
1000
MTEXTEND
1000
MTEXTBEGIN
1070
    73
1070
     1
1070
    44
1040
1.0
1070
    74
1070
     0
1000
MTEXTEND
  0
TEXT
  5
14F8
330
1F
100
AcDbEntity
  8
SUNPO
100
AcDbText
 10
3177.510249231658
 20
488.6918916770627
 30
0.0
 40
50.0
  1
縮尺
  7
ADD
100
AcDbText
1001
ACAD
1000
MTEXTBEGIN
1070
    73
1070
     1
1070
    44
1040
1.0
1070
    74
1070
     0
1000
MTEXTEND
1000
MTEXTBEGIN
1070
    73
1070
     1
1070
    44
1040
1.0
1070
    74
1070
     0
1000
MTEXTEND
1000
MTEXTBEGIN
1070
    73
1070
     1
1070
    44
1040
1.0
1070
    74
1070
     0
1000
MTEXTEND
1000
MTEXTBEGIN
1070
    73
1070
     1
1070
    44
1040
1.0
1070
    74
1070
     0
1000
MTEXTEND
1000
MTEXTBEGIN
1070
    73
1070
     1
1070
    44
1040
1.0
1070
    74
1070
     0
1000
MTEXTEND
1000
MTEXTBEGIN
1070
    73
1070
     1
1070
    44
1040
1.0
1070
    74
1070
     0
1000
MTEXTEND
1000
MTEXTBEGIN
1070
    73
1070
     1
1070
    44
1040
1.0
1070
    74
1070
     0
1000
MTEXTEND
1000
MTEXTBEGIN
1070
    73
1070
     1
1070
    44
1040
1.0
1070
    74
1070
     0
1000
MTEXTEND
1000
MTEXTBEGIN
1070
    73
1070
     1
1070
    44
1040
1.0
1070
    74
1070
     0
1000
MTEXTEND
1000
MTEXTBEGIN
1070
    73
1070
     1
1070
    44
1040
1.0
1070
    74
1070
     0
1000
MTEXTEND
  0
TEXT
  5
14F9
330
1F
100
AcDbEntity
  8
SUNPO
100
AcDbText
 10
3730.870883051572
 20
352.2726133092145
 30
0.0
 40
100.0
  1
千葉県コンクリート製品協同組合
  7
ADD
100
AcDbText
1001
ACAD
1000
MTEXTBEGIN
1070
    73
1070
     1
1070
    44
1040
1.0
1070
    74
1070
     0
1000
MTEXTEND
1000
MTEXTBEGIN
1070
    73
1070
     1
1070
    44
1040
1.0
1070
    74
1070
     0
1000
MTEXTEND
1000
MTEXTBEGIN
1070
    73
1070
     1
1070
    44
1040
1.0
1070
    74
1070
     0
1000
MTEXTEND
1000
MTEXTBEGIN
1070
    73
1070
     1
1070
    44
1040
1.0
1070
    74
1070
     0
1000
MTEXTEND
1000
MTEXTBEGIN
1070
    73
1070
     1
1070
    44
1040
1.0
1070
    74
1070
     0
1000
MTEXTEND
1000
MTEXTBEGIN
1070
    73
1070
     1
1070
    44
1040
1.0
1070
    74
1070
     0
1000
MTEXTEND
1000
MTEXTBEGIN
1070
    73
1070
     1
1070
    44
1040
1.0
1070
    74
1070
     0
1000
MTEXTEND
1000
MTEXTBEGIN
1070
    73
1070
     1
1070
    44
1040
1.0
1070
    74
1070
     0
1000
MTEXTEND
1000
MTEXTBEGIN
1070
    73
1070
     1
1070
    44
1040
1.0
1070
    74
1070
     0
1000
MTEXTEND
1000
MTEXTBEGIN
1070
    73
1070
     1
1070
    44
1040
1.0
1070
    74
1070
     0
1000
MTEXTEND
  0
LINE
  5
14FA
330
1F
100
AcDbEntity
  8
HOJO
100
AcDbLine
 10
360.0
 20
260.0
 30
0.0
 11
5580.0
 21
260.0
 31
0.0
  0
LINE
  5
14FB
330
1F
100
AcDbEntity
  8
HOJO
100
AcDbLine
 10
5580.0
 20
260.0
 30
0.0
 11
5580.0
 21
3940.0
 31
0.0
  0
LINE
  5
14FC
330
1F
100
AcDbEntity
  8
HOJO
100
AcDbLine
 10
5580.0
 20
3940.0
 30
0.0
 11
360.0
 21
3940.0
 31
0.0
  0
LINE
  5
14FD
330
1F
100
AcDbEntity
  8
HOJO
100
AcDbLine
 10
360.0
 20
3940.0
 30
0.0
 11
360.0
 21
260.0
 31
0.0
  0
LINE
  5
14FE
330
1F
100
AcDbEntity
  8
HOJO
100
AcDbLine
 10
0.0
 20
0.0
 30
0.0
 11
5940.0
 21
0.0
 31
0.0
  0
LINE
  5
14FF
330
1F
100
AcDbEntity
  8
HOJO
100
AcDbLine
 10
5940.0
 20
0.0
 30
0.0
 11
5940.0
 21
4200.0
 31
0.0
  0
LINE
  5
1500
330
1F
100
AcDbEntity
  8
HOJO
100
AcDbLine
 10
5940.0
 20
4200.0
 30
0.0
 11
0.0
 21
4200.0
 31
0.0
  0
LINE
  5
1501
330
1F
100
AcDbEntity
  8
HOJO
100
AcDbLine
 10
0.0
 20
4200.0
 30
0.0
 11
0.0
 21
0.0
 31
0.0
  0
TEXT
  5
1502
330
1F
100
AcDbEntity
  8
SUNPO
 62
     7
100
AcDbText
 10
1089.809512949048
 20
2137.611406092287
 30
0.0
 40
40.0
  1
120
 50
90.0
  7
ADD
100
AcDbText
1001
ACAD
1000
MTEXTBEGIN
1070
    73
1070
     1
1070
    44
1040
1.0
1070
    74
1070
     0
1000
MTEXTEND
1000
MTEXTBEGIN
1070
    73
1070
     1
1070
    44
1040
1.0
1070
    74
1070
     0
1000
MTEXTEND
  0
TEXT
  5
1503
330
1F
100
AcDbEntity
  8
SUNPO
 62
     7
100
AcDbText
 10
1397.385580240554
 20
2869.458461245114
 30
0.0
 40
40.0
  1
180
  7
ADD
100
AcDbText
1001
ACAD
1000
MTEXTBEGIN
1070
    73
1070
     1
1070
    44
1040
1.0
1070
    74
1070
     0
1000
MTEXTEND
1000
MTEXTBEGIN
1070
    73
1070
     1
1070
    44
1040
1.0
1070
    74
1070
     0
1000
MTEXTEND
  0
TEXT
  5
1504
330
1F
100
AcDbEntity
  8
SUNPO
 62
     7
100
AcDbText
 10
1521.790342145316
 20
2869.458461245114
 30
0.0
 40
40.0
  1
25
  7
ADD
100
AcDbText
1001
ACAD
1000
MTEXTBEGIN
1070
    73
1070
     1
1070
    44
1040
1.0
1070
    74
1070
     0
1000
MTEXTEND
1000
MTEXTBEGIN
1070
    73
1070
     1
1070
    44
1040
1.0
1070
    74
1070
     0
1000
MTEXTEND
  0
TEXT
  5
1505
330
1F
100
AcDbEntity
  8
SUNPO
 62
     7
100
AcDbText
 10
1765.242723097697
 20
2869.458461245114
 30
0.0
 40
40.0
  1
500
  7
ADD
100
AcDbText
1001
ACAD
1000
MTEXTBEGIN
1070
    73
1070
     1
1070
    44
1040
1.0
1070
    74
1070
     0
1000
MTEXTEND
1000
MTEXTBEGIN
1070
    73
1070
     1
1070
    44
1040
1.0
1070
    74
1070
     0
1000
MTEXTEND
  0
TEXT
  5
1506
330
1F
100
AcDbEntity
  8
SUNPO
 62
     7
100
AcDbText
 10
2285.832681586603
 20
2152.611406092286
 30
0.0
 40
40.0
  1
150
 50
90.0
  7
ADD
100
AcDbText
1001
ACAD
1000
MTEXTBEGIN
1070
    73
1070
     1
1070
    44
1040
1.0
1070
    74
1070
     0
1000
MTEXTEND
1000
MTEXTBEGIN
1070
    73
1070
     1
1070
    44
1040
1.0
1070
    74
1070
     0
1000
MTEXTEND
  0
TEXT
  5
1507
330
1F
100
AcDbEntity
  8
SUNPO
 62
     7
100
AcDbText
 10
1089.809512949048
 20
2325.468548949429
 30
0.0
 40
40.0
  1
250
 50
90.0
  7
ADD
100
AcDbText
1001
ACAD
1000
MTEXTBEGIN
1070
    73
1070
     1
1070
    44
1040
1.0
1070
    74
1070
     0
1000
MTEXTEND
1000
MTEXTBEGIN
1070
    73
1070
     1
1070
    44
1040
1.0
1070
    74
1070
     0
1000
MTEXTEND
  0
TEXT
  5
1508
330
1F
100
AcDbEntity
  8
SUNPO
 62
     7
100
AcDbText
 10
915.0658641010464
 20
2265.468548949429
 30
0.0
 40
40.0
  1
370
 50
90.0
  7
ADD
100
AcDbText
1001
ACAD
1000
MTEXTBEGIN
1070
    73
1070
     1
1070
    44
1040
1.0
1070
    74
1070
     0
1000
MTEXTEND
1000
MTEXTBEGIN
1070
    73
1070
     1
1070
    44
1040
1.0
1070
    74
1070
     0
1000
MTEXTEND
  0
TEXT
  5
1509
330
1F
100
AcDbEntity
  8
SUNPO
 62
     7
100
AcDbText
 10
1565.175103339959
 20
2538.798658278524
 30
0.0
 40
40.0
  1
R30
 50
44.22738078141025
  7
ADD
100
AcDbText
1001
ACAD
1000
MTEXTBEGIN
1070
    73
1070
     1
1070
    44
1040
1.0
1070
    74
1070
     0
1000
MTEXTEND
1000
MTEXTBEGIN
1070
    73
1070
     1
1070
    44
1040
1.0
1070
    74
1070
     0
1000
MTEXTEND
  0
TEXT
  5
150A
330
1F
100
AcDbEntity
  8
SUNPO
 62
     7
100
AcDbText
 10
1483.264712477319
 20
2129.850280608907
 30
0.0
 40
40.0
  1
R20
 50
58.17496135535522
  7
ADD
100
AcDbText
1001
ACAD
1000
MTEXTBEGIN
1070
    73
1070
     1
1070
    44
1040
1.0
1070
    74
1070
     0
1000
MTEXTEND
1000
MTEXTBEGIN
1070
    73
1070
     1
1070
    44
1040
1.0
1070
    74
1070
     0
1000
MTEXTEND
  0
TEXT
  5
150B
330
1F
100
AcDbEntity
  8
SUNPO
 62
     7
100
AcDbText
 10
1662.742723097696
 20
1854.96933083855
 30
0.0
 40
40.0
  1
705
  7
ADD
100
AcDbText
1001
ACAD
1000
MTEXTBEGIN
1070
    73
1070
     1
1070
    44
1040
1.0
1070
    74
1070
     0
1000
MTEXTEND
  0
TEXT
  5
150C
330
1F
100
AcDbEntity
  8
SUNPO
 62
     7
100
AcDbText
 10
3845.015674677987
 20
1854.96933083855
 30
0.0
 40
40.0
  1
2000
  7
ADD
100
AcDbText
1001
ACAD
1000
MTEXTBEGIN
1070
    73
1070
     1
1070
    44
1040
1.0
1070
    74
1070
     0
1000
MTEXTEND
  0
VIEWPORT
  5
72
330
1B
100
AcDbEntity
 67
     1
  8
0
100
AcDbViewport
 10
429.8380103383459
 20
277.0
 30
0.0
 40
948.9782706766918
 41
628.4520000000001
 68
     1
 69
     1
1001
ACAD
1000
MVIEW
1002
{
1070
    16
1010
0.0
1020
0.0
1030
0.0
1010
0.0
1020
0.0
1030
1.0
1040
0.0
1040
628.4520000000001
1040
429.8380103383459
1040
277.0
1040
50.0
1040
0.0
1040
0.0
1070
     0
1070
   100
1070
     1
1070
     1
1070
     0
1070
     0
1070
     0
1070
     0
1040
0.0
1040
0.0
1040
0.0
1040
10.0
1040
10.0
1040
10.0
1040
10.0
1070
     0
1002
{
1002
}
1002
}
  0
VIEWPORT
  5
74
330
1B
100
AcDbEntity
 67
     1
  8
VIEWPORT
100
AcDbViewport
 10
414.3779638919211
 20
277.3177265058034
 30
0.0
 40
840.0353682728887
 41
567.2285469943826
 68
     2
 69
     2
1001
ACAD
1000
MVIEW
1002
{
1070
    16
1010
0.0
1020
0.0
1030
0.0
1010
0.0
1020
0.0
1030
1.0
1040
0.0
1040
579.5583043546323
1040
424.4938908624541
1040
286.1973242720074
1040
50.0
1040
0.0
1040
0.0
1070
     0
1070
   100
1070
     1
1070
     1
1070
     0
1070
     0
1070
     0
1070
     0
1040
0.0
1040
0.0
1040
0.0
1040
10.0
1040
10.0
1040
10.0
1040
10.0
1070
     0
1002
{
1002
}
1002
}
  0
ENDSEC
  0
SECTION
  2
OBJECTS
  0
DICTIONARY
  5
C
330
0
100
AcDbDictionary
  3
ACAD_GROUP
350
D
  3
ACAD_LAYOUT
350
1A
  3
ACAD_MLINESTYLE
350
17
  3
ACAD_PLOTSETTINGS
350
19
  3
DWGPROPS
350
4C7
1001
ACAD
1000
TREAT_AS_HARD
1070
     0
  0
DICTIONARY
  5
65D
330
1F
100
AcDbDictionary
  3
ACAD_LAYOUTSELFREF
350
150F
1001
ACAD
1000
TREAT_AS_HARD
1070
     1
  0
DICTIONARY
  5
65F
330
1B
100
AcDbDictionary
  3
ACAD_LAYOUTSELFREF
350
150E
1001
ACAD
1000
TREAT_AS_HARD
1070
     1
  0
DICTIONARY
  5
D
102
{ACAD_REACTORS
330
C
102
}
330
C
100
AcDbDictionary
1001
ACAD
1000
TREAT_AS_HARD
1070
     0
  0
DICTIONARY
  5
1A
102
{ACAD_REACTORS
330
C
102
}
330
C
100
AcDbDictionary
1001
ACAD
1000
TREAT_AS_HARD
1070
     0
  0
DICTIONARY
  5
17
102
{ACAD_REACTORS
330
C
102
}
330
C
100
AcDbDictionary
  3
STANDARD
350
18
1001
ACAD
1000
TREAT_AS_HARD
1070
     0
  0
DICTIONARY
  5
19
102
{ACAD_REACTORS
330
C
102
}
330
C
100
AcDbDictionary
1001
ACAD
1000
TREAT_AS_HARD
1070
     0
  0
XRECORD
  5
4C7
102
{ACAD_REACTORS
330
C
102
}
330
C
100
AcDbXrecord
  1
DWGPROPS COOKIE
  2
印刷用テスト
  3
AutoCAD2000による建築設計
  4
鈴木 裕二
  6

  7

  8
U2
  9

300
=
301
=
302
=
303
=
304
=
305
=
306
=
307
=
308
=
309
=
 40
0.7653446875
 41
2451285.4846114
 42
2451333.689743032
  1

 90
        0
  0
XRECORD
  5
150F
102
{ACAD_REACTORS
330
65D
102
}
330
65D
100
AcDbXrecord
340
1F
  0
XRECORD
  5
150E
102
{ACAD_REACTORS
330
65F
102
}
330
65F
100
AcDbXrecord
340
1B
  0
MLINESTYLE
  5
18
102
{ACAD_REACTORS
330
17
102
}
330
17
100
AcDbMlineStyle
  2
STANDARD
 70
     0
  3

 62
   256
 51
90.0
 52
90.0
 71
     2
 49
0.5
 62
   256
  6
BYLAYER
 49
-0.5
 62
   256
  6
BYLAYER
  0
ENDSEC
  0
EOF
