  0
SECTION
  2
HEADER
  9
$ACADVER
  1
AC1012
  9
$DWGCODEPAGE
  3
dos932
  9
$INSBASE
 10
0.0
 20
0.0
 30
0.0
  9
$EXTMIN
 10
-0.1812605841350887
 20
-0.1281640493871237
 30
-0.0015258207003583
  9
$EXTMAX
 10
5940.181288244414
 20
4200.128183607161
 30
0.0000000349246037
  9
$LIMMIN
 10
0.0
 20
0.0
  9
$LIMMAX
 10
5940.0
 20
4200.0
  9
$ORTHOMODE
 70
     0
  9
$REGENMODE
 70
     1
  9
$FILLMODE
 70
     1
  9
$QTEXTMODE
 70
     0
  9
$MIRRTEXT
 70
     0
  9
$DRAGMODE
 70
     2
  9
$LTSCALE
 40
10.0
  9
$OSMODE
 70
    37
  9
$ATTMODE
 70
     1
  9
$TEXTSIZE
 40
50.0
  9
$TRACEWID
 40
1.0
  9
$TEXTSTYLE
  7
ADD
  9
$CLAYER
  8
3C1
  9
$CELTYPE
  6
BYLAYER
  9
$CECOLOR
 62
   256
  9
$CELTSCALE
 40
1.0
  9
$DELOBJ
 70
     1
  9
$DISPSILH
 70
     0
  9
$DIMSCALE
 40
20.0
  9
$DIMASZ
 40
2.5
  9
$DIMEXO
 40
1.0
  9
$DIMDLI
 40
7.0
  9
$DIMRND
 40
0.0
  9
$DIMDLE
 40
0.0
  9
$DIMEXE
 40
0.5
  9
$DIMTP
 40
0.0
  9
$DIMTM
 40
0.0
  9
$DIMTXT
 40
2.5
  9
$DIMCEN
 40
2.5
  9
$DIMTSZ
 40
0.0
  9
$DIMTOL
 70
     0
  9
$DIMLIM
 70
     0
  9
$DIMTIH
 70
     0
  9
$DIMTOH
 70
     0
  9
$DIMSE1
 70
     0
  9
$DIMSE2
 70
     0
  9
$DIMTAD
 70
     1
  9
$DIMZIN
 70
     8
  9
$DIMBLK
  1

  9
$DIMASO
 70
     1
  9
$DIMSHO
 70
     1
  9
$DIMPOST
  1

  9
$DIMAPOST
  1

  9
$DIMALT
 70
     0
  9
$DIMALTD
 70
     3
  9
$DIMALTF
 40
0.03937007874016
  9
$DIMLFAC
 40
1.0
  9
$DIMTOFL
 70
     1
  9
$DIMTVP
 40
0.7
  9
$DIMTIX
 70
     1
  9
$DIMSOXD
 70
     0
  9
$DIMSAH
 70
     0
  9
$DIMBLK1
  1

  9
$DIMBLK2
  1

  9
$DIMSTYLE
  2
ADD
  9
$DIMCLRD
 70
   144
  9
$DIMCLRE
 70
   144
  9
$DIMCLRT
 70
     7
  9
$DIMTFAC
 40
1.0
  9
$DIMGAP
 40
0.625
  9
$DIMJUST
 70
     0
  9
$DIMSD1
 70
     0
  9
$DIMSD2
 70
     0
  9
$DIMTOLJ
 70
     2
  9
$DIMTZIN
 70
     8
  9
$DIMALTZ
 70
     0
  9
$DIMALTTZ
 70
     0
  9
$DIMFIT
 70
     3
  9
$DIMUPT
 70
     0
  9
$DIMUNIT
 70
     2
  9
$DIMDEC
 70
     1
  9
$DIMTDEC
 70
     1
  9
$DIMALTU
 70
     2
  9
$DIMALTTD
 70
     3
  9
$DIMTXSTY
  7
ADD
  9
$DIMAUNIT
 70
     0
  9
$LUNITS
 70
     2
  9
$LUPREC
 70
     4
  9
$SKETCHINC
 40
1.0
  9
$FILLETRAD
 40
30.0
  9
$AUNITS
 70
     0
  9
$AUPREC
 70
     1
  9
$MENU
  1
.
  9
$ELEVATION
 40
0.0
  9
$PELEVATION
 40
0.0
  9
$THICKNESS
 40
0.0
  9
$LIMCHECK
 70
     0
  9
$BLIPMODE
 70
     0
  9
$CHAMFERA
 40
10.0
  9
$CHAMFERB
 40
10.0
  9
$CHAMFERC
 40
20.0
  9
$CHAMFERD
 40
0.0
  9
$SKPOLY
 70
     0
  9
$TDCREATE
 40
2451801.142532870
  9
$TDUPDATE
 40
2452542.425431030
  9
$TDINDWG
 40
0.2082625000
  9
$TDUSRTIMER
 40
0.2082622685
  9
$USRTIMER
 70
     1
  9
$ANGBASE
 50
0.0
  9
$ANGDIR
 70
     0
  9
$PDMODE
 70
     0
  9
$PDSIZE
 40
0.0
  9
$PLINEWID
 40
0.0
  9
$COORDS
 70
     1
  9
$SPLFRAME
 70
     0
  9
$SPLINETYPE
 70
     6
  9
$SPLINESEGS
 70
     8
  9
$ATTDIA
 70
     0
  9
$ATTREQ
 70
     1
  9
$HANDLING
 70
 22529
  9
$HANDSEED
  5
12D7
  9
$SURFTAB1
 70
     6
  9
$SURFTAB2
 70
     6
  9
$SURFTYPE
 70
     6
  9
$SURFU
 70
     6
  9
$SURFV
 70
     6
  9
$UCSNAME
  2

  9
$UCSORG
 10
0.0
 20
0.0
 30
0.0
  9
$UCSXDIR
 10
1.0
 20
0.0
 30
0.0
  9
$UCSYDIR
 10
0.0
 20
1.0
 30
0.0
  9
$PUCSNAME
  2

  9
$PUCSORG
 10
0.0
 20
0.0
 30
0.0
  9
$PUCSXDIR
 10
1.0
 20
0.0
 30
0.0
  9
$PUCSYDIR
 10
0.0
 20
1.0
 30
0.0
  9
$USERI1
 70
     0
  9
$USERI2
 70
     0
  9
$USERI3
 70
     0
  9
$USERI4
 70
     0
  9
$USERI5
 70
     0
  9
$USERR1
 40
841.0
  9
$USERR2
 40
594.0
  9
$USERR3
 40
1.0
  9
$USERR4
 40
0.0
  9
$USERR5
 40
0.0
  9
$WORLDVIEW
 70
     1
  9
$SHADEDGE
 70
     3
  9
$SHADEDIF
 70
    70
  9
$TILEMODE
 70
     1
  9
$MAXACTVP
 70
    48
  9
$PINSBASE
 10
0.0
 20
0.0
 30
0.0
  9
$PLIMCHECK
 70
     0
  9
$PEXTMIN
 10
-5.662975978526673
 20
-6.331907780761866
 30
-0.0015258207003583
  9
$PEXTMAX
 10
834.4213426047982
 20
560.9663709967471
 30
0.0000000349246037
  9
$PLIMMIN
 10
-7.5
 20
-20.0
  9
$PLIMMAX
 10
833.5000000000004
 20
574.0000000000001
  9
$UNITMODE
 70
     0
  9
$VISRETAIN
 70
     1
  9
$PLINEGEN
 70
     0
  9
$PSLTSCALE
 70
     1
  9
$TREEDEPTH
 70
  3020
  9
$PICKSTYLE
 70
     1
  9
$CMLSTYLE
  2
STANDARD
  9
$CMLJUST
 70
     0
  9
$CMLSCALE
 40
20.0
  9
$SAVEIMAGES
 70
     1
  0
ENDSEC
  0
SECTION
  2
CLASSES
  0
CLASS
  1
ACDBDICTIONARYWDFLT
  2
AcDbDictionaryWithDefault
  3
AutoCAD 2000
 90
    32768
280
     0
281
     0
  0
CLASS
  1
ACDBPLACEHOLDER
  2
AcDbPlaceHolder
  3
AutoCAD 2000
 90
    32768
280
     0
281
     0
  0
CLASS
  1
LAYOUT
  2
AcDbLayout
  3
AutoCAD 2000
 90
    32768
280
     0
281
     0
  0
CLASS
  1
RTEXT
  2
RText
  3
RText|AutoCAD Express Tool|expresstools@autodesk.com
 90
    32768
280
     0
281
     1
  0
CLASS
  1
DICTIONARYVAR
  2
AcDbDictionaryVar
  3
AutoCAD 2000
 90
    32768
280
     0
281
     0
  0
CLASS
  1
LONG_TRANSACTION
  2
AcDbLongTransaction
  3
AutoCAD 2000
 90
    32768
280
     0
281
     0
  0
CLASS
  1
LWPOLYLINE
  2
AcDbPolyline
  3
AutoCAD 2000
 90
    32768
280
     0
281
     1
  0
CLASS
  1
HATCH
  2
AcDbHatch
  3
AutoCAD 2000
 90
    32768
280
     0
281
     1
  0
CLASS
  1
XRECORD
  2
AcDbXrecord
  3
AutoCAD 2000
 90
    32768
280
     0
281
     0
  0
CLASS
  1
LONG_TRANSACTION
  2
AcDbLongTransaction
  3
AutoCAD 2000
 90
    32768
280
     0
281
     0
  0
CLASS
  1
LWPOLYLINE
  2
AcDbPolyline
  3
AutoCAD 2000
 90
    32768
280
     0
281
     1
  0
CLASS
  1
HATCH
  2
AcDbHatch
  3
AutoCAD 2000
 90
    32768
280
     0
281
     1
  0
CLASS
  1
XRECORD
  2
AcDbXrecord
  3
AutoCAD 2000
 90
    32768
280
     0
281
     0
  0
CLASS
  1
LONG_TRANSACTION
  2
AcDbLongTransaction
  3
AutoCAD 2000
 90
    32768
280
     0
281
     0
  0
CLASS
  1
LWPOLYLINE
  2
AcDbPolyline
  3
AutoCAD 2000
 90
    32768
280
     0
281
     1
  0
CLASS
  1
HATCH
  2
AcDbHatch
  3
AutoCAD 2000
 90
    32768
280
     0
281
     1
  0
CLASS
  1
XRECORD
  2
AcDbXrecord
  3
AutoCAD 2000
 90
    32768
280
     0
281
     0
  0
CLASS
  1
LONG_TRANSACTION
  2
AcDbLongTransaction
  3
AutoCAD 2000
 90
    32768
280
     0
281
     0
  0
CLASS
  1
LWPOLYLINE
  2
AcDbPolyline
  3
AutoCAD 2000
 90
    32768
280
     0
281
     1
  0
CLASS
  1
HATCH
  2
AcDbHatch
  3
AutoCAD 2000
 90
    32768
280
     0
281
     1
  0
CLASS
  1
XRECORD
  2
AcDbXrecord
  3
AutoCAD 2000
 90
    32768
280
     0
281
     0
  0
CLASS
  1
LONG_TRANSACTION
  2
AcDbLongTransaction
  3
AutoCAD 2000
 90
    32768
280
     0
281
     0
  0
CLASS
  1
LWPOLYLINE
  2
AcDbPolyline
  3
AutoCAD 2000
 90
    32768
280
     0
281
     1
  0
CLASS
  1
HATCH
  2
AcDbHatch
  3
AutoCAD 2000
 90
    32768
280
     0
281
     1
  0
CLASS
  1
XRECORD
  2
AcDbXrecord
  3
AutoCAD 2000
 90
    32768
280
     0
281
     0
  0
CLASS
  1
LONG_TRANSACTION
  2
AcDbLongTransaction
  3
AutoCAD 2000
 90
    32768
280
     0
281
     0
  0
CLASS
  1
LWPOLYLINE
  2
AcDbPolyline
  3
AutoCAD 2000
 90
    32768
280
     0
281
     1
  0
CLASS
  1
HATCH
  2
AcDbHatch
  3
AutoCAD 2000
 90
    32768
280
     0
281
     1
  0
CLASS
  1
XRECORD
  2
AcDbXrecord
  3
AutoCAD 2000
 90
    32768
280
     0
281
     0
  0
CLASS
  1
LONG_TRANSACTION
  2
AcDbLongTransaction
  3
AutoCAD 2000
 90
    32768
280
     0
281
     0
  0
CLASS
  1
LWPOLYLINE
  2
AcDbPolyline
  3
AutoCAD 2000
 90
    32768
280
     0
281
     1
  0
CLASS
  1
HATCH
  2
AcDbHatch
  3
AutoCAD 2000
 90
    32768
280
     0
281
     1
  0
CLASS
  1
XRECORD
  2
AcDbXrecord
  3
AutoCAD 2000
 90
    32768
280
     0
281
     0
  0
CLASS
  1
LONG_TRANSACTION
  2
AcDbLongTransaction
  3
AutoCAD 2000
 90
    32768
280
     0
281
     0
  0
CLASS
  1
LWPOLYLINE
  2
AcDbPolyline
  3
AutoCAD 2000
 90
    32768
280
     0
281
     1
  0
CLASS
  1
HATCH
  2
AcDbHatch
  3
AutoCAD 2000
 90
    32768
280
     0
281
     1
  0
CLASS
  1
XRECORD
  2
AcDbXrecord
  3
AutoCAD 2000
 90
    32768
280
     0
281
     0
  0
CLASS
  1
LONG_TRANSACTION
  2
AcDbLongTransaction
  3
AutoCAD 2000
 90
    32768
280
     0
281
     0
  0
CLASS
  1
LWPOLYLINE
  2
AcDbPolyline
  3
AutoCAD 2000
 90
    32768
280
     0
281
     1
  0
CLASS
  1
HATCH
  2
AcDbHatch
  3
AutoCAD 2000
 90
    32768
280
     0
281
     1
  0
CLASS
  1
XRECORD
  2
AcDbXrecord
  3
AutoCAD 2000
 90
    32768
280
     0
281
     0
  0
CLASS
  1
LONG_TRANSACTION
  2
AcDbLongTransaction
  3
AutoCAD 2000
 90
    32768
280
     0
281
     0
  0
CLASS
  1
LWPOLYLINE
  2
AcDbPolyline
  3
AutoCAD 2000
 90
    32768
280
     0
281
     1
  0
CLASS
  1
HATCH
  2
AcDbHatch
  3
AutoCAD 2000
 90
    32768
280
     0
281
     1
  0
CLASS
  1
XRECORD
  2
AcDbXrecord
  3
AutoCAD 2000
 90
    32768
280
     0
281
     0
  0
CLASS
  1
LONG_TRANSACTION
  2
AcDbLongTransaction
  3
AutoCAD 2000
 90
    32768
280
     0
281
     0
  0
CLASS
  1
LWPOLYLINE
  2
AcDbPolyline
  3
AutoCAD 2000
 90
    32768
280
     0
281
     1
  0
CLASS
  1
HATCH
  2
AcDbHatch
  3
AutoCAD 2000
 90
    32768
280
     0
281
     1
  0
CLASS
  1
XRECORD
  2
AcDbXrecord
  3
AutoCAD 2000
 90
    32768
280
     0
281
     0
  0
CLASS
  1
LONG_TRANSACTION
  2
AcDbLongTransaction
  3
AutoCAD 2000
 90
    32768
280
     0
281
     0
  0
CLASS
  1
LWPOLYLINE
  2
AcDbPolyline
  3
AutoCAD 2000
 90
    32768
280
     0
281
     1
  0
CLASS
  1
HATCH
  2
AcDbHatch
  3
AutoCAD 2000
 90
    32768
280
     0
281
     1
  0
CLASS
  1
XRECORD
  2
AcDbXrecord
  3
AutoCAD 2000
 90
    32768
280
     0
281
     0
  0
CLASS
  1
LONG_TRANSACTION
  2
AcDbLongTransaction
  3
AutoCAD 2000
 90
    32768
280
     0
281
     0
  0
CLASS
  1
LWPOLYLINE
  2
AcDbPolyline
  3
AutoCAD 2000
 90
    32768
280
     0
281
     1
  0
CLASS
  1
HATCH
  2
AcDbHatch
  3
AutoCAD 2000
 90
    32768
280
     0
281
     1
  0
CLASS
  1
XRECORD
  2
AcDbXrecord
  3
AutoCAD 2000
 90
    32768
280
     0
281
     0
  0
CLASS
  1
LONG_TRANSACTION
  2
AcDbLongTransaction
  3
AutoCAD 2000
 90
    32768
280
     0
281
     0
  0
CLASS
  1
LWPOLYLINE
  2
AcDbPolyline
  3
AutoCAD 2000
 90
    32768
280
     0
281
     1
  0
CLASS
  1
HATCH
  2
AcDbHatch
  3
AutoCAD 2000
 90
    32768
280
     0
281
     1
  0
CLASS
  1
XRECORD
  2
AcDbXrecord
  3
AutoCAD 2000
 90
    32768
280
     0
281
     0
  0
CLASS
  1
LONG_TRANSACTION
  2
AcDbLongTransaction
  3
AutoCAD 2000
 90
    32768
280
     0
281
     0
  0
CLASS
  1
LWPOLYLINE
  2
AcDbPolyline
  3
AutoCAD 2000
 90
    32768
280
     0
281
     1
  0
CLASS
  1
HATCH
  2
AcDbHatch
  3
AutoCAD 2000
 90
    32768
280
     0
281
     1
  0
CLASS
  1
XRECORD
  2
AcDbXrecord
  3
AutoCAD 2000
 90
    32768
280
     0
281
     0
  0
CLASS
  1
LONG_TRANSACTION
  2
AcDbLongTransaction
  3
AutoCAD 2000
 90
    32768
280
     0
281
     0
  0
CLASS
  1
LWPOLYLINE
  2
AcDbPolyline
  3
AutoCAD 2000
 90
    32768
280
     0
281
     1
  0
CLASS
  1
HATCH
  2
AcDbHatch
  3
AutoCAD 2000
 90
    32768
280
     0
281
     1
  0
CLASS
  1
XRECORD
  2
AcDbXrecord
  3
AutoCAD 2000
 90
    32768
280
     0
281
     0
  0
CLASS
  1
LONG_TRANSACTION
  2
AcDbLongTransaction
  3
AutoCAD 2000
 90
    32768
280
     0
281
     0
  0
CLASS
  1
LWPOLYLINE
  2
AcDbPolyline
  3
AutoCAD 2000
 90
    32768
280
     0
281
     1
  0
CLASS
  1
HATCH
  2
AcDbHatch
  3
AutoCAD 2000
 90
    32768
280
     0
281
     1
  0
CLASS
  1
XRECORD
  2
AcDbXrecord
  3
AutoCAD 2000
 90
    32768
280
     0
281
     0
  0
ENDSEC
  0
SECTION
  2
TABLES
  0
TABLE
  2
VPORT
  5
8
330
0
100
AcDbSymbolTable
 70
     4
  0
VPORT
  5
12C7
330
8
100
AcDbSymbolTableRecord
100
AcDbViewportTableRecord
  2
*ACTIVE
 70
     0
 10
0.0
 20
0.0
 11
1.0
 21
1.0
 12
2970.000013830139
 22
2100.000009778887
 13
0.0
 23
0.0
 14
5.0
 24
5.0
 15
10.0
 25
10.0
 16
0.0
 26
0.0
 36
1.0
 17
0.0
 27
0.0
 37
0.0
 40
4239.695374395107
 41
1.68808777429467
 42
50.0
 43
0.0
 44
0.0
 50
0.0
 51
0.0
 71
     0
 72
   100
 73
     1
 74
     1
 75
     1
 76
     0
 77
     0
 78
     0
  0
ENDTAB
  0
TABLE
  2
LTYPE
  5
5
330
0
100
AcDbSymbolTable
 70
     5
  0
LTYPE
  5
14
330
5
100
AcDbSymbolTableRecord
100
AcDbLinetypeTableRecord
  2
BYBLOCK
 70
     0
  3

 72
    65
 73
     0
 40
0.0
  0
LTYPE
  5
15
330
5
100
AcDbSymbolTableRecord
100
AcDbLinetypeTableRecord
  2
BYLAYER
 70
     0
  3

 72
    65
 73
     0
 40
0.0
  0
LTYPE
  5
16
330
5
100
AcDbSymbolTableRecord
100
AcDbLinetypeTableRecord
  2
CONTINUOUS
 70
     0
  3
Solid line
 72
    65
 73
     0
 40
0.0
  0
LTYPE
  5
555
330
5
100
AcDbSymbolTableRecord
100
AcDbLinetypeTableRecord
  2
CENTER
 70
     0
  3
Center ____ _ ____ _ ____ _ ____ _ ____ _ ____
 72
    65
 73
     4
 40
50.8
 49
31.75
 74
     0
 49
-6.349999999999998
 74
     0
 49
6.349999999999998
 74
     0
 49
-6.349999999999998
 74
     0
  0
LTYPE
  5
556
330
5
100
AcDbSymbolTableRecord
100
AcDbLinetypeTableRecord
  2
HIDDEN
 70
     0
  3
Hidden __ __ __ __ __ __ __ __ __ __ __ __ __ _
 72
    65
 73
     2
 40
9.524999999999996
 49
6.349999999999998
 74
     0
 49
-3.174999999999998
 74
     0
  0
LTYPE
  5
557
330
5
100
AcDbSymbolTableRecord
100
AcDbLinetypeTableRecord
  2
HIDDEN2
 70
     0
  3
Hidden (.5x) _ _ _ _ _ _ _ _ _ _ _ _ _ _ _ _ _
 72
    65
 73
     2
 40
4.762499999999998
 49
3.174999999999998
 74
     0
 49
-1.587499999999999
 74
     0
  0
LTYPE
  5
558
330
5
100
AcDbSymbolTableRecord
100
AcDbLinetypeTableRecord
  2
PHANTOM
 70
     0
  3
Phantom ______  __  __  ______  __  __  ______
 72
    65
 73
     6
 40
63.5
 49
31.75
 74
     0
 49
-6.349999999999998
 74
     0
 49
6.349999999999998
 74
     0
 49
-6.349999999999998
 74
     0
 49
6.349999999999998
 74
     0
 49
-6.349999999999998
 74
     0
  0
ENDTAB
  0
TABLE
  2
LAYER
  5
2
330
0
100
AcDbSymbolTable
 70
    22
  0
LAYER
  5
10
330
2
100
AcDbSymbolTableRecord
100
AcDbLayerTableRecord
  2
0
 70
     0
 62
     7
  6
CONTINUOUS
  0
LAYER
  5
75
330
2
100
AcDbSymbolTableRecord
100
AcDbLayerTableRecord
  2
VIEWPORT
 70
     0
 62
     1
  6
CONTINUOUS
  0
LAYER
  5
504
330
2
100
AcDbSymbolTableRecord
100
AcDbLayerTableRecord
  2
DEFPOINTS
 70
     0
 62
    -6
  6
CONTINUOUS
  0
LAYER
  5
505
330
2
100
AcDbSymbolTableRecord
100
AcDbLayerTableRecord
  2
1C1
 70
     0
 62
   254
  6
CONTINUOUS
  0
LAYER
  5
506
330
2
100
AcDbSymbolTableRecord
100
AcDbLayerTableRecord
  2
1C2
 70
     0
 62
   254
  6
CONTINUOUS
  0
LAYER
  5
507
330
2
100
AcDbSymbolTableRecord
100
AcDbLayerTableRecord
  2
2C1
 70
     0
 62
   144
  6
CONTINUOUS
  0
LAYER
  5
508
330
2
100
AcDbSymbolTableRecord
100
AcDbLayerTableRecord
  2
2C2
 70
     0
 62
   144
  6
CONTINUOUS
  0
LAYER
  5
509
330
2
100
AcDbSymbolTableRecord
100
AcDbLayerTableRecord
  2
2H1
 70
     0
 62
   144
  6
HIDDEN
  0
LAYER
  5
50A
330
2
100
AcDbSymbolTableRecord
100
AcDbLayerTableRecord
  2
2H2
 70
     0
 62
   144
  6
HIDDEN2
  0
LAYER
  5
50B
330
2
100
AcDbSymbolTableRecord
100
AcDbLayerTableRecord
  2
2P1
 70
     0
 62
   144
  6
PHANTOM
  0
LAYER
  5
50C
330
2
100
AcDbSymbolTableRecord
100
AcDbLayerTableRecord
  2
3C1
 70
     0
 62
     7
  6
CONTINUOUS
  0
LAYER
  5
50D
330
2
100
AcDbSymbolTableRecord
100
AcDbLayerTableRecord
  2
3C2
 70
     0
 62
     7
  6
CONTINUOUS
  0
LAYER
  5
50E
330
2
100
AcDbSymbolTableRecord
100
AcDbLayerTableRecord
  2
3C3
 70
     0
 62
     7
  6
CONTINUOUS
  0
LAYER
  5
50F
330
2
100
AcDbSymbolTableRecord
100
AcDbLayerTableRecord
  2
4H1
 70
     0
 62
     6
  6
HIDDEN
  0
LAYER
  5
510
330
2
100
AcDbSymbolTableRecord
100
AcDbLayerTableRecord
  2
4H2
 70
     0
 62
     6
  6
HIDDEN2
  0
LAYER
  5
511
330
2
100
AcDbSymbolTableRecord
100
AcDbLayerTableRecord
  2
5C1
 70
     0
 62
    55
  6
CONTINUOUS
  0
LAYER
  5
512
330
2
100
AcDbSymbolTableRecord
100
AcDbLayerTableRecord
  2
5C2
 70
     0
 62
    55
  6
CONTINUOUS
  0
LAYER
  5
513
330
2
100
AcDbSymbolTableRecord
100
AcDbLayerTableRecord
  2
8C1
 70
     0
 62
    92
  6
CONTINUOUS
  0
LAYER
  5
514
330
2
100
AcDbSymbolTableRecord
100
AcDbLayerTableRecord
  2
HOJO
 70
     0
 62
     5
  6
CONTINUOUS
  0
LAYER
  5
515
330
2
100
AcDbSymbolTableRecord
100
AcDbLayerTableRecord
  2
KIJUN
 70
     0
 62
     1
  6
CENTER
  0
LAYER
  5
516
330
2
100
AcDbSymbolTableRecord
100
AcDbLayerTableRecord
  2
MOJI
 70
     0
 62
     7
  6
CONTINUOUS
  0
LAYER
  5
517
330
2
100
AcDbSymbolTableRecord
100
AcDbLayerTableRecord
  2
SUNPO
 70
     0
 62
   144
  6
CONTINUOUS
  0
ENDTAB
  0
TABLE
  2
STYLE
  5
3
330
0
100
AcDbSymbolTable
 70
     6
  0
STYLE
  5
11
330
3
100
AcDbSymbolTableRecord
100
AcDbTextStyleTableRecord
  2
STANDARD
 70
     0
 40
0.0
 41
1.0
 50
0.0
 71
     0
 42
2.5
  3
txt
  4

  0
STYLE
  5
2C
330
3
100
AcDbSymbolTableRecord
100
AcDbTextStyleTableRecord
  2

 70
     1
 40
0.0
 41
1.0
 50
0.0
 71
     0
 42
2.5
  3
ltypeshp.shx
  4

  0
STYLE
  5
18E
330
3
100
AcDbSymbolTableRecord
100
AcDbTextStyleTableRecord
  2
ADD
 70
     0
 40
0.0
 41
1.0
 50
0.0
 71
     0
 42
50.0
  3
romans.shx
  4
bigfont.shx
  0
STYLE
  5
191
330
3
100
AcDbSymbolTableRecord
100
AcDbTextStyleTableRecord
  2
MSG
 70
     0
 40
0.0
 41
1.0
 50
0.0
 71
     0
 42
2.5
  3
MS Gothic.ttf
  4

1001
ACAD
1000
MS Gothic
1071
    32817
  0
STYLE
  5
5C8
330
3
100
AcDbSymbolTableRecord
100
AcDbTextStyleTableRecord
  2
STANDARD15
 70
     0
 40
0.0
 41
1.0
 50
15.0
 71
     0
 42
2.5
  3
ROMANS
  4
bigfont
  0
STYLE
  5
5C9
330
3
100
AcDbSymbolTableRecord
100
AcDbTextStyleTableRecord
  2
ROMANS15
 70
     0
 40
0.0
 41
1.0
 50
15.0
 71
     0
 42
2.5
  3
romans
  4

  0
ENDTAB
  0
TABLE
  2
VIEW
  5
6
330
0
100
AcDbSymbolTable
 70
     1
  0
VIEW
  5
54D
330
6
100
AcDbSymbolTableRecord
100
AcDbViewTableRecord
  2
ALL
 70
     0
 40
594.0
 10
420.5
 20
297.0
 41
865.125
 11
0.0
 21
0.0
 31
1.0
 12
0.0
 22
0.0
 32
0.0
 42
50.0
 43
0.0
 44
0.0
 50
0.0
 71
     0
  0
ENDTAB
  0
TABLE
  2
UCS
  5
7
330
0
100
AcDbSymbolTable
 70
     0
  0
ENDTAB
  0
TABLE
  2
APPID
  5
9
330
0
100
AcDbSymbolTable
 70
     4
  0
APPID
  5
12
330
9
100
AcDbSymbolTableRecord
100
AcDbRegAppTableRecord
  2
ACAD
 70
     0
  0
APPID
  5
5CB
330
9
100
AcDbSymbolTableRecord
100
AcDbRegAppTableRecord
  2
ARAIGUMI_YOHEKI
 70
     0
  0
APPID
  5
5CC
330
9
100
AcDbSymbolTableRecord
100
AcDbRegAppTableRecord
  2
CONTENTTABDATA
 70
     0
  0
APPID
  5
5CD
330
9
100
AcDbSymbolTableRecord
100
AcDbRegAppTableRecord
  2
CONTENTCURRENTTAB
 70
     0
  0
ENDTAB
  0
TABLE
  2
DIMSTYLE
  5
A
330
0
100
AcDbSymbolTable
 70
    10
  0
DIMSTYLE
105
27
330
A
100
AcDbSymbolTableRecord
100
AcDbDimStyleTableRecord
  2
ISO-25
 70
     0
  3

  4

  5

  6

  7

 40
1.0
 41
2.5
 42
0.625
 43
3.75
 44
1.25
 45
0.0
 46
0.0
 47
0.0
 48
0.0
140
2.5
141
2.5
142
0.0
143
0.03937007874016
144
1.0
145
0.0
146
1.0
147
0.625
 71
     0
 72
     0
 73
     0
 74
     0
 75
     0
 76
     0
 77
     1
 78
     8
170
     0
171
     3
172
     1
173
     0
174
     0
175
     0
176
     0
177
     0
178
     0
270
     2
271
     2
272
     2
273
     2
274
     3
340
11
275
     0
280
     0
281
     0
282
     0
283
     0
284
     8
285
     0
286
     0
287
     3
288
     0
  0
DIMSTYLE
105
197
330
A
100
AcDbSymbolTableRecord
100
AcDbDimStyleTableRecord
  2
ADD
 70
     0
  3

  4

  5

  6

  7

 40
1.0
 41
2.5
 42
1.0
 43
7.0
 44
0.5
 45
0.0
 46
0.0
 47
0.0
 48
0.0
140
2.5
141
2.5
142
0.0
143
0.03937007874016
144
1.0
145
0.7
146
1.0
147
0.625
 71
     0
 72
     0
 73
     0
 74
     0
 75
     0
 76
     0
 77
     1
 78
     8
170
     0
171
     3
172
     1
173
     0
174
     1
175
     0
176
   144
177
   144
178
     7
270
     2
271
     1
272
     1
273
     2
274
     3
340
18E
275
     0
280
     0
281
     0
282
     0
283
     2
284
     8
285
     0
286
     0
287
     3
288
     0
  0
DIMSTYLE
105
3E6
330
A
100
AcDbSymbolTableRecord
100
AcDbDimStyleTableRecord
  2
ADD$2
 70
     0
  3

  4

  5

  6

  7

 40
1.0
 41
2.5
 42
1.0
 43
7.0
 44
0.5
 45
0.0
 46
0.0
 47
0.0
 48
0.0
140
2.5
141
2.5
142
0.0
143
0.03937007874016
144
1.0
145
0.7
146
1.0
147
0.625
 71
     0
 72
     0
 73
     0
 74
     0
 75
     0
 76
     0
 77
     1
 78
     8
170
     0
171
     3
172
     1
173
     0
174
     1
175
     0
176
   144
177
   144
178
     7
270
     2
271
     1
272
     1
273
     2
274
     3
340
18E
275
     0
280
     0
281
     0
282
     0
283
     2
284
     8
285
     0
286
     0
287
     3
288
     0
  0
DIMSTYLE
105
3E7
330
A
100
AcDbSymbolTableRecord
100
AcDbDimStyleTableRecord
  2
ADD$4
 70
     0
  3

  4

  5

  6

  7

 40
1.0
 41
2.5
 42
1.0
 43
7.0
 44
0.5
 45
0.0
 46
0.0
 47
0.0
 48
0.0
140
2.5
141
2.5
142
0.0
143
0.03937007874016
144
1.0
145
0.0
146
1.0
147
0.625
 71
     0
 72
     0
 73
     0
 74
     0
 75
     0
 76
     0
 77
     1
 78
     8
170
     0
171
     3
172
     1
173
     0
174
     1
175
     0
176
   144
177
   144
178
     7
270
     2
271
     1
272
     1
273
     2
274
     3
340
18E
275
     0
280
     0
281
     0
282
     0
283
     2
284
     8
285
     0
286
     0
287
     3
288
     0
  0
DIMSTYLE
105
3E8
330
A
100
AcDbSymbolTableRecord
100
AcDbDimStyleTableRecord
  2
ADD$3
 70
     0
  3

  4

  5

  6

  7

 40
1.0
 41
2.5
 42
1.0
 43
7.0
 44
0.5
 45
0.0
 46
0.0
 47
0.0
 48
0.0
140
2.5
141
2.5
142
0.0
143
0.03937007874016
144
1.0
145
0.0
146
1.0
147
0.625
 71
     0
 72
     0
 73
     0
 74
     0
 75
     0
 76
     0
 77
     1
 78
     8
170
     0
171
     3
172
     1
173
     0
174
     1
175
     0
176
   144
177
   144
178
     7
270
     2
271
     1
272
     1
273
     2
274
     3
340
18E
275
     0
280
     0
281
     0
282
     0
283
     2
284
     8
285
     0
286
     0
287
     3
288
     0
  0
DIMSTYLE
105
3E9
330
A
100
AcDbSymbolTableRecord
100
AcDbDimStyleTableRecord
  2
ADD$6
 70
     0
  3

  4

  5

  6

  7

 40
1.0
 41
2.5
 42
1.0
 43
7.0
 44
0.5
 45
0.0
 46
0.0
 47
0.0
 48
0.0
140
2.5
141
2.5
142
0.0
143
0.03937007874016
144
1.0
145
0.0
146
1.0
147
0.625
 71
     0
 72
     0
 73
     0
 74
     0
 75
     0
 76
     0
 77
     1
 78
     8
170
     0
171
     3
172
     1
173
     0
174
     1
175
     0
176
   144
177
   144
178
     7
270
     2
271
     1
272
     1
273
     2
274
     3
340
18E
275
     0
280
     0
281
     0
282
     0
283
     2
284
     8
285
     0
286
     0
287
     3
288
     0
  0
DIMSTYLE
105
3EA
330
A
100
AcDbSymbolTableRecord
100
AcDbDimStyleTableRecord
  2
ADD$7
 70
     0
  3

  4

  5

  6

  7

 40
1.0
 41
2.5
 42
1.0
 43
7.0
 44
0.5
 45
0.0
 46
0.0
 47
0.0
 48
0.0
140
2.5
141
2.5
142
0.0
143
0.03937007874016
144
1.0
145
0.0
146
1.0
147
0.625
 71
     0
 72
     0
 73
     0
 74
     0
 75
     0
 76
     0
 77
     0
 78
     8
170
     0
171
     3
172
     1
173
     0
174
     1
175
     0
176
   144
177
   144
178
     7
270
     2
271
     1
272
     1
273
     2
274
     3
340
18E
275
     0
280
     0
281
     0
282
     0
283
     2
284
     8
285
     0
286
     0
287
     3
288
     0
  0
DIMSTYLE
105
518
330
A
100
AcDbSymbolTableRecord
100
AcDbDimStyleTableRecord
  2
STANDARD
 70
     0
  3

  4

  5

  6

  7

 40
1.0
 41
0.18
 42
0.0625
 43
0.38
 44
0.18
 45
0.0
 46
0.0
 47
0.0
 48
0.0
140
0.18
141
0.09
142
0.0
143
25.4
144
1.0
145
0.0
146
1.0
147
0.09
 71
     0
 72
     0
 73
     1
 74
     1
 75
     0
 76
     0
 77
     0
 78
     0
170
     0
171
     2
172
     0
173
     0
174
     0
175
     0
176
     0
177
     0
178
     0
270
     2
271
     4
272
     4
273
     2
274
     2
340
11
275
     0
280
     0
281
     0
282
     0
283
     1
284
     0
285
     0
286
     0
287
     3
288
     0
  0
DIMSTYLE
105
550
330
A
100
AcDbSymbolTableRecord
100
AcDbDimStyleTableRecord
  2
ADD$0
 70
     0
  3

  4

  5

  6

  7

 40
1.0
 41
2.5
 42
1.0
 43
7.0
 44
0.5
 45
0.0
 46
0.0
 47
0.0
 48
0.0
140
2.5
141
2.5
142
0.0
143
0.03937007874016
144
1.0
145
0.7
146
1.0
147
0.625
 71
     0
 72
     0
 73
     0
 74
     0
 75
     0
 76
     0
 77
     1
 78
     8
170
     0
171
     3
172
     1
173
     0
174
     1
175
     0
176
   144
177
   144
178
     7
270
     2
271
     1
272
     1
273
     2
274
     3
340
18E
275
     0
280
     0
281
     0
282
     0
283
     2
284
     8
285
     0
286
     0
287
     3
288
     0
  0
DIMSTYLE
105
59B
330
A
100
AcDbSymbolTableRecord
100
AcDbDimStyleTableRecord
  2
ADD_M
 70
     0
  3

  4

  5

  6

  7

 40
1.0
 41
2.5
 42
1.0
 43
7.0
 44
0.5
 45
0.0
 46
0.0
 47
0.0
 48
0.0
140
2.5
141
2.5
142
0.0
143
0.03937007874016
144
1.0
145
0.7
146
1.0
147
0.625
 71
     0
 72
     0
 73
     0
 74
     0
 75
     0
 76
     0
 77
     1
 78
     8
170
     0
171
     3
172
     1
173
     0
174
     1
175
     0
176
   144
177
   144
178
     7
270
     2
271
     1
272
     1
273
     2
274
     3
340
18E
275
     0
280
     0
281
     0
282
     0
283
     2
284
     8
285
     0
286
     0
287
     3
288
     0
  0
ENDTAB
  0
TABLE
  2
BLOCK_RECORD
  5
1
330
0
100
AcDbSymbolTable
 70
    13
  0
BLOCK_RECORD
  5
1F
102
{ACAD_XDICTIONARY
360
65D
102
}
330
1
100
AcDbSymbolTableRecord
100
AcDbBlockTableRecord
  2
*MODEL_SPACE
  0
BLOCK_RECORD
  5
1B
102
{ACAD_XDICTIONARY
360
65F
102
}
330
1
100
AcDbSymbolTableRecord
100
AcDbBlockTableRecord
  2
*PAPER_SPACE
  0
BLOCK_RECORD
  5
192
330
1
100
AcDbSymbolTableRecord
100
AcDbBlockTableRecord
  2
_DOT
  0
BLOCK_RECORD
  5
5CE
330
1
100
AcDbSymbolTableRecord
100
AcDbBlockTableRecord
  2
A4
  0
BLOCK_RECORD
  5
BD3
330
1
100
AcDbSymbolTableRecord
100
AcDbBlockTableRecord
  2
A$C26C604B6
  0
BLOCK_RECORD
  5
BEB
330
1
100
AcDbSymbolTableRecord
100
AcDbBlockTableRecord
  2
*D3
  0
BLOCK_RECORD
  5
BFA
330
1
100
AcDbSymbolTableRecord
100
AcDbBlockTableRecord
  2
*D4
  0
BLOCK_RECORD
  5
C07
330
1
100
AcDbSymbolTableRecord
100
AcDbBlockTableRecord
  2
*D5
  0
BLOCK_RECORD
  5
C24
330
1
100
AcDbSymbolTableRecord
100
AcDbBlockTableRecord
  2
*D6
  0
BLOCK_RECORD
  5
C70
330
1
100
AcDbSymbolTableRecord
100
AcDbBlockTableRecord
  2
*D7
  0
BLOCK_RECORD
  5
C92
330
1
100
AcDbSymbolTableRecord
100
AcDbBlockTableRecord
  2
*D8
  0
BLOCK_RECORD
  5
CA1
330
1
100
AcDbSymbolTableRecord
100
AcDbBlockTableRecord
  2
*D9
  0
BLOCK_RECORD
  5
D25
330
1
100
AcDbSymbolTableRecord
100
AcDbBlockTableRecord
  2
*D10
  0
BLOCK_RECORD
  5
EF1
330
1
100
AcDbSymbolTableRecord
100
AcDbBlockTableRecord
  2
*D11
  0
BLOCK_RECORD
  5
FC7
330
1
100
AcDbSymbolTableRecord
100
AcDbBlockTableRecord
  2
*D12
  0
ENDTAB
  0
ENDSEC
  0
SECTION
  2
BLOCKS
  0
BLOCK
  5
20
330
1F
100
AcDbEntity
  8
0
100
AcDbBlockBegin
  2
*MODEL_SPACE
 70
     0
 10
0.0
 20
0.0
 30
0.0
  3
*MODEL_SPACE
  1

  0
ENDBLK
  5
21
330
1F
100
AcDbEntity
  8
0
100
AcDbBlockEnd
  0
BLOCK
  5
1C
330
1B
100
AcDbEntity
 67
     1
  8
0
100
AcDbBlockBegin
  2
*PAPER_SPACE
 70
     0
 10
0.0
 20
0.0
 30
0.0
  3
*PAPER_SPACE
  1

  0
ENDBLK
  5
1D
330
1B
100
AcDbEntity
 67
     1
  8
0
100
AcDbBlockEnd
  0
BLOCK
  5
195
330
192
100
AcDbEntity
  8
0
100
AcDbBlockBegin
  2
_DOT
 70
     0
 10
0.0
 20
0.0
 30
0.0
  3
_DOT
  1

  0
POLYLINE
  5
193
330
192
100
AcDbEntity
  8
0
 62
     0
100
AcDb2dPolyline
 66
     1
 10
0.0
 20
0.0
 30
0.0
 70
     1
 40
0.5
 41
0.5
  0
VERTEX
  5
12CA
330
193
100
AcDbEntity
  8
0
 62
     0
100
AcDbVertex
100
AcDb2dVertex
 10
-0.25
 20
0.0
 30
0.0
 42
1.0
  0
VERTEX
  5
12CB
330
193
100
AcDbEntity
  8
0
 62
     0
100
AcDbVertex
100
AcDb2dVertex
 10
0.25
 20
0.0
 30
0.0
 42
1.0
  0
SEQEND
  5
12CC
330
193
100
AcDbEntity
  8
0
 62
     0
  0
LINE
  5
194
330
192
100
AcDbEntity
  8
0
 62
     0
100
AcDbLine
 10
-0.5
 20
0.0
 30
0.0
 11
-1.0
 21
0.0
 31
0.0
  0
ENDBLK
  5
196
330
192
100
AcDbEntity
  8
0
100
AcDbBlockEnd
  0
BLOCK
  5
5D1
330
5CE
100
AcDbEntity
  8
0
100
AcDbBlockBegin
  2
A4
 70
     0
 10
0.0
 20
0.0
 30
0.0
  3
A4
  1

  0
POLYLINE
  5
5CF
330
5CE
100
AcDbEntity
  8
HOJO
100
AcDb2dPolyline
 66
     1
 10
0.0
 20
0.0
 30
0.0
 70
     1
  0
VERTEX
  5
12CD
330
5CF
100
AcDbEntity
  8
HOJO
100
AcDbVertex
100
AcDb2dVertex
 10
0.0
 20
0.0
 30
0.0
  0
VERTEX
  5
12CE
330
5CF
100
AcDbEntity
  8
HOJO
100
AcDbVertex
100
AcDb2dVertex
 10
297.0
 20
0.0
 30
0.0
  0
VERTEX
  5
12CF
330
5CF
100
AcDbEntity
  8
HOJO
100
AcDbVertex
100
AcDb2dVertex
 10
297.0
 20
210.0
 30
0.0
  0
VERTEX
  5
12D0
330
5CF
100
AcDbEntity
  8
HOJO
100
AcDbVertex
100
AcDb2dVertex
 10
0.0
 20
210.0
 30
0.0
  0
SEQEND
  5
12D1
330
5CF
100
AcDbEntity
  8
HOJO
  0
POLYLINE
  5
5D0
330
5CE
100
AcDbEntity
  8
HOJO
100
AcDb2dPolyline
 66
     1
 10
0.0
 20
0.0
 30
0.0
 70
     1
  0
VERTEX
  5
12D2
330
5D0
100
AcDbEntity
  8
HOJO
100
AcDbVertex
100
AcDb2dVertex
 10
18.0
 20
13.0
 30
0.0
  0
VERTEX
  5
12D3
330
5D0
100
AcDbEntity
  8
HOJO
100
AcDbVertex
100
AcDb2dVertex
 10
279.0
 20
13.0
 30
0.0
  0
VERTEX
  5
12D4
330
5D0
100
AcDbEntity
  8
HOJO
100
AcDbVertex
100
AcDb2dVertex
 10
279.0
 20
197.0
 30
0.0
  0
VERTEX
  5
12D5
330
5D0
100
AcDbEntity
  8
HOJO
100
AcDbVertex
100
AcDb2dVertex
 10
18.0
 20
197.0
 30
0.0
  0
SEQEND
  5
12D6
330
5D0
100
AcDbEntity
  8
HOJO
  0
ENDBLK
  5
5D2
330
5CE
100
AcDbEntity
  8
0
100
AcDbBlockEnd
  0
BLOCK
  5
BD5
330
BD3
100
AcDbEntity
  8
0
100
AcDbBlockBegin
  2
A$C26C604B6
 70
     0
 10
0.0
 20
0.0
 30
0.0
  3
A$C26C604B6
  1

  0
LINE
  5
BD4
330
BD3
100
AcDbEntity
  8
3C1
100
AcDbLine
 10
0.000008237111615
 20
50.00000257183273
 30
0.0
 11
0.000008237111615
 21
0.0000025718318284
 31
0.0
  0
ENDBLK
  5
BD6
330
BD3
100
AcDbEntity
  8
0
100
AcDbBlockEnd
  0
BLOCK
  5
BF7
330
BEB
100
AcDbEntity
  8
0
100
AcDbBlockBegin
  2
*D3
 70
     1
 10
0.0
 20
0.0
 30
0.0
  3
*D3
  1

  0
LINE
  5
F4F
330
BEB
100
AcDbEntity
  8
SUNPO
 62
   144
100
AcDbLine
 10
2570.0
 20
2831.710592946296
 30
0.0
 11
2420.0
 21
2831.710592946296
 31
0.0
  0
LINE
  5
F50
330
BEB
100
AcDbEntity
  8
SUNPO
 62
   144
100
AcDbLine
 10
2570.0
 20
2951.710592946296
 30
0.0
 11
2420.0
 21
2951.710592946296
 31
0.0
  0
LINE
  5
F51
330
BEB
100
AcDbEntity
  8
SUNPO
 62
   144
100
AcDbLine
 10
2430.0
 20
2781.710592946296
 30
0.0
 11
2430.0
 21
2731.710592946296
 31
0.0
  0
LINE
  5
F52
330
BEB
100
AcDbEntity
  8
SUNPO
 62
   144
100
AcDbLine
 10
2430.0
 20
3001.710592946296
 30
0.0
 11
2430.0
 21
3051.710592946296
 31
0.0
  0
LINE
  5
F53
330
BEB
100
AcDbEntity
  8
SUNPO
 62
   144
100
AcDbLine
 10
2430.0
 20
2831.710592946296
 30
0.0
 11
2430.0
 21
2951.710592946296
 31
0.0
  0
SOLID
  5
F54
330
BEB
100
AcDbEntity
  8
SUNPO
 62
   144
100
AcDbTrace
 10
2421.666666666666
 20
2781.710592946296
 30
0.0
 11
2438.333333333333
 21
2781.710592946296
 31
0.0
 12
2430.0
 22
2831.710592946296
 32
0.0
 13
2430.0
 23
2831.710592946296
 33
0.0
  0
SOLID
  5
F55
330
BEB
100
AcDbEntity
  8
SUNPO
 62
   144
100
AcDbTrace
 10
2421.666666666666
 20
3001.710592946296
 30
0.0
 11
2438.333333333333
 21
3001.710592946296
 31
0.0
 12
2430.0
 22
2951.710592946296
 32
0.0
 13
2430.0
 23
2951.710592946296
 33
0.0
  0
MTEXT
  5
F56
330
BEB
100
AcDbEntity
  8
SUNPO
 62
     7
100
AcDbMText
 10
2392.499999999999
 20
2891.710592946297
 30
0.0
 40
50.0
 41
0.0
 71
     5
 72
     1
  1
\A2;120
  7
ADD
 11
0.0000000000000001
 21
1.0
 31
0.0
1001
ACAD
1000
MTEXTBEGIN
1070
    73
1070
     1
1070
    44
1040
1.0
1070
    74
1070
     0
1000
MTEXTEND
  0
POINT
  5
F57
330
BEB
100
AcDbEntity
  8
DEFPOINTS
 62
     0
100
AcDbPoint
 10
2590.0
 20
2831.710592946296
 30
0.0
  0
POINT
  5
F58
330
BEB
100
AcDbEntity
  8
DEFPOINTS
 62
     0
100
AcDbPoint
 10
2590.0
 20
2951.710592946296
 30
0.0
  0
POINT
  5
F59
330
BEB
100
AcDbEntity
  8
DEFPOINTS
 62
     0
100
AcDbPoint
 10
2430.0
 20
2951.710592946296
 30
0.0
  0
ENDBLK
  5
BF8
330
BEB
100
AcDbEntity
  8
0
100
AcDbBlockEnd
  0
BLOCK
  5
C04
330
BFA
100
AcDbEntity
  8
0
100
AcDbBlockBegin
  2
*D4
 70
     1
 10
0.0
 20
0.0
 30
0.0
  3
*D4
  1

  0
LINE
  5
F46
330
BFA
100
AcDbEntity
  8
SUNPO
 62
   144
100
AcDbLine
 10
2570.0
 20
2951.710592946296
 30
0.0
 11
2419.999999999999
 21
2951.710592946296
 31
0.0
  0
LINE
  5
F47
330
BFA
100
AcDbEntity
  8
SUNPO
 62
   144
100
AcDbLine
 10
2570.0
 20
3151.710592946296
 30
0.0
 11
2420.0
 21
3151.710592946296
 31
0.0
  0
LINE
  5
F48
330
BFA
100
AcDbEntity
  8
SUNPO
 62
   144
100
AcDbLine
 10
2429.999999999999
 20
3001.710592946296
 30
0.0
 11
2430.0
 21
3101.710592946296
 31
0.0
  0
SOLID
  5
F49
330
BFA
100
AcDbEntity
  8
SUNPO
 62
   144
100
AcDbTrace
 10
2421.666666666666
 20
3001.710592946296
 30
0.0
 11
2438.333333333333
 21
3001.710592946296
 31
0.0
 12
2429.999999999999
 22
2951.710592946296
 32
0.0
 13
2429.999999999999
 23
2951.710592946296
 33
0.0
  0
SOLID
  5
F4A
330
BFA
100
AcDbEntity
  8
SUNPO
 62
   144
100
AcDbTrace
 10
2421.666666666666
 20
3101.710592946296
 30
0.0
 11
2438.333333333333
 21
3101.710592946296
 31
0.0
 12
2430.0
 22
3151.710592946296
 32
0.0
 13
2430.0
 23
3151.710592946296
 33
0.0
  0
MTEXT
  5
F4B
330
BFA
100
AcDbEntity
  8
SUNPO
 62
     7
100
AcDbMText
 10
2392.499999999999
 20
3051.710592946296
 30
0.0
 40
50.0
 41
0.0
 71
     5
 72
     1
  1
\A2;200
  7
ADD
 11
0.0000000000000001
 21
1.0
 31
0.0
1001
ACAD
1000
MTEXTBEGIN
1070
    73
1070
     1
1070
    44
1040
1.0
1070
    74
1070
     0
1000
MTEXTEND
  0
POINT
  5
F4C
330
BFA
100
AcDbEntity
  8
DEFPOINTS
 62
     0
100
AcDbPoint
 10
2590.0
 20
2951.710592946296
 30
0.0
  0
POINT
  5
F4D
330
BFA
100
AcDbEntity
  8
DEFPOINTS
 62
     0
100
AcDbPoint
 10
2590.0
 20
3151.710592946296
 30
0.0
  0
POINT
  5
F4E
330
BFA
100
AcDbEntity
  8
DEFPOINTS
 62
     0
100
AcDbPoint
 10
2430.0
 20
3151.710592946296
 30
0.0
  0
ENDBLK
  5
C05
330
BFA
100
AcDbEntity
  8
0
100
AcDbBlockEnd
  0
BLOCK
  5
C11
330
C07
100
AcDbEntity
  8
0
100
AcDbBlockBegin
  2
*D5
 70
     1
 10
0.0
 20
0.0
 30
0.0
  3
*D5
  1

  0
LINE
  5
F3D
330
C07
100
AcDbEntity
  8
SUNPO
 62
   144
100
AcDbLine
 10
2570.0
 20
2831.710592946296
 30
0.0
 11
2214.999999999999
 21
2831.710592946296
 31
0.0
  0
LINE
  5
F3E
330
C07
100
AcDbEntity
  8
SUNPO
 62
   144
100
AcDbLine
 10
2570.0
 20
3151.710592946296
 30
0.0
 11
2215.0
 21
3151.710592946296
 31
0.0
  0
LINE
  5
F3F
330
C07
100
AcDbEntity
  8
SUNPO
 62
   144
100
AcDbLine
 10
2224.999999999999
 20
2881.710592946296
 30
0.0
 11
2225.0
 21
3101.710592946296
 31
0.0
  0
SOLID
  5
F40
330
C07
100
AcDbEntity
  8
SUNPO
 62
   144
100
AcDbTrace
 10
2216.666666666666
 20
2881.710592946296
 30
0.0
 11
2233.333333333333
 21
2881.710592946296
 31
0.0
 12
2224.999999999999
 22
2831.710592946296
 32
0.0
 13
2224.999999999999
 23
2831.710592946296
 33
0.0
  0
SOLID
  5
F41
330
C07
100
AcDbEntity
  8
SUNPO
 62
   144
100
AcDbTrace
 10
2216.666666666666
 20
3101.710592946296
 30
0.0
 11
2233.333333333333
 21
3101.710592946296
 31
0.0
 12
2225.0
 22
3151.710592946296
 32
0.0
 13
2225.0
 23
3151.710592946296
 33
0.0
  0
MTEXT
  5
F42
330
C07
100
AcDbEntity
  8
SUNPO
 62
     7
100
AcDbMText
 10
2187.499999999999
 20
2991.710592946297
 30
0.0
 40
50.0
 41
0.0
 71
     5
 72
     1
  1
\A2;320
  7
ADD
 11
0.0000000000000001
 21
1.0
 31
0.0
1001
ACAD
1000
MTEXTBEGIN
1070
    73
1070
     1
1070
    44
1040
1.0
1070
    74
1070
     0
1000
MTEXTEND
  0
POINT
  5
F43
330
C07
100
AcDbEntity
  8
DEFPOINTS
 62
     0
100
AcDbPoint
 10
2590.0
 20
2831.710592946296
 30
0.0
  0
POINT
  5
F44
330
C07
100
AcDbEntity
  8
DEFPOINTS
 62
     0
100
AcDbPoint
 10
2590.0
 20
3151.710592946296
 30
0.0
  0
POINT
  5
F45
330
C07
100
AcDbEntity
  8
DEFPOINTS
 62
     0
100
AcDbPoint
 10
2225.0
 20
3151.710592946296
 30
0.0
  0
ENDBLK
  5
C12
330
C07
100
AcDbEntity
  8
0
100
AcDbBlockEnd
  0
BLOCK
  5
C2E
330
C24
100
AcDbEntity
  8
0
100
AcDbBlockBegin
  2
*D6
 70
     1
 10
0.0
 20
0.0
 30
0.0
  3
*D6
  1

  0
LINE
  5
F34
330
C24
100
AcDbEntity
  8
SUNPO
 62
   144
100
AcDbLine
 10
2590.0
 20
3171.710592946296
 30
0.0
 11
2590.0
 21
3370.0
 31
0.0
  0
LINE
  5
F35
330
C24
100
AcDbEntity
  8
SUNPO
 62
   144
100
AcDbLine
 10
2770.0
 20
2971.710592946296
 30
0.0
 11
2770.0
 21
3370.0
 31
0.0
  0
LINE
  5
F36
330
C24
100
AcDbEntity
  8
SUNPO
 62
   144
100
AcDbLine
 10
2640.0
 20
3360.000000000001
 30
0.0
 11
2720.0
 21
3360.000000000001
 31
0.0
  0
SOLID
  5
F37
330
C24
100
AcDbEntity
  8
SUNPO
 62
   144
100
AcDbTrace
 10
2640.0
 20
3368.333333333334
 30
0.0
 11
2640.0
 21
3351.666666666667
 31
0.0
 12
2590.0
 22
3360.000000000001
 32
0.0
 13
2590.0
 23
3360.000000000001
 33
0.0
  0
SOLID
  5
F38
330
C24
100
AcDbEntity
  8
SUNPO
 62
   144
100
AcDbTrace
 10
2720.0
 20
3368.333333333334
 30
0.0
 11
2720.0
 21
3351.666666666667
 31
0.0
 12
2770.0
 22
3360.000000000001
 32
0.0
 13
2770.0
 23
3360.000000000001
 33
0.0
  0
MTEXT
  5
F39
330
C24
100
AcDbEntity
  8
SUNPO
 62
     7
100
AcDbMText
 10
2680.0
 20
3397.5
 30
0.0
 40
50.0
 41
0.0
 71
     5
 72
     1
  1
\A2;180
  7
ADD
1001
ACAD
1000
MTEXTBEGIN
1070
    73
1070
     1
1070
    44
1040
1.0
1070
    74
1070
     0
1000
MTEXTEND
  0
POINT
  5
F3A
330
C24
100
AcDbEntity
  8
DEFPOINTS
 62
     0
100
AcDbPoint
 10
2590.0
 20
3151.710592946296
 30
0.0
  0
POINT
  5
F3B
330
C24
100
AcDbEntity
  8
DEFPOINTS
 62
     0
100
AcDbPoint
 10
2770.0
 20
2951.710592946296
 30
0.0
  0
POINT
  5
F3C
330
C24
100
AcDbEntity
  8
DEFPOINTS
 62
     0
100
AcDbPoint
 10
2770.0
 20
3360.000000000001
 30
0.0
  0
ENDBLK
  5
C2F
330
C24
100
AcDbEntity
  8
0
100
AcDbBlockEnd
  0
BLOCK
  5
C7A
330
C70
100
AcDbEntity
  8
0
100
AcDbBlockBegin
  2
*D7
 70
     1
 10
0.0
 20
0.0
 30
0.0
  3
*D7
  1

  0
LINE
  5
F5A
330
C70
100
AcDbEntity
  8
SUNPO
 62
   144
100
AcDbLine
 10
3310.0
 20
2831.710592946296
 30
0.0
 11
3530.0
 21
2831.710592946296
 31
0.0
  0
LINE
  5
F5B
330
C70
100
AcDbEntity
  8
SUNPO
 62
   144
100
AcDbLine
 10
3310.0
 20
2981.710592946296
 30
0.0
 11
3530.0
 21
2981.710592946296
 31
0.0
  0
LINE
  5
F5C
330
C70
100
AcDbEntity
  8
SUNPO
 62
   144
100
AcDbLine
 10
3520.0
 20
2881.710592946296
 30
0.0
 11
3520.0
 21
2931.710592946296
 31
0.0
  0
SOLID
  5
F5D
330
C70
100
AcDbEntity
  8
SUNPO
 62
   144
100
AcDbTrace
 10
3511.666666666666
 20
2881.710592946296
 30
0.0
 11
3528.333333333334
 21
2881.710592946296
 31
0.0
 12
3520.0
 22
2831.710592946296
 32
0.0
 13
3520.0
 23
2831.710592946296
 33
0.0
  0
SOLID
  5
F5E
330
C70
100
AcDbEntity
  8
SUNPO
 62
   144
100
AcDbTrace
 10
3511.666666666666
 20
2931.710592946296
 30
0.0
 11
3528.333333333334
 21
2931.710592946296
 31
0.0
 12
3520.0
 22
2981.710592946296
 32
0.0
 13
3520.0
 23
2981.710592946296
 33
0.0
  0
MTEXT
  5
F5F
330
C70
100
AcDbEntity
  8
SUNPO
 62
     7
100
AcDbMText
 10
3482.499999999999
 20
2906.710592946297
 30
0.0
 40
50.0
 41
0.0
 71
     5
 72
     1
  1
\A2;150
  7
ADD
 11
0.0000000000000001
 21
1.0
 31
0.0
1001
ACAD
1000
MTEXTBEGIN
1070
    73
1070
     1
1070
    44
1040
1.0
1070
    74
1070
     0
1000
MTEXTEND
  0
POINT
  5
F60
330
C70
100
AcDbEntity
  8
DEFPOINTS
 62
     0
100
AcDbPoint
 10
3290.0
 20
2831.710592946296
 30
0.0
  0
POINT
  5
F61
330
C70
100
AcDbEntity
  8
DEFPOINTS
 62
     0
100
AcDbPoint
 10
3290.0
 20
2981.710592946296
 30
0.0
  0
POINT
  5
F62
330
C70
100
AcDbEntity
  8
DEFPOINTS
 62
     0
100
AcDbPoint
 10
3520.0
 20
2981.710592946296
 30
0.0
  0
ENDBLK
  5
C7B
330
C70
100
AcDbEntity
  8
0
100
AcDbBlockEnd
  0
BLOCK
  5
C9E
330
C92
100
AcDbEntity
  8
0
100
AcDbBlockBegin
  2
*D8
 70
     1
 10
0.0
 20
0.0
 30
0.0
  3
*D8
  1

  0
LINE
  5
F29
330
C92
100
AcDbEntity
  8
SUNPO
 62
   144
100
AcDbLine
 10
2770.0
 20
3106.282944709722
 30
0.0
 11
2770.0
 21
3180.855296473148
 31
0.0
  0
LINE
  5
F2A
330
C92
100
AcDbEntity
  8
SUNPO
 62
   144
100
AcDbLine
 10
2790.0
 20
3040.0
 30
0.0
 11
2790.0
 21
3180.855296473148
 31
0.0
  0
LINE
  5
F2B
330
C92
100
AcDbEntity
  8
SUNPO
 62
   144
100
AcDbLine
 10
2720.0
 20
3170.855296473148
 30
0.0
 11
2670.0
 21
3170.855296473148
 31
0.0
  0
LINE
  5
F2C
330
C92
100
AcDbEntity
  8
SUNPO
 62
   144
100
AcDbLine
 10
2840.0
 20
3170.855296473148
 30
0.0
 11
2890.0
 21
3170.855296473148
 31
0.0
  0
LINE
  5
F2D
330
C92
100
AcDbEntity
  8
SUNPO
 62
   144
100
AcDbLine
 10
2770.0
 20
3170.855296473148
 30
0.0
 11
2790.0
 21
3170.855296473148
 31
0.0
  0
SOLID
  5
F2E
330
C92
100
AcDbEntity
  8
SUNPO
 62
   144
100
AcDbTrace
 10
2720.0
 20
3179.188629806482
 30
0.0
 11
2720.0
 21
3162.521963139814
 31
0.0
 12
2770.0
 22
3170.855296473148
 32
0.0
 13
2770.0
 23
3170.855296473148
 33
0.0
  0
SOLID
  5
F2F
330
C92
100
AcDbEntity
  8
SUNPO
 62
   144
100
AcDbTrace
 10
2840.0
 20
3179.188629806482
 30
0.0
 11
2840.0
 21
3162.521963139814
 31
0.0
 12
2790.0
 22
3170.855296473148
 32
0.0
 13
2790.0
 23
3170.855296473148
 33
0.0
  0
MTEXT
  5
F30
330
C92
100
AcDbEntity
  8
SUNPO
 62
     7
100
AcDbMText
 10
2780.0
 20
3208.355296473148
 30
0.0
 40
50.0
 41
0.0
 71
     5
 72
     1
  1
\A2;20
  7
ADD
1001
ACAD
1000
MTEXTBEGIN
1070
    73
1070
     1
1070
    44
1040
1.0
1070
    74
1070
     0
1000
MTEXTEND
  0
POINT
  5
F31
330
C92
100
AcDbEntity
  8
DEFPOINTS
 62
     0
100
AcDbPoint
 10
2770.0
 20
3086.282944709722
 30
0.0
  0
POINT
  5
F32
330
C92
100
AcDbEntity
  8
DEFPOINTS
 62
     0
100
AcDbPoint
 10
2790.0
 20
3020.0
 30
0.0
  0
POINT
  5
F33
330
C92
100
AcDbEntity
  8
DEFPOINTS
 62
     0
100
AcDbPoint
 10
2790.0
 20
3170.855296473148
 30
0.0
  0
ENDBLK
  5
C9F
330
C92
100
AcDbEntity
  8
0
100
AcDbBlockEnd
  0
BLOCK
  5
CAB
330
CA1
100
AcDbEntity
  8
0
100
AcDbBlockBegin
  2
*D9
 70
     1
 10
0.0
 20
0.0
 30
0.0
  3
*D9
  1

  0
LINE
  5
11CC
330
CA1
100
AcDbEntity
  8
SUNPO
 62
   144
100
AcDbLine
 10
2790.0
 20
2979.98062948523
 30
0.0
 11
2790.0
 21
3180.855296473148
 31
0.0
  0
LINE
  5
11CD
330
CA1
100
AcDbEntity
  8
SUNPO
 62
   144
100
AcDbLine
 10
3290.0
 20
3021.710592946296
 30
0.0
 11
3290.0
 21
3180.855296473148
 31
0.0
  0
LINE
  5
11CE
330
CA1
100
AcDbEntity
  8
SUNPO
 62
   144
100
AcDbLine
 10
2840.0
 20
3170.855296473148
 30
0.0
 11
3240.0
 21
3170.855296473148
 31
0.0
  0
SOLID
  5
11CF
330
CA1
100
AcDbEntity
  8
SUNPO
 62
   144
100
AcDbTrace
 10
2840.0
 20
3179.188629806482
 30
0.0
 11
2840.0
 21
3162.521963139814
 31
0.0
 12
2790.0
 22
3170.855296473148
 32
0.0
 13
2790.0
 23
3170.855296473148
 33
0.0
  0
SOLID
  5
11D0
330
CA1
100
AcDbEntity
  8
SUNPO
 62
   144
100
AcDbTrace
 10
3240.0
 20
3179.188629806482
 30
0.0
 11
3240.0
 21
3162.521963139814
 31
0.0
 12
3290.0
 22
3170.855296473148
 32
0.0
 13
3290.0
 23
3170.855296473148
 33
0.0
  0
MTEXT
  5
11D1
330
CA1
100
AcDbEntity
  8
SUNPO
 62
     7
100
AcDbMText
 10
3040.0
 20
3208.355296473148
 30
0.0
 40
50.0
 41
0.0
 71
     5
 72
     1
  1
\A2;500
  7
ADD
1001
ACAD
1000
MTEXTBEGIN
1070
    73
1070
     1
1070
    44
1040
1.0
1070
    74
1070
     0
1000
MTEXTEND
  0
POINT
  5
11D2
330
CA1
100
AcDbEntity
  8
DEFPOINTS
 62
     0
100
AcDbPoint
 10
2790.0
 20
2959.98062948523
 30
0.0
  0
POINT
  5
11D3
330
CA1
100
AcDbEntity
  8
DEFPOINTS
 62
     0
100
AcDbPoint
 10
3290.0
 20
3001.710592946296
 30
0.0
  0
POINT
  5
11D4
330
CA1
100
AcDbEntity
  8
DEFPOINTS
 62
     0
100
AcDbPoint
 10
3290.0
 20
3170.855296473148
 30
0.0
  0
ENDBLK
  5
CAC
330
CA1
100
AcDbEntity
  8
0
100
AcDbBlockEnd
  0
BLOCK
  5
D2F
330
D25
100
AcDbEntity
  8
0
100
AcDbBlockBegin
  2
*D10
 70
     1
 10
0.0
 20
0.0
 30
0.0
  3
*D10
  1

  0
LINE
  5
F0E
330
D25
100
AcDbEntity
  8
SUNPO
 62
   144
100
AcDbLine
 10
2589.999999999999
 20
1861.710592946296
 30
0.0
 11
2589.999999999999
 21
2101.578814107408
 31
0.0
  0
LINE
  5
F0F
330
D25
100
AcDbEntity
  8
SUNPO
 62
   144
100
AcDbLine
 10
3290.0
 20
1861.710592946296
 30
0.0
 11
3290.0
 21
2101.578814107408
 31
0.0
  0
LINE
  5
F10
330
D25
100
AcDbEntity
  8
SUNPO
 62
   144
100
AcDbLine
 10
2639.999999999999
 20
2091.578814107408
 30
0.0
 11
3240.0
 21
2091.578814107408
 31
0.0
  0
SOLID
  5
F11
330
D25
100
AcDbEntity
  8
SUNPO
 62
   144
100
AcDbTrace
 10
2639.999999999999
 20
2099.912147440742
 30
0.0
 11
2639.999999999999
 21
2083.245480774075
 31
0.0
 12
2589.999999999999
 22
2091.578814107408
 32
0.0
 13
2589.999999999999
 23
2091.578814107408
 33
0.0
  0
SOLID
  5
F12
330
D25
100
AcDbEntity
  8
SUNPO
 62
   144
100
AcDbTrace
 10
3240.0
 20
2099.912147440742
 30
0.0
 11
3240.0
 21
2083.245480774075
 31
0.0
 12
3290.0
 22
2091.578814107408
 32
0.0
 13
3290.0
 23
2091.578814107408
 33
0.0
  0
MTEXT
  5
F13
330
D25
100
AcDbEntity
  8
SUNPO
 62
     7
100
AcDbMText
 10
2939.999999999999
 20
2129.078814107408
 30
0.0
 40
50.0
 41
0.0
 71
     5
 72
     1
  1
\A2;700
  7
ADD
1001
ACAD
1000
MTEXTBEGIN
1070
    73
1070
     1
1070
    44
1040
1.0
1070
    74
1070
     0
1000
MTEXTEND
  0
POINT
  5
F14
330
D25
100
AcDbEntity
  8
DEFPOINTS
 62
     0
100
AcDbPoint
 10
2589.999999999999
 20
1841.710592946296
 30
0.0
  0
POINT
  5
F15
330
D25
100
AcDbEntity
  8
DEFPOINTS
 62
     0
100
AcDbPoint
 10
3290.0
 20
1841.710592946296
 30
0.0
  0
POINT
  5
F16
330
D25
100
AcDbEntity
  8
DEFPOINTS
 62
     0
100
AcDbPoint
 10
3290.0
 20
2091.578814107408
 30
0.0
  0
ENDBLK
  5
D30
330
D25
100
AcDbEntity
  8
0
100
AcDbBlockEnd
  0
BLOCK
  5
EFB
330
EF1
100
AcDbEntity
  8
0
100
AcDbBlockBegin
  2
*D11
 70
     1
 10
0.0
 20
0.0
 30
0.0
  3
*D11
  1

  0
LINE
  5
F05
330
EF1
100
AcDbEntity
  8
SUNPO
 62
   144
100
AcDbLine
 10
3290.0
 20
3190.855296473148
 30
0.0
 11
3290.0
 21
3570.0
 31
0.0
  0
LINE
  5
F06
330
EF1
100
AcDbEntity
  8
SUNPO
 62
   144
100
AcDbLine
 10
2590.0
 20
3390.0
 30
0.0
 11
2590.0
 21
3570.0
 31
0.0
  0
LINE
  5
F07
330
EF1
100
AcDbEntity
  8
SUNPO
 62
   144
100
AcDbLine
 10
3240.0
 20
3560.0
 30
0.0
 11
2640.0
 21
3560.0
 31
0.0
  0
SOLID
  5
F08
330
EF1
100
AcDbEntity
  8
SUNPO
 62
   144
100
AcDbTrace
 10
3240.0
 20
3568.333333333333
 30
0.0
 11
3240.0
 21
3551.666666666667
 31
0.0
 12
3290.0
 22
3560.0
 32
0.0
 13
3290.0
 23
3560.0
 33
0.0
  0
SOLID
  5
F09
330
EF1
100
AcDbEntity
  8
SUNPO
 62
   144
100
AcDbTrace
 10
2640.0
 20
3568.333333333333
 30
0.0
 11
2640.0
 21
3551.666666666667
 31
0.0
 12
2590.0
 22
3560.0
 32
0.0
 13
2590.0
 23
3560.0
 33
0.0
  0
MTEXT
  5
F0A
330
EF1
100
AcDbEntity
  8
SUNPO
 62
     7
100
AcDbMText
 10
2940.0
 20
3597.500000000001
 30
0.0
 40
50.0
 41
0.0
 71
     5
 72
     1
  1
\A2;700
  7
ADD
1001
ACAD
1000
MTEXTBEGIN
1070
    73
1070
     1
1070
    44
1040
1.0
1070
    74
1070
     0
1000
MTEXTEND
  0
POINT
  5
F0B
330
EF1
100
AcDbEntity
  8
DEFPOINTS
 62
     0
100
AcDbPoint
 10
3290.0
 20
3170.855296473148
 30
0.0
  0
POINT
  5
F0C
330
EF1
100
AcDbEntity
  8
DEFPOINTS
 62
     0
100
AcDbPoint
 10
2590.0
 20
3370.0
 30
0.0
  0
POINT
  5
F0D
330
EF1
100
AcDbEntity
  8
DEFPOINTS
 62
     0
100
AcDbPoint
 10
2590.0
 20
3560.0
 30
0.0
  0
ENDBLK
  5
EFC
330
EF1
100
AcDbEntity
  8
0
100
AcDbBlockEnd
  0
BLOCK
  5
FD1
330
FC7
100
AcDbEntity
  8
0
100
AcDbBlockBegin
  2
*D12
 70
     1
 10
0.0
 20
0.0
 30
0.0
  3
*D12
  1

  0
LINE
  5
FC8
330
FC7
100
AcDbEntity
  8
SUNPO
 62
   144
100
AcDbLine
 10
3309.999999999999
 20
1841.710592946296
 30
0.0
 11
3540.0
 21
1841.710592946296
 31
0.0
  0
LINE
  5
FC9
330
FC7
100
AcDbEntity
  8
SUNPO
 62
   144
100
AcDbLine
 10
3310.0
 20
1241.710592946296
 30
0.0
 11
3540.0
 21
1241.710592946296
 31
0.0
  0
LINE
  5
FCA
330
FC7
100
AcDbEntity
  8
SUNPO
 62
   144
100
AcDbLine
 10
3530.0
 20
1791.710592946296
 30
0.0
 11
3530.0
 21
1291.710592946296
 31
0.0
  0
SOLID
  5
FCB
330
FC7
100
AcDbEntity
  8
SUNPO
 62
   144
100
AcDbTrace
 10
3521.666666666666
 20
1791.710592946296
 30
0.0
 11
3538.333333333333
 21
1791.710592946296
 31
0.0
 12
3530.0
 22
1841.710592946296
 32
0.0
 13
3530.0
 23
1841.710592946296
 33
0.0
  0
SOLID
  5
FCC
330
FC7
100
AcDbEntity
  8
SUNPO
 62
   144
100
AcDbTrace
 10
3521.666666666666
 20
1291.710592946296
 30
0.0
 11
3538.333333333333
 21
1291.710592946296
 31
0.0
 12
3530.0
 22
1241.710592946296
 32
0.0
 13
3530.0
 23
1241.710592946296
 33
0.0
  0
MTEXT
  5
FCD
330
FC7
100
AcDbEntity
  8
SUNPO
 62
     7
100
AcDbMText
 10
3492.499999999999
 20
1541.710592946297
 30
0.0
 40
50.0
 41
0.0
 71
     5
 72
     1
  1
\A2;600
  7
ADD
 11
0.0000000000000001
 21
1.0
 31
0.0
1001
ACAD
1000
MTEXTBEGIN
1070
    73
1070
     1
1070
    44
1040
1.0
1070
    74
1070
     0
1000
MTEXTEND
  0
POINT
  5
FCE
330
FC7
100
AcDbEntity
  8
DEFPOINTS
 62
     0
100
AcDbPoint
 10
3290.0
 20
1841.710592946296
 30
0.0
  0
POINT
  5
FCF
330
FC7
100
AcDbEntity
  8
DEFPOINTS
 62
     0
100
AcDbPoint
 10
3290.0
 20
1241.710592946296
 30
0.0
  0
POINT
  5
FD0
330
FC7
100
AcDbEntity
  8
DEFPOINTS
 62
     0
100
AcDbPoint
 10
3530.0
 20
1241.710592946296
 30
0.0
  0
ENDBLK
  5
FD2
330
FC7
100
AcDbEntity
  8
0
100
AcDbBlockEnd
  0
ENDSEC
  0
SECTION
  2
ENTITIES
  0
LINE
  5
60A
330
1F
100
AcDbEntity
  8
HOJO
100
AcDbLine
 10
360.0
 20
260.0
 30
0.0
 11
5580.0
 21
260.0
 31
0.0
  0
LINE
  5
60B
330
1F
100
AcDbEntity
  8
HOJO
100
AcDbLine
 10
360.0
 20
560.0
 30
0.0
 11
5580.0
 21
560.0
 31
0.0
  0
LINE
  5
60C
330
1F
100
AcDbEntity
  8
HOJO
100
AcDbLine
 10
360.0
 20
260.0
 30
0.0
 11
360.0
 21
560.0
 31
0.0
  0
LINE
  5
60D
330
1F
100
AcDbEntity
  8
HOJO
100
AcDbLine
 10
2360.0
 20
260.0
 30
0.0
 11
2360.0
 21
560.0
 31
0.0
  0
LINE
  5
60F
330
1F
100
AcDbEntity
  8
HOJO
100
AcDbLine
 10
3160.0
 20
260.0
 30
0.0
 11
3160.0
 21
560.0
 31
0.0
  0
LINE
  5
610
330
1F
100
AcDbEntity
  8
HOJO
100
AcDbLine
 10
3660.0
 20
260.0
 30
0.0
 11
3660.0
 21
560.0
 31
0.0
  0
LINE
  5
928
330
1F
100
AcDbEntity
  8
DEFPOINTS
100
AcDbLine
 10
360.0
 20
2100.0
 30
0.0
 11
5580.0
 21
2100.0
 31
0.0
  0
LINE
  5
929
330
1F
100
AcDbEntity
  8
DEFPOINTS
100
AcDbLine
 10
2970.0
 20
3940.0
 30
0.0
 11
2970.0
 21
560.0
 31
0.0
  0
LINE
  5
934
330
1F
100
AcDbEntity
  8
3C1
100
AcDbLine
 10
2755.0
 20
2831.710592946296
 30
0.0
 11
2755.0
 21
2831.710592946296
 31
0.0
  0
LINE
  5
9FC
330
1F
100
AcDbEntity
  8
DEFPOINTS
100
AcDbLine
 10
1739.194436307673
 20
2291.578814107408
 30
0.0
 11
5265.0
 21
2291.578814107408
 31
0.0
  0
LINE
  5
9FD
330
1F
100
AcDbEntity
  8
DEFPOINTS
100
AcDbLine
 10
3435.0
 20
3235.0
 30
0.0
 11
3435.0
 21
2175.0
 31
0.0
  0
LINE
  5
BCB
330
1F
100
AcDbEntity
  8
3C1
100
AcDbLine
 10
2590.0
 20
3151.710592946296
 30
0.0
 11
2741.816463358972
 21
3151.710592946296
 31
0.0
  0
LINE
  5
BCF
330
1F
100
AcDbEntity
  8
3C1
100
AcDbLine
 10
2590.0
 20
3151.710592946296
 30
0.0
 11
2590.0
 21
2831.710592946296
 31
0.0
  0
LINE
  5
BD2
330
1F
100
AcDbEntity
  8
3C1
100
AcDbLine
 10
2771.758040713458
 20
3123.581941530952
 30
0.0
 11
2780.741959286541
 21
2979.83924436164
 31
0.0
  0
ARC
  5
BD7
330
1F
100
AcDbEntity
  8
3C1
100
AcDbCircle
 10
2741.816463358972
 20
3121.710592946296
 30
0.0
 40
30.0
100
AcDbArc
 50
3.576334374997359
 51
90.0
  0
LINE
  5
C40
330
1F
100
AcDbEntity
  8
3C1
100
AcDbLine
 10
2590.0
 20
2831.710592946296
 30
0.0
 11
3290.0
 21
2831.710592946296
 31
0.0
  0
ARC
  5
C43
330
1F
100
AcDbEntity
  8
3C1
100
AcDbCircle
 10
2810.683536641028
 20
2981.710592946296
 30
0.0
 40
30.0
100
AcDbArc
 50
183.5763343749977
 51
270.0
  0
LINE
  5
C44
330
1F
100
AcDbEntity
  8
3C1
100
AcDbLine
 10
2810.683536641028
 20
2951.710592946296
 30
0.0
 11
3290.0
 21
2981.710592946296
 31
0.0
  0
LINE
  5
C46
330
1F
100
AcDbEntity
  8
3C1
100
AcDbLine
 10
3290.0
 20
2981.710592946296
 30
0.0
 11
3290.0
 21
2831.710592946296
 31
0.0
  0
LINE
  5
D07
330
1F
100
AcDbEntity
  8
3C1
100
AcDbLine
 10
2589.999999999999
 20
1841.710592946296
 30
0.0
 11
2589.999999999999
 21
1241.710592946296
 31
0.0
  0
LINE
  5
D10
330
1F
100
AcDbEntity
  8
3C1
100
AcDbLine
 10
2589.999999999999
 20
1241.710592946296
 30
0.0
 11
3290.0
 21
1241.710592946296
 31
0.0
  0
LINE
  5
D11
330
1F
100
AcDbEntity
  8
3C1
100
AcDbLine
 10
2589.999999999999
 20
1841.710592946296
 30
0.0
 11
3290.0
 21
1841.710592946296
 31
0.0
  0
LINE
  5
D12
330
1F
100
AcDbEntity
  8
3C1
100
AcDbLine
 10
2769.999999999999
 20
1841.710592946296
 30
0.0
 11
2769.999999999999
 21
1241.710592946296
 31
0.0
  0
LINE
  5
D13
330
1F
100
AcDbEntity
  8
3C1
100
AcDbLine
 10
2789.999999999999
 20
1841.710592946296
 30
0.0
 11
2789.999999999999
 21
1241.710592946296
 31
0.0
  0
LINE
  5
D23
330
1F
100
AcDbEntity
  8
3C1
100
AcDbLine
 10
3290.0
 20
1841.710592946296
 30
0.0
 11
3290.0
 21
1241.710592946296
 31
0.0
  0
LINE
  5
122C
330
1F
100
AcDbEntity
  8
SUNPO
 62
   144
100
AcDbLine
 10
3309.999999999999
 20
1841.710592946296
 30
0.0
 11
3540.0
 21
1841.710592946296
 31
0.0
  0
LINE
  5
122D
330
1F
100
AcDbEntity
  8
SUNPO
 62
   144
100
AcDbLine
 10
3310.0
 20
1241.710592946296
 30
0.0
 11
3540.0
 21
1241.710592946296
 31
0.0
  0
LINE
  5
122E
330
1F
100
AcDbEntity
  8
SUNPO
 62
   144
100
AcDbLine
 10
3530.0
 20
1791.710592946296
 30
0.0
 11
3530.0
 21
1291.710592946296
 31
0.0
  0
SOLID
  5
122F
330
1F
100
AcDbEntity
  8
SUNPO
 62
   144
100
AcDbTrace
 10
3521.666666666666
 20
1791.710592946296
 30
0.0
 11
3538.333333333333
 21
1791.710592946296
 31
0.0
 12
3530.0
 22
1841.710592946296
 32
0.0
 13
3530.0
 23
1841.710592946296
 33
0.0
  0
SOLID
  5
1230
330
1F
100
AcDbEntity
  8
SUNPO
 62
   144
100
AcDbTrace
 10
3521.666666666666
 20
1291.710592946296
 30
0.0
 11
3538.333333333333
 21
1291.710592946296
 31
0.0
 12
3530.0
 22
1241.710592946296
 32
0.0
 13
3530.0
 23
1241.710592946296
 33
0.0
  0
LINE
  5
1232
330
1F
100
AcDbEntity
  8
SUNPO
 62
   144
100
AcDbLine
 10
3290.0
 20
3190.855296473148
 30
0.0
 11
3290.0
 21
3570.0
 31
0.0
  0
LINE
  5
1233
330
1F
100
AcDbEntity
  8
SUNPO
 62
   144
100
AcDbLine
 10
2590.0
 20
3390.0
 30
0.0
 11
2590.0
 21
3570.0
 31
0.0
  0
LINE
  5
1234
330
1F
100
AcDbEntity
  8
SUNPO
 62
   144
100
AcDbLine
 10
3240.0
 20
3560.0
 30
0.0
 11
2640.0
 21
3560.0
 31
0.0
  0
SOLID
  5
1235
330
1F
100
AcDbEntity
  8
SUNPO
 62
   144
100
AcDbTrace
 10
3240.0
 20
3568.333333333333
 30
0.0
 11
3240.0
 21
3551.666666666667
 31
0.0
 12
3290.0
 22
3560.0
 32
0.0
 13
3290.0
 23
3560.0
 33
0.0
  0
SOLID
  5
1236
330
1F
100
AcDbEntity
  8
SUNPO
 62
   144
100
AcDbTrace
 10
2640.0
 20
3568.333333333333
 30
0.0
 11
2640.0
 21
3551.666666666667
 31
0.0
 12
2590.0
 22
3560.0
 32
0.0
 13
2590.0
 23
3560.0
 33
0.0
  0
TEXT
  5
1238
330
1F
100
AcDbEntity
  8
3C1
100
AcDbText
 10
2435.0
 20
345.0
 30
0.0
 40
100.0
  1
２型
  7
ADD
100
AcDbText
  0
TEXT
  5
1239
330
1F
100
AcDbEntity
  8
3C1
100
AcDbText
 10
617.6172668647705
 20
351.5395695135939
 30
0.0
 40
100.0
  1
国土交通省Ｌ形
  7
ADD
100
AcDbText
  0
LINE
  5
123A
330
1F
100
AcDbEntity
  8
SUNPO
 62
   144
100
AcDbLine
 10
2589.999999999999
 20
1861.710592946296
 30
0.0
 11
2589.999999999999
 21
2101.578814107408
 31
0.0
  0
LINE
  5
123B
330
1F
100
AcDbEntity
  8
SUNPO
 62
   144
100
AcDbLine
 10
3290.0
 20
1861.710592946296
 30
0.0
 11
3290.0
 21
2101.578814107408
 31
0.0
  0
LINE
  5
123C
330
1F
100
AcDbEntity
  8
SUNPO
 62
   144
100
AcDbLine
 10
2639.999999999999
 20
2091.578814107408
 30
0.0
 11
3240.0
 21
2091.578814107408
 31
0.0
  0
SOLID
  5
123D
330
1F
100
AcDbEntity
  8
SUNPO
 62
   144
100
AcDbTrace
 10
2639.999999999999
 20
2099.912147440742
 30
0.0
 11
2639.999999999999
 21
2083.245480774075
 31
0.0
 12
2589.999999999999
 22
2091.578814107408
 32
0.0
 13
2589.999999999999
 23
2091.578814107408
 33
0.0
  0
SOLID
  5
123E
330
1F
100
AcDbEntity
  8
SUNPO
 62
   144
100
AcDbTrace
 10
3240.0
 20
2099.912147440742
 30
0.0
 11
3240.0
 21
2083.245480774075
 31
0.0
 12
3290.0
 22
2091.578814107408
 32
0.0
 13
3290.0
 23
2091.578814107408
 33
0.0
  0
LINE
  5
1240
330
1F
100
AcDbEntity
  8
SUNPO
 62
   144
100
AcDbLine
 10
2790.0
 20
2979.98062948523
 30
0.0
 11
2790.0
 21
3180.855296473148
 31
0.0
  0
LINE
  5
1241
330
1F
100
AcDbEntity
  8
SUNPO
 62
   144
100
AcDbLine
 10
3290.0
 20
3021.710592946296
 30
0.0
 11
3290.0
 21
3180.855296473148
 31
0.0
  0
LINE
  5
1242
330
1F
100
AcDbEntity
  8
SUNPO
 62
   144
100
AcDbLine
 10
2840.0
 20
3170.855296473148
 30
0.0
 11
3240.0
 21
3170.855296473148
 31
0.0
  0
SOLID
  5
1243
330
1F
100
AcDbEntity
  8
SUNPO
 62
   144
100
AcDbTrace
 10
2840.0
 20
3179.188629806482
 30
0.0
 11
2840.0
 21
3162.521963139814
 31
0.0
 12
2790.0
 22
3170.855296473148
 32
0.0
 13
2790.0
 23
3170.855296473148
 33
0.0
  0
SOLID
  5
1244
330
1F
100
AcDbEntity
  8
SUNPO
 62
   144
100
AcDbTrace
 10
3240.0
 20
3179.188629806482
 30
0.0
 11
3240.0
 21
3162.521963139814
 31
0.0
 12
3290.0
 22
3170.855296473148
 32
0.0
 13
3290.0
 23
3170.855296473148
 33
0.0
  0
LINE
  5
1246
330
1F
100
AcDbEntity
  8
SUNPO
 62
   144
100
AcDbLine
 10
2770.0
 20
3106.282944709722
 30
0.0
 11
2770.0
 21
3180.855296473148
 31
0.0
  0
LINE
  5
1247
330
1F
100
AcDbEntity
  8
SUNPO
 62
   144
100
AcDbLine
 10
2790.0
 20
3040.0
 30
0.0
 11
2790.0
 21
3180.855296473148
 31
0.0
  0
LINE
  5
1248
330
1F
100
AcDbEntity
  8
SUNPO
 62
   144
100
AcDbLine
 10
2720.0
 20
3170.855296473148
 30
0.0
 11
2670.0
 21
3170.855296473148
 31
0.0
  0
LINE
  5
1249
330
1F
100
AcDbEntity
  8
SUNPO
 62
   144
100
AcDbLine
 10
2840.0
 20
3170.855296473148
 30
0.0
 11
2890.0
 21
3170.855296473148
 31
0.0
  0
LINE
  5
124A
330
1F
100
AcDbEntity
  8
SUNPO
 62
   144
100
AcDbLine
 10
2770.0
 20
3170.855296473148
 30
0.0
 11
2790.0
 21
3170.855296473148
 31
0.0
  0
SOLID
  5
124B
330
1F
100
AcDbEntity
  8
SUNPO
 62
   144
100
AcDbTrace
 10
2720.0
 20
3179.188629806482
 30
0.0
 11
2720.0
 21
3162.521963139814
 31
0.0
 12
2770.0
 22
3170.855296473148
 32
0.0
 13
2770.0
 23
3170.855296473148
 33
0.0
  0
SOLID
  5
124C
330
1F
100
AcDbEntity
  8
SUNPO
 62
   144
100
AcDbTrace
 10
2840.0
 20
3179.188629806482
 30
0.0
 11
2840.0
 21
3162.521963139814
 31
0.0
 12
2790.0
 22
3170.855296473148
 32
0.0
 13
2790.0
 23
3170.855296473148
 33
0.0
  0
LINE
  5
124E
330
1F
100
AcDbEntity
  8
SUNPO
 62
   144
100
AcDbLine
 10
3310.0
 20
2831.710592946296
 30
0.0
 11
3530.0
 21
2831.710592946296
 31
0.0
  0
LINE
  5
124F
330
1F
100
AcDbEntity
  8
SUNPO
 62
   144
100
AcDbLine
 10
3310.0
 20
2981.710592946296
 30
0.0
 11
3530.0
 21
2981.710592946296
 31
0.0
  0
LINE
  5
1250
330
1F
100
AcDbEntity
  8
SUNPO
 62
   144
100
AcDbLine
 10
3520.0
 20
2881.710592946296
 30
0.0
 11
3520.0
 21
2931.710592946296
 31
0.0
  0
SOLID
  5
1251
330
1F
100
AcDbEntity
  8
SUNPO
 62
   144
100
AcDbTrace
 10
3511.666666666666
 20
2881.710592946296
 30
0.0
 11
3528.333333333334
 21
2881.710592946296
 31
0.0
 12
3520.0
 22
2831.710592946296
 32
0.0
 13
3520.0
 23
2831.710592946296
 33
0.0
  0
SOLID
  5
1252
330
1F
100
AcDbEntity
  8
SUNPO
 62
   144
100
AcDbTrace
 10
3511.666666666666
 20
2931.710592946296
 30
0.0
 11
3528.333333333334
 21
2931.710592946296
 31
0.0
 12
3520.0
 22
2981.710592946296
 32
0.0
 13
3520.0
 23
2981.710592946296
 33
0.0
  0
LINE
  5
1254
330
1F
100
AcDbEntity
  8
SUNPO
 62
   144
100
AcDbLine
 10
2590.0
 20
3171.710592946296
 30
0.0
 11
2590.0
 21
3370.0
 31
0.0
  0
LINE
  5
1255
330
1F
100
AcDbEntity
  8
SUNPO
 62
   144
100
AcDbLine
 10
2770.0
 20
2971.710592946296
 30
0.0
 11
2770.0
 21
3370.0
 31
0.0
  0
LINE
  5
1256
330
1F
100
AcDbEntity
  8
SUNPO
 62
   144
100
AcDbLine
 10
2640.0
 20
3360.000000000001
 30
0.0
 11
2720.0
 21
3360.000000000001
 31
0.0
  0
SOLID
  5
1257
330
1F
100
AcDbEntity
  8
SUNPO
 62
   144
100
AcDbTrace
 10
2640.0
 20
3368.333333333334
 30
0.0
 11
2640.0
 21
3351.666666666667
 31
0.0
 12
2590.0
 22
3360.000000000001
 32
0.0
 13
2590.0
 23
3360.000000000001
 33
0.0
  0
SOLID
  5
1258
330
1F
100
AcDbEntity
  8
SUNPO
 62
   144
100
AcDbTrace
 10
2720.0
 20
3368.333333333334
 30
0.0
 11
2720.0
 21
3351.666666666667
 31
0.0
 12
2770.0
 22
3360.000000000001
 32
0.0
 13
2770.0
 23
3360.000000000001
 33
0.0
  0
LINE
  5
125A
330
1F
100
AcDbEntity
  8
SUNPO
 62
   144
100
AcDbLine
 10
2570.0
 20
2831.710592946296
 30
0.0
 11
2214.999999999999
 21
2831.710592946296
 31
0.0
  0
LINE
  5
125B
330
1F
100
AcDbEntity
  8
SUNPO
 62
   144
100
AcDbLine
 10
2570.0
 20
3151.710592946296
 30
0.0
 11
2215.0
 21
3151.710592946296
 31
0.0
  0
LINE
  5
125C
330
1F
100
AcDbEntity
  8
SUNPO
 62
   144
100
AcDbLine
 10
2224.999999999999
 20
2881.710592946296
 30
0.0
 11
2225.0
 21
3101.710592946296
 31
0.0
  0
SOLID
  5
125D
330
1F
100
AcDbEntity
  8
SUNPO
 62
   144
100
AcDbTrace
 10
2216.666666666666
 20
2881.710592946296
 30
0.0
 11
2233.333333333333
 21
2881.710592946296
 31
0.0
 12
2224.999999999999
 22
2831.710592946296
 32
0.0
 13
2224.999999999999
 23
2831.710592946296
 33
0.0
  0
SOLID
  5
125E
330
1F
100
AcDbEntity
  8
SUNPO
 62
   144
100
AcDbTrace
 10
2216.666666666666
 20
3101.710592946296
 30
0.0
 11
2233.333333333333
 21
3101.710592946296
 31
0.0
 12
2225.0
 22
3151.710592946296
 32
0.0
 13
2225.0
 23
3151.710592946296
 33
0.0
  0
LINE
  5
1260
330
1F
100
AcDbEntity
  8
SUNPO
 62
   144
100
AcDbLine
 10
2570.0
 20
2951.710592946296
 30
0.0
 11
2419.999999999999
 21
2951.710592946296
 31
0.0
  0
LINE
  5
1261
330
1F
100
AcDbEntity
  8
SUNPO
 62
   144
100
AcDbLine
 10
2570.0
 20
3151.710592946296
 30
0.0
 11
2420.0
 21
3151.710592946296
 31
0.0
  0
LINE
  5
1262
330
1F
100
AcDbEntity
  8
SUNPO
 62
   144
100
AcDbLine
 10
2429.999999999999
 20
3001.710592946296
 30
0.0
 11
2430.0
 21
3101.710592946296
 31
0.0
  0
SOLID
  5
1263
330
1F
100
AcDbEntity
  8
SUNPO
 62
   144
100
AcDbTrace
 10
2421.666666666666
 20
3001.710592946296
 30
0.0
 11
2438.333333333333
 21
3001.710592946296
 31
0.0
 12
2429.999999999999
 22
2951.710592946296
 32
0.0
 13
2429.999999999999
 23
2951.710592946296
 33
0.0
  0
SOLID
  5
1264
330
1F
100
AcDbEntity
  8
SUNPO
 62
   144
100
AcDbTrace
 10
2421.666666666666
 20
3101.710592946296
 30
0.0
 11
2438.333333333333
 21
3101.710592946296
 31
0.0
 12
2430.0
 22
3151.710592946296
 32
0.0
 13
2430.0
 23
3151.710592946296
 33
0.0
  0
LINE
  5
1266
330
1F
100
AcDbEntity
  8
SUNPO
 62
   144
100
AcDbLine
 10
2570.0
 20
2831.710592946296
 30
0.0
 11
2420.0
 21
2831.710592946296
 31
0.0
  0
LINE
  5
1267
330
1F
100
AcDbEntity
  8
SUNPO
 62
   144
100
AcDbLine
 10
2570.0
 20
2951.710592946296
 30
0.0
 11
2420.0
 21
2951.710592946296
 31
0.0
  0
LINE
  5
1268
330
1F
100
AcDbEntity
  8
SUNPO
 62
   144
100
AcDbLine
 10
2430.0
 20
2781.710592946296
 30
0.0
 11
2430.0
 21
2731.710592946296
 31
0.0
  0
LINE
  5
1269
330
1F
100
AcDbEntity
  8
SUNPO
 62
   144
100
AcDbLine
 10
2430.0
 20
3001.710592946296
 30
0.0
 11
2430.0
 21
3051.710592946296
 31
0.0
  0
LINE
  5
126A
330
1F
100
AcDbEntity
  8
SUNPO
 62
   144
100
AcDbLine
 10
2430.0
 20
2831.710592946296
 30
0.0
 11
2430.0
 21
2951.710592946296
 31
0.0
  0
SOLID
  5
126B
330
1F
100
AcDbEntity
  8
SUNPO
 62
   144
100
AcDbTrace
 10
2421.666666666666
 20
2781.710592946296
 30
0.0
 11
2438.333333333333
 21
2781.710592946296
 31
0.0
 12
2430.0
 22
2831.710592946296
 32
0.0
 13
2430.0
 23
2831.710592946296
 33
0.0
  0
SOLID
  5
126C
330
1F
100
AcDbEntity
  8
SUNPO
 62
   144
100
AcDbTrace
 10
2421.666666666666
 20
3001.710592946296
 30
0.0
 11
2438.333333333333
 21
3001.710592946296
 31
0.0
 12
2430.0
 22
2951.710592946296
 32
0.0
 13
2430.0
 23
2951.710592946296
 33
0.0
  0
TEXT
  5
126E
330
1F
100
AcDbEntity
  8
3C1
100
AcDbText
 10
3246.680311730542
 20
359.2274732162223
 30
0.0
 40
70.0
  1
１／２０
  7
ADD
100
AcDbText
  0
TEXT
  5
126F
330
1F
100
AcDbEntity
  8
3C1
100
AcDbText
 10
381.8862574011546
 20
488.6918916770627
 30
0.0
 40
50.0
  1
製品名
  7
ADD
100
AcDbText
  0
TEXT
  5
1270
330
1F
100
AcDbEntity
  8
3C1
100
AcDbText
 10
2376.290169028722
 20
494.4531736811823
 30
0.0
 40
50.0
  1
型式
  7
ADD
100
AcDbText
  0
TEXT
  5
1271
330
1F
100
AcDbEntity
  8
3C1
100
AcDbText
 10
3177.510249231657
 20
488.6918916770627
 30
0.0
 40
50.0
  1
縮尺
  7
ADD
100
AcDbText
  0
TEXT
  5
1272
330
1F
100
AcDbEntity
  8
3C1
100
AcDbText
 10
3730.870883051572
 20
352.2726133092145
 30
0.0
 40
100.0
  1
千葉県コンクリート製品協同組合
  7
ADD
100
AcDbText
  0
LINE
  5
1273
330
1F
100
AcDbEntity
  8
HOJO
100
AcDbLine
 10
360.0
 20
260.0
 30
0.0
 11
5580.0
 21
260.0
 31
0.0
  0
LINE
  5
1274
330
1F
100
AcDbEntity
  8
HOJO
100
AcDbLine
 10
5580.0
 20
260.0
 30
0.0
 11
5580.0
 21
3940.0
 31
0.0
  0
LINE
  5
1275
330
1F
100
AcDbEntity
  8
HOJO
100
AcDbLine
 10
5580.0
 20
3940.0
 30
0.0
 11
360.0
 21
3940.0
 31
0.0
  0
LINE
  5
1276
330
1F
100
AcDbEntity
  8
HOJO
100
AcDbLine
 10
360.0
 20
3940.0
 30
0.0
 11
360.0
 21
260.0
 31
0.0
  0
LINE
  5
1277
330
1F
100
AcDbEntity
  8
HOJO
100
AcDbLine
 10
0.0
 20
0.0
 30
0.0
 11
5940.0
 21
0.0
 31
0.0
  0
LINE
  5
1278
330
1F
100
AcDbEntity
  8
HOJO
100
AcDbLine
 10
5940.0
 20
0.0
 30
0.0
 11
5940.0
 21
4200.0
 31
0.0
  0
LINE
  5
1279
330
1F
100
AcDbEntity
  8
HOJO
100
AcDbLine
 10
5940.0
 20
4200.0
 30
0.0
 11
0.0
 21
4200.0
 31
0.0
  0
LINE
  5
127A
330
1F
100
AcDbEntity
  8
HOJO
100
AcDbLine
 10
0.0
 20
4200.0
 30
0.0
 11
0.0
 21
0.0
 31
0.0
  0
TEXT
  5
127B
330
1F
100
AcDbEntity
  8
3C1
 62
     7
100
AcDbText
 10
2417.499999999999
 20
2816.710592946296
 30
0.0
 40
50.0
  1
120
 50
90.0
  7
ADD
100
AcDbText
  0
TEXT
  5
127C
330
1F
100
AcDbEntity
  8
3C1
 62
     7
100
AcDbText
 10
2417.499999999999
 20
2980.282021517725
 30
0.0
 40
50.0
  1
200
 50
90.0
  7
ADD
100
AcDbText
  0
TEXT
  5
127D
330
1F
100
AcDbEntity
  8
3C1
 62
     7
100
AcDbText
 10
2212.499999999999
 20
2920.282021517725
 30
0.0
 40
50.0
  1
320
 50
90.0
  7
ADD
100
AcDbText
  0
TEXT
  5
127E
330
1F
100
AcDbEntity
  8
3C1
 62
     7
100
AcDbText
 10
2605.0
 20
3372.5
 30
0.0
 40
50.0
  1
180
  7
ADD
100
AcDbText
  0
TEXT
  5
127F
330
1F
100
AcDbEntity
  8
3C1
 62
     7
100
AcDbText
 10
3507.499999999999
 20
2831.710592946297
 30
0.0
 40
50.0
  1
150
 50
90.0
  7
ADD
100
AcDbText
  0
TEXT
  5
1280
330
1F
100
AcDbEntity
  8
3C1
 62
     7
100
AcDbText
 10
2732.380952380952
 20
3183.355296473148
 30
0.0
 40
50.0
  1
20
  7
ADD
100
AcDbText
  0
TEXT
  5
1281
330
1F
100
AcDbEntity
  8
3C1
 62
     7
100
AcDbText
 10
2968.571428571428
 20
3183.355296473148
 30
0.0
 40
50.0
  1
500
  7
ADD
100
AcDbText
  0
TEXT
  5
1282
330
1F
100
AcDbEntity
  8
3C1
 62
     7
100
AcDbText
 10
2868.571428571428
 20
2104.078814107408
 30
0.0
 40
50.0
  1
700
  7
ADD
100
AcDbText
  0
TEXT
  5
1283
330
1F
100
AcDbEntity
  8
3C1
 62
     7
100
AcDbText
 10
2868.571428571428
 20
3572.500000000001
 30
0.0
 40
50.0
  1
700
  7
ADD
100
AcDbText
  0
TEXT
  5
1284
330
1F
100
AcDbEntity
  8
3C1
 62
     7
100
AcDbText
 10
3517.5
 20
1469.091545327249
 30
0.0
 40
50.0
  1
600
 50
90.0
  7
ADD
100
AcDbText
  0
VIEWPORT
  5
72
330
1B
100
AcDbEntity
 67
     1
  8
0
100
AcDbViewport
 10
429.8380103383458
 20
277.0
 30
0.0
 40
948.9782706766916
 41
628.4520000000001
 68
     1
 69
     1
1001
ACAD
1000
MVIEW
1002
{
1070
    16
1010
0.0
1020
0.0
1030
0.0
1010
0.0
1020
0.0
1030
1.0
1040
0.0
1040
628.4520000000001
1040
429.8380103383458
1040
277.0
1040
50.0
1040
0.0
1040
0.0
1070
     0
1070
   100
1070
     1
1070
     1
1070
     0
1070
     0
1070
     0
1070
     0
1040
0.0
1040
0.0
1040
0.0
1040
10.0
1040
10.0
1040
10.0
1040
10.0
1070
     0
1002
{
1002
}
1002
}
  0
VIEWPORT
  5
74
330
1B
100
AcDbEntity
 67
     1
  8
VIEWPORT
100
AcDbViewport
 10
414.3779638919212
 20
277.3177265058034
 30
0.0
 40
840.0353682728887
 41
567.2285469943826
 68
     2
 69
     2
1001
ACAD
1000
MVIEW
1002
{
1070
    16
1010
0.0
1020
0.0
1030
0.0
1010
0.0
1020
0.0
1030
1.0
1040
0.0
1040
579.5583043546322
1040
424.4938908624541
1040
286.1973242720074
1040
50.0
1040
0.0
1040
0.0
1070
     0
1070
   100
1070
     1
1070
     1
1070
     0
1070
     0
1070
     0
1070
     0
1040
0.0
1040
0.0
1040
0.0
1040
10.0
1040
10.0
1040
10.0
1040
10.0
1070
     0
1002
{
1002
}
1002
}
  0
ENDSEC
  0
SECTION
  2
OBJECTS
  0
DICTIONARY
  5
C
330
0
100
AcDbDictionary
  3
ACAD_GROUP
350
D
  3
ACAD_LAYOUT
350
1A
  3
ACAD_MLINESTYLE
350
17
  3
ACAD_PLOTSETTINGS
350
19
  3
DWGPROPS
350
4C7
1001
ACAD
1000
TREAT_AS_HARD
1070
     0
1000
TREAT_AS_HARD
1070
     0
  0
DICTIONARY
  5
65D
330
1F
100
AcDbDictionary
  3
ACAD_LAYOUTSELFREF
350
12C9
1001
ACAD
1000
TREAT_AS_HARD
1070
     1
1000
TREAT_AS_HARD
1070
     1
  0
DICTIONARY
  5
65F
330
1B
100
AcDbDictionary
  3
ACAD_LAYOUTSELFREF
350
12C8
1001
ACAD
1000
TREAT_AS_HARD
1070
     1
1000
TREAT_AS_HARD
1070
     1
  0
DICTIONARY
  5
D
102
{ACAD_REACTORS
330
C
102
}
330
C
100
AcDbDictionary
1001
ACAD
1000
TREAT_AS_HARD
1070
     0
1000
TREAT_AS_HARD
1070
     0
  0
DICTIONARY
  5
1A
102
{ACAD_REACTORS
330
C
102
}
330
C
100
AcDbDictionary
1001
ACAD
1000
TREAT_AS_HARD
1070
     0
1000
TREAT_AS_HARD
1070
     0
  0
DICTIONARY
  5
17
102
{ACAD_REACTORS
330
C
102
}
330
C
100
AcDbDictionary
  3
STANDARD
350
18
1001
ACAD
1000
TREAT_AS_HARD
1070
     0
1000
TREAT_AS_HARD
1070
     0
  0
DICTIONARY
  5
19
102
{ACAD_REACTORS
330
C
102
}
330
C
100
AcDbDictionary
1001
ACAD
1000
TREAT_AS_HARD
1070
     0
1000
TREAT_AS_HARD
1070
     0
  0
XRECORD
  5
4C7
102
{ACAD_REACTORS
330
C
102
}
330
C
100
AcDbXrecord
  1
DWGPROPS COOKIE
  2
印刷用テスト
  3
AutoCAD2000による建築設計
  4
鈴木 裕二
  6

  7

  8
U2
  9

300
=
301
=
302
=
303
=
304
=
305
=
306
=
307
=
308
=
309
=
 40
0.7653446875
 41
2451285.4846114
 42
2451333.689743032
  1

 90
        0
  0
XRECORD
  5
12C9
102
{ACAD_REACTORS
330
65D
102
}
330
65D
100
AcDbXrecord
340
1F
  0
XRECORD
  5
12C8
102
{ACAD_REACTORS
330
65F
102
}
330
65F
100
AcDbXrecord
340
1B
  0
MLINESTYLE
  5
18
102
{ACAD_REACTORS
330
17
102
}
330
17
100
AcDbMlineStyle
  2
STANDARD
 70
     0
  3

 62
   256
 51
90.0
 52
90.0
 71
     2
 49
0.5
 62
   256
  6
BYLAYER
 49
-0.5
 62
   256
  6
BYLAYER
  0
ENDSEC
  0
EOF
