  0
SECTION
  2
HEADER
  9
$ACADVER
  1
AC1009
  9
$INSBASE
 10
0
 20
0
 30
0
  9
$EXTMIN
 10
0
 20
0
  9
$EXTMAX
 10
5940
 20
4200
  9
$LIMMIN
 10
0
 20
0
  9
$LIMMAX
 10
5940
 20
4200
  9
$LTSCALE
 40
20
  0
ENDSEC
  0
SECTION
  2
TABLES
  0
TABLE
  2
LTYPE
 70
     9
  0
LTYPE
  2
CONTINUOUS
 70
    64
  3
実線
 72
    65
 73
     0
 40
0.0
  0
LTYPE
  2
DASHED1
 70
    64
  3
--  --  --  --  --  --  --  --  
 72
    65
 73
     2
 40
2.5
 49
1.25
 49
-1.25
  0
LTYPE
  2
DASHED2
 70
    64
  3
----    ----    ----    ----    
 72
    65
 73
     2
 40
5.0
 49
2.5
 49
-2.5
  0
LTYPE
  2
DASHED3
 70
    64
  3
------  ------  ------  ------  
 72
    65
 73
     2
 40
5.0
 49
3.75
 49
-1.25
  0
LTYPE
  2
CENTER1
 70
    64
  3
----- - ----- - ----- - ----- - 
 72
    65
 73
     4
 40
10.0
 49
6.25
 49
-1.25
 49
1.25
 49
-1.25
  0
LTYPE
  2
CENTER2
 70
    64
  3
----------  --  ----------  --  
 72
    65
 73
     4
 40
20.0
 49
12.5
 49
-2.5
 49
2.5
 49
-2.5
  0
LTYPE
  2
PHANTOM1
 70
    64
  3
--- - - --- - - --- - - --- - - 
 72
    65
 73
     6
 40
10.0
 49
3.25
 49
-1.25
 49
1.25
 49
-1.25
 49
1.25
 49
-1.25
  0
LTYPE
  2
PHANTOM2
 70
    64
  3
--------  -  -  --------  -  -  
 72
    65
 73
     6
 40
20.0
 49
10.0
 49
-2.5
 49
1.25
 49
-2.5
 49
1.25
 49
-2.5
  0
LTYPE
  2
DOT
 70
    64
  3
-   -   -   -   -   -   -   -   
 72
    65
 73
     2
 40
2.5
 49
0.625
 49
-1.875
  0
LTYPE
  2
DUMMY
 70
    64
  3
ダミー
 72
    65
 73
     0
 40
0.0
  0
LTYPE
  2
RAND1
 70
    64
  3
----- - ----- - ----- - ----- - 
 72
    65
 73
     4
 40
10.0
 49
6.25
 49
-1.25
 49
1.25
 49
-1.25
  0
LTYPE
  2
RAND2
 70
    64
  3
----------  --  ----------  --  
 72
    65
 73
     4
 40
20.0
 49
12.5
 49
-2.5
 49
2.5
 49
-2.5
  0
LTYPE
  2
RAND3
 70
    64
  3
--- - - --- - - --- - - --- - - 
 72
    65
 73
     6
 40
10.0
 49
3.25
 49
-1.25
 49
1.25
 49
-1.25
 49
1.25
 49
-1.25
  0
LTYPE
  2
RAND4
 70
    64
  3
--------  -  -  --------  -  -  
 72
    65
 73
     6
 40
20.0
 49
10.0
 49
-2.5
 49
1.25
 49
-2.5
 49
1.25
 49
-2.5
  0
LTYPE
  2
RAND5
 70
    64
  3
----- - ----- - ----- - ----- - 
 72
    65
 73
     4
 40
10.0
 49
6.25
 49
-1.25
 49
1.25
 49
-1.25
  0
LTYPE
  2
LONG1
 70
    64
  3
----------  --  ----------  --  
 72
    65
 73
     4
 40
20.0
 49
12.5
 49
-2.5
 49
2.5
 49
-2.5
  0
LTYPE
  2
LONG2
 70
    64
  3
--- - - --- - - --- - - --- - - 
 72
    65
 73
     6
 40
10.0
 49
3.25
 49
-1.25
 49
1.25
 49
-1.25
 49
1.25
 49
-1.25
  0
LTYPE
  2
LONG3
 70
    64
  3
--------  -  -  --------  -  -  
 72
    65
 73
     6
 40
20.0
 49
10.0
 49
-2.5
 49
1.25
 49
-2.5
 49
1.25
 49
-2.5
  0
LTYPE
  2
LONG4
 70
    64
  3
----- - ----- - ----- - ----- - 
 72
    65
 73
     4
 40
10.0
 49
6.25
 49
-1.25
 49
1.25
 49
-1.25
  0
LTYPE
  2
LONG5
 70
    64
  3
----------  --  ----------  --  
 72
    65
 73
     4
 40
20.0
 49
12.5
 49
-2.5
 49
2.5
 49
-2.5
  0
ENDTAB
  0
TABLE
  2
STYLE
  5
3
100
AcDbSymbolTable
 70
     1
  0
STYLE
  5
10
100
AcDbSymbolTableRecord
100
AcDbTextStyleTableRecord
  2
STANDARD
 70
     0
 40
0.0
 41
1.0
 50
0.0
 71
     0
 42
0.2
  3
txt
  4
bigfont.shx
  0
ENDTAB
  0
TABLE
  2
LAYER
 70
    5
  0
LAYER
  2
_0-2_DEFPOINTS
 70
   64
 62
    7
  6
CONTINUOUS
  0
LAYER
  2
_0-a_3C1
 70
   64
 62
    7
  6
CONTINUOUS
  0
LAYER
  2
_1-2_HOJO
 70
   64
 62
    7
  6
CONTINUOUS
  0
LAYER
  2
_1-5_SUNPO
 70
   64
 62
    7
  6
CONTINUOUS
  0
LAYER
  2
ADD_LINE
 70
   64
 62
    7
  6
CONTINUOUS
  0
ENDTAB
  0
ENDSEC
  0
SECTION
  2
BLOCKS
  0
BLOCK
  2
-000-_MODEL_SPACE
 70
   64
 10
0
 20
0
 30
0
  0
ENDBLK
  0
BLOCK
  2
-001-_PAPER_SPACE
 70
   64
 10
0
 20
0
 30
0
  0
ENDBLK
  0
BLOCK
  2
-002-_DOT
 70
   64
 10
0
 20
0
 30
0
  0
CIRCLE
  8
_0-0_0
  6
CONTINUOUS
 62
    7
 10
0
 20
0
 40
0.25
  0
CIRCLE
  8
_0-0_0
  6
CONTINUOUS
 62
    7
 10
0
 20
-0
 40
0.25
  0
LINE
  8
_0-0_0
  6
CONTINUOUS
 62
    7
 10
-0.5
 20
0
 11
-1
 21
0
  0
ENDBLK
  0
BLOCK
  2
-003-A4
 70
   64
 10
0
 20
0
 30
0
  0
LINE
  8
_1-2_HOJO
  6
CONTINUOUS
 62
    5
 10
0
 20
0
 11
297
 21
0
  0
LINE
  8
_1-2_HOJO
  6
CONTINUOUS
 62
    5
 10
297
 20
0
 11
297
 21
210
  0
LINE
  8
_1-2_HOJO
  6
CONTINUOUS
 62
    5
 10
297
 20
210
 11
0
 21
210
  0
LINE
  8
_1-2_HOJO
  6
CONTINUOUS
 62
    5
 10
0
 20
210
 11
0
 21
0
  0
LINE
  8
_1-2_HOJO
  6
CONTINUOUS
 62
    5
 10
18
 20
13
 11
279
 21
13
  0
LINE
  8
_1-2_HOJO
  6
CONTINUOUS
 62
    5
 10
279
 20
13
 11
279
 21
197
  0
LINE
  8
_1-2_HOJO
  6
CONTINUOUS
 62
    5
 10
279
 20
197
 11
18
 21
197
  0
LINE
  8
_1-2_HOJO
  6
CONTINUOUS
 62
    5
 10
18
 20
197
 11
18
 21
13
  0
ENDBLK
  0
BLOCK
  2
-004-_D2
 70
   64
 10
0
 20
0
 30
0
  0
LINE
  8
_1-5_SUNPO
  6
CONTINUOUS
 62
    7
 10
3578.1177
 20
2542.5096
 11
3578.1177
 21
2715.3248
  0
LINE
  8
_1-5_SUNPO
  6
CONTINUOUS
 62
    7
 10
4178.1177
 20
2542.5096
 11
4178.1177
 21
2715.3248
  0
LINE
  8
_1-5_SUNPO
  6
CONTINUOUS
 62
    7
 10
3628.1177
 20
2705.3248
 11
4128.1177
 21
2705.3248
  0
SOLID
  8
_1-5_SUNPO
  6
CONTINUOUS
 62
    7
 10
3628.1177
 20
2713.6581
 11
3628.1177
 21
2696.9914
 12
3578.1177
 22
2705.3248
 13
3578.1177
 23
2705.3248
  0
SOLID
  8
_1-5_SUNPO
  6
CONTINUOUS
 62
    7
 10
4128.1177
 20
2713.6581
 11
4128.1177
 21
2696.9914
 12
4178.1177
 22
2705.3248
 13
4178.1177
 23
2705.3248
  0
TEXT
  8
_1-5_SUNPO
 62
    7
 10
3836.3677
 20
2717.8248
 40
50
 41
1
 50
0
  1
600
  0
CIRCLE
  8
_0-2_DEFPOINTS
 62
    7
 10
3578.1177
 20
2522.5096
 40
8
  0
CIRCLE
  8
_0-2_DEFPOINTS
 62
    7
 10
4178.1177
 20
2522.5096
 40
8
  0
CIRCLE
  8
_0-2_DEFPOINTS
 62
    7
 10
4178.1177
 20
2705.3248
 40
8
  0
ENDBLK
  0
BLOCK
  2
-005-_D3
 70
   64
 10
0
 20
0
 30
0
  0
LINE
  8
_1-5_SUNPO
  6
CONTINUOUS
 62
    7
 10
3558.1177
 20
2322.5096
 11
3387.6771
 21
2322.5096
  0
LINE
  8
_1-5_SUNPO
  6
CONTINUOUS
 62
    7
 10
3558.1177
 20
2522.5096
 11
3387.6771
 21
2522.5096
  0
LINE
  8
_1-5_SUNPO
  6
CONTINUOUS
 62
    7
 10
3397.6771
 20
2372.5096
 11
3397.6771
 21
2472.5096
  0
SOLID
  8
_1-5_SUNPO
  6
CONTINUOUS
 62
    7
 10
3389.3438
 20
2372.5096
 11
3406.0104
 21
2372.5096
 12
3397.6771
 22
2322.5096
 13
3397.6771
 23
2322.5096
  0
SOLID
  8
_1-5_SUNPO
  6
CONTINUOUS
 62
    7
 10
3389.3438
 20
2472.5096
 11
3406.0104
 21
2472.5096
 12
3397.6771
 22
2522.5096
 13
3397.6771
 23
2522.5096
  0
TEXT
  8
_1-5_SUNPO
 62
    7
 10
3385.1771
 20
2380.7596
 40
50
 41
1
 50
90
  1
200
  0
CIRCLE
  8
_0-2_DEFPOINTS
 62
    7
 10
3578.1177
 20
2322.5096
 40
8
  0
CIRCLE
  8
_0-2_DEFPOINTS
 62
    7
 10
3578.1177
 20
2522.5096
 40
8
  0
CIRCLE
  8
_0-2_DEFPOINTS
 62
    7
 10
3397.6771
 20
2522.5096
 40
8
  0
ENDBLK
  0
BLOCK
  2
-006-_D4
 70
   64
 10
0
 20
0
 30
0
  0
LINE
  8
_1-5_SUNPO
  6
CONTINUOUS
 62
    7
 10
2178.1177
 20
2322.5096
 11
2009.9252
 21
2322.5096
  0
LINE
  8
_1-5_SUNPO
  6
CONTINUOUS
 62
    7
 10
2178.1177
 20
2522.5096
 11
2009.9252
 21
2522.5096
  0
LINE
  8
_1-5_SUNPO
  6
CONTINUOUS
 62
    7
 10
2019.9252
 20
2372.5096
 11
2019.9252
 21
2472.5096
  0
SOLID
  8
_1-5_SUNPO
  6
CONTINUOUS
 62
    7
 10
2011.5919
 20
2372.5096
 11
2028.2586
 21
2372.5096
 12
2019.9252
 22
2322.5096
 13
2019.9252
 23
2322.5096
  0
SOLID
  8
_1-5_SUNPO
  6
CONTINUOUS
 62
    7
 10
2011.5919
 20
2472.5096
 11
2028.2586
 21
2472.5096
 12
2019.9252
 22
2522.5096
 13
2019.9252
 23
2522.5096
  0
TEXT
  8
_1-5_SUNPO
 62
    7
 10
2007.4252
 20
2380.7596
 40
50
 41
1
 50
90
  1
200
  0
CIRCLE
  8
_0-2_DEFPOINTS
 62
    7
 10
2198.1177
 20
2322.5096
 40
8
  0
CIRCLE
  8
_0-2_DEFPOINTS
 62
    7
 10
2198.1177
 20
2522.5096
 40
8
  0
CIRCLE
  8
_0-2_DEFPOINTS
 62
    7
 10
2019.9252
 20
2522.5096
 40
8
  0
ENDBLK
  0
BLOCK
  2
-007-_D5
 70
   64
 10
0
 20
0
 30
0
  0
LINE
  8
_1-5_SUNPO
  6
CONTINUOUS
 62
    7
 10
2198.1177
 20
2302.5096
 11
2198.1177
 21
2090
  0
LINE
  8
_1-5_SUNPO
  6
CONTINUOUS
 62
    7
 10
2368.1177
 20
2302.5096
 11
2368.1177
 21
2090
  0
LINE
  8
_1-5_SUNPO
  6
CONTINUOUS
 62
    7
 10
2248.1177
 20
2100
 11
2318.1177
 21
2100
  0
SOLID
  8
_1-5_SUNPO
  6
CONTINUOUS
 62
    7
 10
2248.1177
 20
2108.3333
 11
2248.1177
 21
2091.6666
 12
2198.1177
 22
2100
 13
2198.1177
 23
2100
  0
SOLID
  8
_1-5_SUNPO
  6
CONTINUOUS
 62
    7
 10
2318.1177
 20
2108.3333
 11
2318.1177
 21
2091.6666
 12
2368.1177
 22
2100
 13
2368.1177
 23
2100
  0
TEXT
  8
_1-5_SUNPO
 62
    7
 10
2241.3677
 20
2112.5
 40
50
 41
1
 50
0
  1
170
  0
CIRCLE
  8
_0-2_DEFPOINTS
 62
    7
 10
2198.1177
 20
2322.5096
 40
8
  0
CIRCLE
  8
_0-2_DEFPOINTS
 62
    7
 10
2368.1177
 20
2322.5096
 40
8
  0
CIRCLE
  8
_0-2_DEFPOINTS
 62
    7
 10
2368.1177
 20
2100
 40
8
  0
ENDBLK
  0
BLOCK
  2
-008-_D6
 70
   64
 10
0
 20
0
 30
0
  0
LINE
  8
_1-5_SUNPO
  6
CONTINUOUS
 62
    7
 10
2198.1177
 20
2542.5096
 11
2198.1177
 21
2721.0624
  0
LINE
  8
_1-5_SUNPO
  6
CONTINUOUS
 62
    7
 10
2348.1177
 20
2542.5096
 11
2348.1177
 21
2721.0624
  0
LINE
  8
_1-5_SUNPO
  6
CONTINUOUS
 62
    7
 10
2248.1177
 20
2711.0624
 11
2298.1177
 21
2711.0624
  0
SOLID
  8
_1-5_SUNPO
  6
CONTINUOUS
 62
    7
 10
2248.1177
 20
2719.3958
 11
2248.1177
 21
2702.7291
 12
2198.1177
 22
2711.0624
 13
2198.1177
 23
2711.0624
  0
SOLID
  8
_1-5_SUNPO
  6
CONTINUOUS
 62
    7
 10
2298.1177
 20
2719.3958
 11
2298.1177
 21
2702.7291
 12
2348.1177
 22
2711.0624
 13
2348.1177
 23
2711.0624
  0
TEXT
  8
_1-5_SUNPO
 62
    7
 10
2231.3677
 20
2723.5624
 40
50
 41
1
 50
0
  1
150
  0
CIRCLE
  8
_0-2_DEFPOINTS
 62
    7
 10
2198.1177
 20
2522.5096
 40
8
  0
CIRCLE
  8
_0-2_DEFPOINTS
 62
    7
 10
2348.1177
 20
2522.5096
 40
8
  0
CIRCLE
  8
_0-2_DEFPOINTS
 62
    7
 10
2348.1177
 20
2711.0624
 40
8
  0
ENDBLK
  0
BLOCK
  2
-009-_D7
 70
   64
 10
0
 20
0
 30
0
  0
LINE
  8
_1-5_SUNPO
  6
CONTINUOUS
 62
    7
 10
2595.9468
 20
2566.7214
 11
2398.0624
 21
2518.9398
  0
TEXT
  8
_1-5_SUNPO
 62
    7
 10
2477.7886
 20
2551.0499
 40
50
 41
1
 50
13.57494
  1
R20
  0
LINE
  8
_1-5_SUNPO
  6
CONTINUOUS
 62
    7
 10
2330.0179
 20
2502.5096
 11
2349.4592
 21
2507.2039
  0
SOLID
  8
_1-5_SUNPO
  6
CONTINUOUS
 62
    7
 10
2396.1064
 20
2527.0403
 11
2400.0184
 21
2510.8392
 12
2349.4592
 22
2507.2039
 13
2349.4592
 23
2507.2039
  0
CIRCLE
  8
_0-2_DEFPOINTS
 62
    7
 10
2349.4592
 20
2507.2039
 40
8
  0
CIRCLE
  8
_0-2_DEFPOINTS
 62
    7
 10
2330.0179
 20
2502.5096
 40
8
  0
ENDBLK
  0
ENDSEC
  0
SECTION
  2
ENTITIES
  0
LINE
  8
_1-2_HOJO
  6
CONTINUOUS
 62
    5
 10
359.99998
 20
259.99999
 11
5579.9999
 21
259.99999
  0
LINE
  8
_1-2_HOJO
  6
CONTINUOUS
 62
    5
 10
359.99998
 20
559.99999
 11
5579.9999
 21
559.99999
  0
LINE
  8
_1-2_HOJO
  6
CONTINUOUS
 62
    5
 10
359.99998
 20
259.99999
 11
359.99998
 21
559.99999
  0
LINE
  8
_1-2_HOJO
  6
CONTINUOUS
 62
    5
 10
2359.9999
 20
259.99999
 11
2359.9999
 21
559.99999
  0
LINE
  8
_1-2_HOJO
  6
CONTINUOUS
 62
    5
 10
3159.9999
 20
259.99999
 11
3159.9999
 21
559.99999
  0
LINE
  8
_1-2_HOJO
  6
CONTINUOUS
 62
    5
 10
3659.9999
 20
259.99999
 11
3659.9999
 21
559.99999
  0
LINE
  8
_0-a_3C1
  6
CONTINUOUS
 62
    7
 10
3578.1177
 20
2322.5096
 11
3578.1177
 21
2522.5096
  0
LINE
  8
_0-a_3C1
  6
CONTINUOUS
 62
    7
 10
3578.1177
 20
2522.5096
 11
4178.1177
 21
2522.5096
  0
LINE
  8
_0-a_3C1
  6
CONTINUOUS
 62
    7
 10
4178.1177
 20
2522.5096
 11
4178.1177
 21
2322.5096
  0
LINE
  8
_0-a_3C1
  6
CONTINUOUS
 62
    7
 10
4178.1177
 20
2322.5096
 11
3578.1177
 21
2322.5096
  0
LINE
  8
_0-a_3C1
  6
CONTINUOUS
 62
    7
 10
2368.1177
 20
2322.5096
 11
2198.1177
 21
2322.5096
  0
LINE
  8
_0-a_3C1
  6
CONTINUOUS
 62
    7
 10
2198.1177
 20
2322.5096
 11
2198.1177
 21
2522.5096
  0
LINE
  8
_0-a_3C1
  6
CONTINUOUS
 62
    7
 10
2198.1177
 20
2522.5096
 11
2330.0179
 21
2522.5096
  0
LINE
  8
_0-a_3C1
  6
CONTINUOUS
 62
    7
 10
2368.1177
 20
2322.5096
 11
2349.9187
 21
2504.4996
  0
ARC
  8
_0-a_3C1
  6
CONTINUOUS
 62
    7
 10
2330.0179
 20
2502.5096
 40
20
 50
5.7105931
 51
90
  0
LINE
  8
_1-5_SUNPO
  6
CONTINUOUS
 62
    7
 10
3578.1177
 20
2522.5096
 11
4178.1177
 21
2522.5096
  0
LINE
  8
_0-2_DEFPOINTS
  6
CONTINUOUS
 62
    6
 10
2198.1177
 20
2522.5096
 11
2198.1177
 21
2622.5096
  0
LINE
  8
_1-5_SUNPO
  6
CONTINUOUS
 62
    7
 10
2595.9468
 20
2566.7214
 11
2398.0624
 21
2518.9397
  0
LINE
  8
_1-5_SUNPO
  6
CONTINUOUS
 62
    7
 10
2330.0179
 20
2502.5096
 11
2349.4592
 21
2507.2039
  0
SOLID
  8
_1-5_SUNPO
  6
CONTINUOUS
 62
    7
 10
2396.1064
 20
2527.0403
 11
2400.0183
 21
2510.8392
 12
2349.4592
 22
2507.2039
 13
2349.4592
 23
2507.2039
  0
LINE
  8
_1-5_SUNPO
  6
CONTINUOUS
 62
    7
 10
2198.1177
 20
2542.5096
 11
2198.1177
 21
2721.0624
  0
LINE
  8
_1-5_SUNPO
  6
CONTINUOUS
 62
    7
 10
2348.1177
 20
2542.5096
 11
2348.1177
 21
2721.0624
  0
LINE
  8
_1-5_SUNPO
  6
CONTINUOUS
 62
    7
 10
2248.1177
 20
2711.0624
 11
2298.1177
 21
2711.0624
  0
SOLID
  8
_1-5_SUNPO
  6
CONTINUOUS
 62
    7
 10
2248.1177
 20
2719.3958
 11
2248.1177
 21
2702.7291
 12
2198.1177
 22
2711.0624
 13
2198.1177
 23
2711.0624
  0
SOLID
  8
_1-5_SUNPO
  6
CONTINUOUS
 62
    7
 10
2298.1177
 20
2719.3958
 11
2298.1177
 21
2702.7291
 12
2348.1177
 22
2711.0624
 13
2348.1177
 23
2711.0624
  0
LINE
  8
_1-5_SUNPO
  6
CONTINUOUS
 62
    7
 10
2198.1177
 20
2302.5096
 11
2198.1177
 21
2089.9999
  0
LINE
  8
_1-5_SUNPO
  6
CONTINUOUS
 62
    7
 10
2368.1177
 20
2302.5096
 11
2368.1177
 21
2089.9999
  0
LINE
  8
_1-5_SUNPO
  6
CONTINUOUS
 62
    7
 10
2248.1177
 20
2099.9999
 11
2318.1177
 21
2099.9999
  0
SOLID
  8
_1-5_SUNPO
  6
CONTINUOUS
 62
    7
 10
2248.1177
 20
2108.3333
 11
2248.1177
 21
2091.6666
 12
2198.1177
 22
2099.9999
 13
2198.1177
 23
2099.9999
  0
SOLID
  8
_1-5_SUNPO
  6
CONTINUOUS
 62
    7
 10
2318.1177
 20
2108.3333
 11
2318.1177
 21
2091.6666
 12
2368.1177
 22
2099.9999
 13
2368.1177
 23
2099.9999
  0
LINE
  8
_1-5_SUNPO
  6
CONTINUOUS
 62
    7
 10
2178.1177
 20
2322.5096
 11
2009.9252
 21
2322.5096
  0
LINE
  8
_1-5_SUNPO
  6
CONTINUOUS
 62
    7
 10
2178.1177
 20
2522.5096
 11
2009.9252
 21
2522.5096
  0
LINE
  8
_1-5_SUNPO
  6
CONTINUOUS
 62
    7
 10
2019.9252
 20
2372.5096
 11
2019.9252
 21
2472.5096
  0
SOLID
  8
_1-5_SUNPO
  6
CONTINUOUS
 62
    7
 10
2011.5919
 20
2372.5096
 11
2028.2585
 21
2372.5096
 12
2019.9252
 22
2322.5096
 13
2019.9252
 23
2322.5096
  0
SOLID
  8
_1-5_SUNPO
  6
CONTINUOUS
 62
    7
 10
2011.5919
 20
2472.5096
 11
2028.2585
 21
2472.5096
 12
2019.9252
 22
2522.5096
 13
2019.9252
 23
2522.5096
  0
LINE
  8
_1-5_SUNPO
  6
CONTINUOUS
 62
    7
 10
3558.1177
 20
2322.5096
 11
3387.6771
 21
2322.5096
  0
LINE
  8
_1-5_SUNPO
  6
CONTINUOUS
 62
    7
 10
3558.1177
 20
2522.5096
 11
3387.6771
 21
2522.5096
  0
LINE
  8
_1-5_SUNPO
  6
CONTINUOUS
 62
    7
 10
3397.6771
 20
2372.5096
 11
3397.6771
 21
2472.5096
  0
SOLID
  8
_1-5_SUNPO
  6
CONTINUOUS
 62
    7
 10
3389.3438
 20
2372.5096
 11
3406.0104
 21
2372.5096
 12
3397.6771
 22
2322.5096
 13
3397.6771
 23
2322.5096
  0
SOLID
  8
_1-5_SUNPO
  6
CONTINUOUS
 62
    7
 10
3389.3438
 20
2472.5096
 11
3406.0104
 21
2472.5096
 12
3397.6771
 22
2522.5096
 13
3397.6771
 23
2522.5096
  0
LINE
  8
_1-5_SUNPO
  6
CONTINUOUS
 62
    7
 10
3578.1177
 20
2542.5096
 11
3578.1177
 21
2715.3247
  0
LINE
  8
_1-5_SUNPO
  6
CONTINUOUS
 62
    7
 10
4178.1177
 20
2542.5096
 11
4178.1177
 21
2715.3247
  0
LINE
  8
_1-5_SUNPO
  6
CONTINUOUS
 62
    7
 10
3628.1177
 20
2705.3247
 11
4128.1177
 21
2705.3247
  0
SOLID
  8
_1-5_SUNPO
  6
CONTINUOUS
 62
    7
 10
3628.1177
 20
2713.6581
 11
3628.1177
 21
2696.9914
 12
3578.1177
 22
2705.3247
 13
3578.1177
 23
2705.3247
  0
SOLID
  8
_1-5_SUNPO
  6
CONTINUOUS
 62
    7
 10
4128.1177
 20
2713.6581
 11
4128.1177
 21
2696.9914
 12
4178.1177
 22
2705.3247
 13
4178.1177
 23
2705.3247
  0
TEXT
  8
_1-5_SUNPO
 62
    7
 10
2758.2593
 20
340.50999
 40
100
 41
1
 50
0
  1
Ａ
  0
TEXT
  8
_1-5_SUNPO
 62
    7
 10
680.70545
 20
360.3205
 40
100
 41
1
 50
0
  1
片面歩車道境界ブロック
  0
TEXT
  8
_1-5_SUNPO
 62
    7
 10
3246.6802
 20
359.22746
 40
70
 41
1
 50
0
  1
１／２０
  0
TEXT
  8
_1-5_SUNPO
 62
    7
 10
381.88624
 20
488.69188
 40
50
 41
1
 50
0
  1
製品名
  0
TEXT
  8
_1-5_SUNPO
 62
    7
 10
2376.2901
 20
494.45316
 40
50
 41
1
 50
0
  1
型式
  0
TEXT
  8
_1-5_SUNPO
 62
    7
 10
3177.5102
 20
488.69188
 40
50
 41
1
 50
0
  1
縮尺
  0
TEXT
  8
_1-5_SUNPO
 62
    7
 10
3730.8708
 20
352.2726
 40
100
 41
1
 50
0
  1
千葉県コンクリート製品協同組合
  0
LINE
  8
_1-2_HOJO
  6
CONTINUOUS
 62
    5
 10
359.99998
 20
259.99999
 11
5579.9999
 21
259.99999
  0
LINE
  8
_1-2_HOJO
  6
CONTINUOUS
 62
    5
 10
5579.9999
 20
259.99999
 11
5579.9999
 21
3939.9999
  0
LINE
  8
_1-2_HOJO
  6
CONTINUOUS
 62
    5
 10
5579.9999
 20
3939.9999
 11
359.99998
 21
3939.9999
  0
LINE
  8
_1-2_HOJO
  6
CONTINUOUS
 62
    5
 10
359.99998
 20
3939.9999
 11
359.99998
 21
259.99999
  0
LINE
  8
_1-2_HOJO
  6
CONTINUOUS
 62
    5
 10
-0.0000138
 20
-0.0000097
 11
5939.9999
 21
-0.0000097
  0
LINE
  8
_1-2_HOJO
  6
CONTINUOUS
 62
    5
 10
5939.9999
 20
-0.0000097
 11
5939.9999
 21
4199.9999
  0
LINE
  8
_1-2_HOJO
  6
CONTINUOUS
 62
    5
 10
5939.9999
 20
4199.9999
 11
-0.0000138
 21
4199.9999
  0
LINE
  8
_1-2_HOJO
  6
CONTINUOUS
 62
    5
 10
-0.0000138
 20
4199.9999
 11
-0.0000138
 21
-0.0000097
  0
TEXT
  8
_1-5_SUNPO
 62
    7
 10
2226.3717
 20
2725.3328
 40
50
 41
1
 50
0
  1
150
  0
TEXT
  8
_1-5_SUNPO
 62
    7
 10
2007.1605
 20
2377.593
 40
50
 41
1
 50
90
  1
200
  0
TEXT
  8
_1-5_SUNPO
 62
    7
 10
2237.6289
 20
2114.3765
 40
50
 41
1
 50
0
  1
170
  0
TEXT
  8
_1-5_SUNPO
 62
    7
 10
2464.9616
 20
2536.4423
 40
50
 41
1
 50
13.57494
  1
R20
  0
TEXT
  8
_1-5_SUNPO
 62
    7
 10
3848.8135
 20
2717.0801
 40
50
 41
1
 50
0
  1
600
  0
TEXT
  8
_1-5_SUNPO
 62
    7
 10
3387.1932
 20
2378.8243
 40
50
 41
1
 50
90
  1
200
  0
ENDSEC
  0
EOF
