  0
SECTION
  2
HEADER
  9
$ACADVER
  1
AC1009
  9
$INSBASE
 10
0
 20
0
 30
0
  9
$EXTMIN
 10
0
 20
0
  9
$EXTMAX
 10
5940
 20
4200
  9
$LIMMIN
 10
0
 20
0
  9
$LIMMAX
 10
5940
 20
4200
  9
$LTSCALE
 40
20
  0
ENDSEC
  0
SECTION
  2
TABLES
  0
TABLE
  2
LTYPE
 70
     9
  0
LTYPE
  2
CONTINUOUS
 70
    64
  3
実線
 72
    65
 73
     0
 40
0.0
  0
LTYPE
  2
DASHED1
 70
    64
  3
--  --  --  --  --  --  --  --  
 72
    65
 73
     2
 40
2.5
 49
1.25
 49
-1.25
  0
LTYPE
  2
DASHED2
 70
    64
  3
----    ----    ----    ----    
 72
    65
 73
     2
 40
5.0
 49
2.5
 49
-2.5
  0
LTYPE
  2
DASHED3
 70
    64
  3
------  ------  ------  ------  
 72
    65
 73
     2
 40
5.0
 49
3.75
 49
-1.25
  0
LTYPE
  2
CENTER1
 70
    64
  3
----- - ----- - ----- - ----- - 
 72
    65
 73
     4
 40
10.0
 49
6.25
 49
-1.25
 49
1.25
 49
-1.25
  0
LTYPE
  2
CENTER2
 70
    64
  3
----------  --  ----------  --  
 72
    65
 73
     4
 40
20.0
 49
12.5
 49
-2.5
 49
2.5
 49
-2.5
  0
LTYPE
  2
PHANTOM1
 70
    64
  3
--- - - --- - - --- - - --- - - 
 72
    65
 73
     6
 40
10.0
 49
3.25
 49
-1.25
 49
1.25
 49
-1.25
 49
1.25
 49
-1.25
  0
LTYPE
  2
PHANTOM2
 70
    64
  3
--------  -  -  --------  -  -  
 72
    65
 73
     6
 40
20.0
 49
10.0
 49
-2.5
 49
1.25
 49
-2.5
 49
1.25
 49
-2.5
  0
LTYPE
  2
DOT
 70
    64
  3
-   -   -   -   -   -   -   -   
 72
    65
 73
     2
 40
2.5
 49
0.625
 49
-1.875
  0
LTYPE
  2
DUMMY
 70
    64
  3
ダミー
 72
    65
 73
     0
 40
0.0
  0
LTYPE
  2
RAND1
 70
    64
  3
----- - ----- - ----- - ----- - 
 72
    65
 73
     4
 40
10.0
 49
6.25
 49
-1.25
 49
1.25
 49
-1.25
  0
LTYPE
  2
RAND2
 70
    64
  3
----------  --  ----------  --  
 72
    65
 73
     4
 40
20.0
 49
12.5
 49
-2.5
 49
2.5
 49
-2.5
  0
LTYPE
  2
RAND3
 70
    64
  3
--- - - --- - - --- - - --- - - 
 72
    65
 73
     6
 40
10.0
 49
3.25
 49
-1.25
 49
1.25
 49
-1.25
 49
1.25
 49
-1.25
  0
LTYPE
  2
RAND4
 70
    64
  3
--------  -  -  --------  -  -  
 72
    65
 73
     6
 40
20.0
 49
10.0
 49
-2.5
 49
1.25
 49
-2.5
 49
1.25
 49
-2.5
  0
LTYPE
  2
RAND5
 70
    64
  3
----- - ----- - ----- - ----- - 
 72
    65
 73
     4
 40
10.0
 49
6.25
 49
-1.25
 49
1.25
 49
-1.25
  0
LTYPE
  2
LONG1
 70
    64
  3
----------  --  ----------  --  
 72
    65
 73
     4
 40
20.0
 49
12.5
 49
-2.5
 49
2.5
 49
-2.5
  0
LTYPE
  2
LONG2
 70
    64
  3
--- - - --- - - --- - - --- - - 
 72
    65
 73
     6
 40
10.0
 49
3.25
 49
-1.25
 49
1.25
 49
-1.25
 49
1.25
 49
-1.25
  0
LTYPE
  2
LONG3
 70
    64
  3
--------  -  -  --------  -  -  
 72
    65
 73
     6
 40
20.0
 49
10.0
 49
-2.5
 49
1.25
 49
-2.5
 49
1.25
 49
-2.5
  0
LTYPE
  2
LONG4
 70
    64
  3
----- - ----- - ----- - ----- - 
 72
    65
 73
     4
 40
10.0
 49
6.25
 49
-1.25
 49
1.25
 49
-1.25
  0
LTYPE
  2
LONG5
 70
    64
  3
----------  --  ----------  --  
 72
    65
 73
     4
 40
20.0
 49
12.5
 49
-2.5
 49
2.5
 49
-2.5
  0
ENDTAB
  0
TABLE
  2
STYLE
  5
3
100
AcDbSymbolTable
 70
     1
  0
STYLE
  5
10
100
AcDbSymbolTableRecord
100
AcDbTextStyleTableRecord
  2
STANDARD
 70
     0
 40
0.0
 41
1.0
 50
0.0
 71
     0
 42
0.2
  3
txt
  4
bigfont.shx
  0
ENDTAB
  0
TABLE
  2
LAYER
 70
    4
  0
LAYER
  2
_0-a_3C1
 70
   64
 62
    7
  6
CONTINUOUS
  0
LAYER
  2
_1-2_HOJO
 70
   64
 62
    7
  6
CONTINUOUS
  0
LAYER
  2
_1-5_SUNPO
 70
   64
 62
    7
  6
CONTINUOUS
  0
LAYER
  2
ADD_LINE
 70
   64
 62
    7
  6
CONTINUOUS
  0
ENDTAB
  0
ENDSEC
  0
SECTION
  2
BLOCKS
  0
BLOCK
  2
-000-_MODEL_SPACE
 70
   64
 10
0
 20
0
 30
0
  0
ENDBLK
  0
BLOCK
  2
-001-_PAPER_SPACE
 70
   64
 10
0
 20
0
 30
0
  0
ENDBLK
  0
BLOCK
  2
-002-_DOT
 70
   64
 10
0
 20
0
 30
0
  0
CIRCLE
  8
_0-0_0
  6
CONTINUOUS
 62
    7
 10
0
 20
0
 40
0.25
  0
CIRCLE
  8
_0-0_0
  6
CONTINUOUS
 62
    7
 10
0
 20
-0
 40
0.25
  0
LINE
  8
_0-0_0
  6
CONTINUOUS
 62
    7
 10
-0.5
 20
0
 11
-1
 21
0
  0
ENDBLK
  0
BLOCK
  2
-003-A4
 70
   64
 10
0
 20
0
 30
0
  0
LINE
  8
_1-2_HOJO
  6
CONTINUOUS
 62
    5
 10
0
 20
0
 11
297
 21
0
  0
LINE
  8
_1-2_HOJO
  6
CONTINUOUS
 62
    5
 10
297
 20
0
 11
297
 21
210
  0
LINE
  8
_1-2_HOJO
  6
CONTINUOUS
 62
    5
 10
297
 20
210
 11
0
 21
210
  0
LINE
  8
_1-2_HOJO
  6
CONTINUOUS
 62
    5
 10
0
 20
210
 11
0
 21
0
  0
LINE
  8
_1-2_HOJO
  6
CONTINUOUS
 62
    5
 10
18
 20
13
 11
279
 21
13
  0
LINE
  8
_1-2_HOJO
  6
CONTINUOUS
 62
    5
 10
279
 20
13
 11
279
 21
197
  0
LINE
  8
_1-2_HOJO
  6
CONTINUOUS
 62
    5
 10
279
 20
197
 11
18
 21
197
  0
LINE
  8
_1-2_HOJO
  6
CONTINUOUS
 62
    5
 10
18
 20
197
 11
18
 21
13
  0
ENDBLK
  0
BLOCK
  2
-004-_D2
 70
   64
 10
0
 20
0
 30
0
  0
LINE
  8
_1-5_SUNPO
  6
CONTINUOUS
 62
    7
 10
3567.9254
 20
2635.9061
 11
3567.9254
 21
2834.3761
  0
LINE
  8
_1-5_SUNPO
  6
CONTINUOUS
 62
    7
 10
4167.9254
 20
2635.9061
 11
4167.9254
 21
2834.3761
  0
LINE
  8
_1-5_SUNPO
  6
CONTINUOUS
 62
    7
 10
3617.9254
 20
2824.3761
 11
4117.9254
 21
2824.3761
  0
SOLID
  8
_1-5_SUNPO
  6
CONTINUOUS
 62
    7
 10
3617.9254
 20
2832.7095
 11
3617.9254
 21
2816.0428
 12
3567.9254
 22
2824.3761
 13
3567.9254
 23
2824.3761
  0
SOLID
  8
_1-5_SUNPO
  6
CONTINUOUS
 62
    7
 10
4117.9254
 20
2832.7095
 11
4117.9254
 21
2816.0428
 12
4167.9254
 22
2824.3761
 13
4167.9254
 23
2824.3761
  0
TEXT
  8
_1-5_SUNPO
 62
    7
 10
3826.1754
 20
2836.8761
 40
50
 41
1
 50
0
  1
600
  0
CIRCLE
  8
_0-2_DEFPOINTS
 62
    7
 10
3567.9254
 20
2615.9061
 40
8
  0
CIRCLE
  8
_0-2_DEFPOINTS
 62
    7
 10
4167.9254
 20
2615.9061
 40
8
  0
CIRCLE
  8
_0-2_DEFPOINTS
 62
    7
 10
4167.9254
 20
2824.3761
 40
8
  0
ENDBLK
  0
BLOCK
  2
-005-_D3
 70
   64
 10
0
 20
0
 30
0
  0
LINE
  8
_1-5_SUNPO
  6
CONTINUOUS
 62
    7
 10
3547.9254
 20
2315.9061
 11
3353.1112
 21
2315.9061
  0
LINE
  8
_1-5_SUNPO
  6
CONTINUOUS
 62
    7
 10
3547.9254
 20
2615.9061
 11
3353.1112
 21
2615.9061
  0
LINE
  8
_1-5_SUNPO
  6
CONTINUOUS
 62
    7
 10
3363.1112
 20
2365.9061
 11
3363.1112
 21
2565.9061
  0
SOLID
  8
_1-5_SUNPO
  6
CONTINUOUS
 62
    7
 10
3354.7778
 20
2365.9061
 11
3371.4445
 21
2365.9061
 12
3363.1112
 22
2315.9061
 13
3363.1112
 23
2315.9061
  0
SOLID
  8
_1-5_SUNPO
  6
CONTINUOUS
 62
    7
 10
3354.7778
 20
2565.9061
 11
3371.4445
 21
2565.9061
 12
3363.1112
 22
2615.9061
 13
3363.1112
 23
2615.9061
  0
TEXT
  8
_1-5_SUNPO
 62
    7
 10
3350.6112
 20
2424.1561
 40
50
 41
1
 50
90
  1
300
  0
CIRCLE
  8
_0-2_DEFPOINTS
 62
    7
 10
3567.9254
 20
2315.9061
 40
8
  0
CIRCLE
  8
_0-2_DEFPOINTS
 62
    7
 10
3567.9254
 20
2615.9061
 40
8
  0
CIRCLE
  8
_0-2_DEFPOINTS
 62
    7
 10
3363.1112
 20
2615.9061
 40
8
  0
ENDBLK
  0
BLOCK
  2
-006-_D4
 70
   64
 10
0
 20
0
 30
0
  0
LINE
  8
_1-5_SUNPO
  6
CONTINUOUS
 62
    7
 10
2162.0746
 20
2289.3025
 11
2162.0746
 21
2087.9903
  0
LINE
  8
_1-5_SUNPO
  6
CONTINUOUS
 62
    7
 10
2372.0746
 20
2289.3025
 11
2372.0746
 21
2087.9903
  0
LINE
  8
_1-5_SUNPO
  6
CONTINUOUS
 62
    7
 10
2212.0746
 20
2097.9903
 11
2322.0746
 21
2097.9903
  0
SOLID
  8
_1-5_SUNPO
  6
CONTINUOUS
 62
    7
 10
2212.0746
 20
2106.3236
 11
2212.0746
 21
2089.657
 12
2162.0746
 22
2097.9903
 13
2162.0746
 23
2097.9903
  0
SOLID
  8
_1-5_SUNPO
  6
CONTINUOUS
 62
    7
 10
2322.0746
 20
2106.3236
 11
2322.0746
 21
2089.657
 12
2372.0746
 22
2097.9903
 13
2372.0746
 23
2097.9903
  0
TEXT
  8
_1-5_SUNPO
 62
    7
 10
2225.3246
 20
2110.4903
 40
50
 41
1
 50
0
  1
210
  0
CIRCLE
  8
_0-2_DEFPOINTS
 62
    7
 10
2162.0746
 20
2309.3025
 40
8
  0
CIRCLE
  8
_0-2_DEFPOINTS
 62
    7
 10
2372.0746
 20
2309.3025
 40
8
  0
CIRCLE
  8
_0-2_DEFPOINTS
 62
    7
 10
2372.0746
 20
2097.9903
 40
8
  0
ENDBLK
  0
BLOCK
  2
-007-_D5
 70
   64
 10
0
 20
0
 30
0
  0
LINE
  8
_1-5_SUNPO
  6
CONTINUOUS
 62
    7
 10
2142.0746
 20
2309.3025
 11
1939.2323
 21
2309.3025
  0
LINE
  8
_1-5_SUNPO
  6
CONTINUOUS
 62
    7
 10
2142.0746
 20
2609.3025
 11
1939.2323
 21
2609.3025
  0
LINE
  8
_1-5_SUNPO
  6
CONTINUOUS
 62
    7
 10
1949.2323
 20
2359.3025
 11
1949.2323
 21
2559.3025
  0
SOLID
  8
_1-5_SUNPO
  6
CONTINUOUS
 62
    7
 10
1940.8989
 20
2359.3025
 11
1957.5656
 21
2359.3025
 12
1949.2323
 22
2309.3025
 13
1949.2323
 23
2309.3025
  0
SOLID
  8
_1-5_SUNPO
  6
CONTINUOUS
 62
    7
 10
1940.8989
 20
2559.3025
 11
1957.5656
 21
2559.3025
 12
1949.2323
 22
2609.3025
 13
1949.2323
 23
2609.3025
  0
TEXT
  8
_1-5_SUNPO
 62
    7
 10
1936.7323
 20
2417.5525
 40
50
 41
1
 50
90
  1
300
  0
CIRCLE
  8
_0-2_DEFPOINTS
 62
    7
 10
2162.0746
 20
2309.3025
 40
8
  0
CIRCLE
  8
_0-2_DEFPOINTS
 62
    7
 10
2162.0746
 20
2609.3025
 40
8
  0
CIRCLE
  8
_0-2_DEFPOINTS
 62
    7
 10
1949.2323
 20
2609.3025
 40
8
  0
ENDBLK
  0
BLOCK
  2
-008-_D6
 70
   64
 10
0
 20
0
 30
0
  0
LINE
  8
_0-a_3C1
  6
CONTINUOUS
 62
    7
 10
2162.0746
 20
2629.3025
 11
2162.0746
 21
2807.1276
  0
LINE
  8
_0-a_3C1
  6
CONTINUOUS
 62
    7
 10
2342.0746
 20
2629.3025
 11
2342.0746
 21
2807.1276
  0
LINE
  8
_0-a_3C1
  6
CONTINUOUS
 62
    7
 10
2212.0746
 20
2797.1276
 11
2292.0746
 21
2797.1276
  0
SOLID
  8
_0-a_3C1
  6
CONTINUOUS
 62
    7
 10
2212.0746
 20
2805.4609
 11
2212.0746
 21
2788.7942
 12
2162.0746
 22
2797.1276
 13
2162.0746
 23
2797.1276
  0
SOLID
  8
_0-a_3C1
  6
CONTINUOUS
 62
    7
 10
2292.0746
 20
2805.4609
 11
2292.0746
 21
2788.7942
 12
2342.0746
 22
2797.1276
 13
2342.0746
 23
2797.1276
  0
TEXT
  8
_0-a_3C1
 62
    7
 10
2210.3246
 20
2809.6276
 40
50
 41
1
 50
0
  1
180
  0
CIRCLE
  8
_0-2_DEFPOINTS
 62
    7
 10
2162.0746
 20
2609.3025
 40
8
  0
CIRCLE
  8
_0-2_DEFPOINTS
 62
    7
 10
2342.0746
 20
2609.3025
 40
8
  0
CIRCLE
  8
_0-2_DEFPOINTS
 62
    7
 10
2342.0746
 20
2797.1276
 40
8
  0
ENDBLK
  0
BLOCK
  2
-009-_D7
 70
   64
 10
0
 20
0
 30
0
  0
LINE
  8
_1-5_SUNPO
  6
CONTINUOUS
 62
    7
 10
2587.9045
 20
2656.0807
 11
2391.9368
 21
2600.9629
  0
TEXT
  8
_1-5_SUNPO
 62
    7
 10
2470.4119
 20
2636.0198
 40
50
 41
1
 50
15.709155
  1
R30
  0
LINE
  8
_1-5_SUNPO
  6
CONTINUOUS
 62
    7
 10
2314.9249
 20
2579.3025
 11
2343.8044
 21
2587.4252
  0
SOLID
  8
_1-5_SUNPO
  6
CONTINUOUS
 62
    7
 10
2389.6805
 20
2608.985
 11
2394.1931
 21
2592.9408
 12
2343.8044
 22
2587.4252
 13
2343.8044
 23
2587.4252
  0
CIRCLE
  8
_0-2_DEFPOINTS
 62
    7
 10
2343.8044
 20
2587.4252
 40
8
  0
CIRCLE
  8
_0-2_DEFPOINTS
 62
    7
 10
2314.9249
 20
2579.3025
 40
8
  0
ENDBLK
  0
ENDSEC
  0
SECTION
  2
ENTITIES
  0
LINE
  8
_1-2_HOJO
  6
CONTINUOUS
 62
    5
 10
359.99998
 20
259.99999
 11
5579.9999
 21
259.99999
  0
LINE
  8
_1-2_HOJO
  6
CONTINUOUS
 62
    5
 10
359.99998
 20
559.99999
 11
5579.9999
 21
559.99999
  0
LINE
  8
_1-2_HOJO
  6
CONTINUOUS
 62
    5
 10
359.99998
 20
259.99999
 11
359.99998
 21
559.99999
  0
LINE
  8
_1-2_HOJO
  6
CONTINUOUS
 62
    5
 10
2359.9999
 20
259.99999
 11
2359.9999
 21
559.99999
  0
LINE
  8
_1-2_HOJO
  6
CONTINUOUS
 62
    5
 10
3159.9999
 20
259.99999
 11
3159.9999
 21
559.99999
  0
LINE
  8
_1-2_HOJO
  6
CONTINUOUS
 62
    5
 10
3659.9999
 20
259.99999
 11
3659.9999
 21
559.99999
  0
LINE
  8
_0-a_3C1
  6
CONTINUOUS
 62
    7
 10
3567.9254
 20
2315.906
 11
4167.9254
 21
2315.906
  0
LINE
  8
_0-a_3C1
  6
CONTINUOUS
 62
    7
 10
3567.9254
 20
2315.906
 11
3567.9254
 21
2615.906
  0
LINE
  8
_0-a_3C1
  6
CONTINUOUS
 62
    7
 10
3567.9254
 20
2615.906
 11
4167.9254
 21
2615.906
  0
LINE
  8
_0-a_3C1
  6
CONTINUOUS
 62
    7
 10
4167.9254
 20
2315.906
 11
4167.9254
 21
2615.906
  0
LINE
  8
_0-a_3C1
  6
CONTINUOUS
 62
    7
 10
2372.0745
 20
2309.3025
 11
2162.0745
 21
2309.3025
  0
LINE
  8
_0-a_3C1
  6
CONTINUOUS
 62
    7
 10
2162.0745
 20
2309.3025
 11
2162.0745
 21
2609.3025
  0
LINE
  8
_0-a_3C1
  6
CONTINUOUS
 62
    7
 10
2162.0745
 20
2609.3025
 11
2314.9249
 21
2609.3025
  0
LINE
  8
_0-a_3C1
  6
CONTINUOUS
 62
    7
 10
2372.0745
 20
2309.3025
 11
2344.776
 21
2582.2876
  0
ARC
  8
_0-a_3C1
  6
CONTINUOUS
 62
    7
 10
2314.9249
 20
2579.3025
 40
30
 50
5.7105931
 51
90
  0
LINE
  8
_1-5_SUNPO
  6
CONTINUOUS
 62
    7
 10
2587.9045
 20
2656.0807
 11
2391.9368
 21
2600.9629
  0
LINE
  8
_1-5_SUNPO
  6
CONTINUOUS
 62
    7
 10
2314.9249
 20
2579.3025
 11
2343.8044
 21
2587.4252
  0
SOLID
  8
_1-5_SUNPO
  6
CONTINUOUS
 62
    7
 10
2389.6805
 20
2608.985
 11
2394.1931
 21
2592.9408
 12
2343.8044
 22
2587.4252
 13
2343.8044
 23
2587.4252
  0
TEXT
  8
_1-5_SUNPO
 62
    7
 10
2708.8012
 20
379.10656
 40
100
 41
1
 50
0
  1
Ｃ
  0
TEXT
  8
_1-5_SUNPO
 62
    7
 10
670.87652
 20
373.36889
 40
100
 41
1
 50
0
  1
片面歩車道境界ブロック
  0
LINE
  8
_0-a_3C1
  6
CONTINUOUS
 62
    7
 10
2162.0745
 20
2629.3025
 11
2162.0745
 21
2807.1276
  0
LINE
  8
_0-a_3C1
  6
CONTINUOUS
 62
    7
 10
2342.0745
 20
2629.3025
 11
2342.0745
 21
2807.1276
  0
LINE
  8
_0-a_3C1
  6
CONTINUOUS
 62
    7
 10
2212.0745
 20
2797.1276
 11
2292.0745
 21
2797.1276
  0
SOLID
  8
_0-a_3C1
  6
CONTINUOUS
 62
    7
 10
2212.0745
 20
2805.4609
 11
2212.0745
 21
2788.7942
 12
2162.0745
 22
2797.1276
 13
2162.0745
 23
2797.1276
  0
SOLID
  8
_0-a_3C1
  6
CONTINUOUS
 62
    7
 10
2292.0745
 20
2805.4609
 11
2292.0745
 21
2788.7942
 12
2342.0745
 22
2797.1276
 13
2342.0745
 23
2797.1276
  0
LINE
  8
_1-5_SUNPO
  6
CONTINUOUS
 62
    7
 10
2142.0745
 20
2309.3025
 11
1939.2323
 21
2309.3025
  0
LINE
  8
_1-5_SUNPO
  6
CONTINUOUS
 62
    7
 10
2142.0745
 20
2609.3025
 11
1939.2323
 21
2609.3025
  0
LINE
  8
_1-5_SUNPO
  6
CONTINUOUS
 62
    7
 10
1949.2323
 20
2359.3025
 11
1949.2323
 21
2559.3025
  0
SOLID
  8
_1-5_SUNPO
  6
CONTINUOUS
 62
    7
 10
1940.8989
 20
2359.3025
 11
1957.5656
 21
2359.3025
 12
1949.2323
 22
2309.3025
 13
1949.2323
 23
2309.3025
  0
SOLID
  8
_1-5_SUNPO
  6
CONTINUOUS
 62
    7
 10
1940.8989
 20
2559.3025
 11
1957.5656
 21
2559.3025
 12
1949.2323
 22
2609.3025
 13
1949.2323
 23
2609.3025
  0
LINE
  8
_1-5_SUNPO
  6
CONTINUOUS
 62
    7
 10
2162.0745
 20
2289.3025
 11
2162.0745
 21
2087.9903
  0
LINE
  8
_1-5_SUNPO
  6
CONTINUOUS
 62
    7
 10
2372.0745
 20
2289.3025
 11
2372.0745
 21
2087.9903
  0
LINE
  8
_1-5_SUNPO
  6
CONTINUOUS
 62
    7
 10
2212.0745
 20
2097.9903
 11
2322.0745
 21
2097.9903
  0
SOLID
  8
_1-5_SUNPO
  6
CONTINUOUS
 62
    7
 10
2212.0745
 20
2106.3236
 11
2212.0745
 21
2089.657
 12
2162.0745
 22
2097.9903
 13
2162.0745
 23
2097.9903
  0
SOLID
  8
_1-5_SUNPO
  6
CONTINUOUS
 62
    7
 10
2322.0745
 20
2106.3236
 11
2322.0745
 21
2089.657
 12
2372.0745
 22
2097.9903
 13
2372.0745
 23
2097.9903
  0
LINE
  8
_1-5_SUNPO
  6
CONTINUOUS
 62
    7
 10
3547.9254
 20
2315.906
 11
3353.1112
 21
2315.906
  0
LINE
  8
_1-5_SUNPO
  6
CONTINUOUS
 62
    7
 10
3547.9254
 20
2615.906
 11
3353.1112
 21
2615.906
  0
LINE
  8
_1-5_SUNPO
  6
CONTINUOUS
 62
    7
 10
3363.1112
 20
2365.906
 11
3363.1112
 21
2565.906
  0
SOLID
  8
_1-5_SUNPO
  6
CONTINUOUS
 62
    7
 10
3354.7778
 20
2365.906
 11
3371.4445
 21
2365.906
 12
3363.1112
 22
2315.906
 13
3363.1112
 23
2315.906
  0
SOLID
  8
_1-5_SUNPO
  6
CONTINUOUS
 62
    7
 10
3354.7778
 20
2565.906
 11
3371.4445
 21
2565.906
 12
3363.1112
 22
2615.906
 13
3363.1112
 23
2615.906
  0
LINE
  8
_1-5_SUNPO
  6
CONTINUOUS
 62
    7
 10
3567.9254
 20
2635.906
 11
3567.9254
 21
2834.3761
  0
LINE
  8
_1-5_SUNPO
  6
CONTINUOUS
 62
    7
 10
4167.9254
 20
2635.906
 11
4167.9254
 21
2834.3761
  0
LINE
  8
_1-5_SUNPO
  6
CONTINUOUS
 62
    7
 10
3617.9254
 20
2824.3761
 11
4117.9254
 21
2824.3761
  0
SOLID
  8
_1-5_SUNPO
  6
CONTINUOUS
 62
    7
 10
3617.9254
 20
2832.7095
 11
3617.9254
 21
2816.0428
 12
3567.9254
 22
2824.3761
 13
3567.9254
 23
2824.3761
  0
SOLID
  8
_1-5_SUNPO
  6
CONTINUOUS
 62
    7
 10
4117.9254
 20
2832.7095
 11
4117.9254
 21
2816.0428
 12
4167.9254
 22
2824.3761
 13
4167.9254
 23
2824.3761
  0
TEXT
  8
_1-5_SUNPO
 62
    7
 10
3246.6802
 20
359.22746
 40
70
 41
1
 50
0
  1
１／２０
  0
TEXT
  8
_1-5_SUNPO
 62
    7
 10
381.88624
 20
488.69188
 40
50
 41
1
 50
0
  1
製品名
  0
TEXT
  8
_1-5_SUNPO
 62
    7
 10
2376.2901
 20
494.45316
 40
50
 41
1
 50
0
  1
型式
  0
TEXT
  8
_1-5_SUNPO
 62
    7
 10
3177.5102
 20
488.69188
 40
50
 41
1
 50
0
  1
縮尺
  0
TEXT
  8
_1-5_SUNPO
 62
    7
 10
3730.8708
 20
352.2726
 40
100
 41
1
 50
0
  1
千葉県コンクリート製品協同組合
  0
LINE
  8
_1-2_HOJO
  6
CONTINUOUS
 62
    5
 10
359.99998
 20
259.99999
 11
5579.9999
 21
259.99999
  0
LINE
  8
_1-2_HOJO
  6
CONTINUOUS
 62
    5
 10
5579.9999
 20
259.99999
 11
5579.9999
 21
3939.9999
  0
LINE
  8
_1-2_HOJO
  6
CONTINUOUS
 62
    5
 10
5579.9999
 20
3939.9999
 11
359.99998
 21
3939.9999
  0
LINE
  8
_1-2_HOJO
  6
CONTINUOUS
 62
    5
 10
359.99998
 20
3939.9999
 11
359.99998
 21
259.99999
  0
LINE
  8
_1-2_HOJO
  6
CONTINUOUS
 62
    5
 10
-0.0000138
 20
-0.0000097
 11
5939.9999
 21
-0.0000097
  0
LINE
  8
_1-2_HOJO
  6
CONTINUOUS
 62
    5
 10
5939.9999
 20
-0.0000097
 11
5939.9999
 21
4199.9999
  0
LINE
  8
_1-2_HOJO
  6
CONTINUOUS
 62
    5
 10
5939.9999
 20
4199.9999
 11
-0.0000138
 21
4199.9999
  0
LINE
  8
_1-2_HOJO
  6
CONTINUOUS
 62
    5
 10
-0.0000138
 20
4199.9999
 11
-0.0000138
 21
-0.0000097
  0
TEXT
  8
_1-5_SUNPO
 62
    7
 10
2211.0047
 20
2807.6682
 40
50
 41
1
 50
0
  1
180
  0
TEXT
  8
_1-5_SUNPO
 62
    7
 10
2226.6344
 20
2110.8412
 40
50
 41
1
 50
0
  1
210
  0
TEXT
  8
_1-5_SUNPO
 62
    7
 10
1937.5544
 20
2418.1559
 40
50
 41
1
 50
90
  1
300
  0
TEXT
  8
_1-5_SUNPO
 62
    7
 10
2470.4552
 20
2627.0417
 40
50
 41
1
 50
15.709155
  1
R30
  0
TEXT
  8
_1-5_SUNPO
 62
    7
 10
3833.1673
 20
2834.7138
 40
50
 41
1
 50
0
  1
600
  0
TEXT
  8
_1-5_SUNPO
 62
    7
 10
3350.8605
 20
2410.4943
 40
50
 41
1
 50
90
  1
300
  0
ENDSEC
  0
EOF
