  0
SECTION
  2
HEADER
  9
$ACADVER
  1
AC1009
  9
$INSBASE
 10
0
 20
0
 30
0
  9
$EXTMIN
 10
0
 20
0
  9
$EXTMAX
 10
5940
 20
4200
  9
$LIMMIN
 10
0
 20
0
  9
$LIMMAX
 10
5940
 20
4200
  9
$LTSCALE
 40
20
  0
ENDSEC
  0
SECTION
  2
TABLES
  0
TABLE
  2
LTYPE
 70
     9
  0
LTYPE
  2
CONTINUOUS
 70
    64
  3
実線
 72
    65
 73
     0
 40
0.0
  0
LTYPE
  2
DASHED1
 70
    64
  3
--  --  --  --  --  --  --  --  
 72
    65
 73
     2
 40
2.5
 49
1.25
 49
-1.25
  0
LTYPE
  2
DASHED2
 70
    64
  3
----    ----    ----    ----    
 72
    65
 73
     2
 40
5.0
 49
2.5
 49
-2.5
  0
LTYPE
  2
DASHED3
 70
    64
  3
------  ------  ------  ------  
 72
    65
 73
     2
 40
5.0
 49
3.75
 49
-1.25
  0
LTYPE
  2
CENTER1
 70
    64
  3
----- - ----- - ----- - ----- - 
 72
    65
 73
     4
 40
10.0
 49
6.25
 49
-1.25
 49
1.25
 49
-1.25
  0
LTYPE
  2
CENTER2
 70
    64
  3
----------  --  ----------  --  
 72
    65
 73
     4
 40
20.0
 49
12.5
 49
-2.5
 49
2.5
 49
-2.5
  0
LTYPE
  2
PHANTOM1
 70
    64
  3
--- - - --- - - --- - - --- - - 
 72
    65
 73
     6
 40
10.0
 49
3.25
 49
-1.25
 49
1.25
 49
-1.25
 49
1.25
 49
-1.25
  0
LTYPE
  2
PHANTOM2
 70
    64
  3
--------  -  -  --------  -  -  
 72
    65
 73
     6
 40
20.0
 49
10.0
 49
-2.5
 49
1.25
 49
-2.5
 49
1.25
 49
-2.5
  0
LTYPE
  2
DOT
 70
    64
  3
-   -   -   -   -   -   -   -   
 72
    65
 73
     2
 40
2.5
 49
0.625
 49
-1.875
  0
LTYPE
  2
DUMMY
 70
    64
  3
ダミー
 72
    65
 73
     0
 40
0.0
  0
LTYPE
  2
RAND1
 70
    64
  3
----- - ----- - ----- - ----- - 
 72
    65
 73
     4
 40
10.0
 49
6.25
 49
-1.25
 49
1.25
 49
-1.25
  0
LTYPE
  2
RAND2
 70
    64
  3
----------  --  ----------  --  
 72
    65
 73
     4
 40
20.0
 49
12.5
 49
-2.5
 49
2.5
 49
-2.5
  0
LTYPE
  2
RAND3
 70
    64
  3
--- - - --- - - --- - - --- - - 
 72
    65
 73
     6
 40
10.0
 49
3.25
 49
-1.25
 49
1.25
 49
-1.25
 49
1.25
 49
-1.25
  0
LTYPE
  2
RAND4
 70
    64
  3
--------  -  -  --------  -  -  
 72
    65
 73
     6
 40
20.0
 49
10.0
 49
-2.5
 49
1.25
 49
-2.5
 49
1.25
 49
-2.5
  0
LTYPE
  2
RAND5
 70
    64
  3
----- - ----- - ----- - ----- - 
 72
    65
 73
     4
 40
10.0
 49
6.25
 49
-1.25
 49
1.25
 49
-1.25
  0
LTYPE
  2
LONG1
 70
    64
  3
----------  --  ----------  --  
 72
    65
 73
     4
 40
20.0
 49
12.5
 49
-2.5
 49
2.5
 49
-2.5
  0
LTYPE
  2
LONG2
 70
    64
  3
--- - - --- - - --- - - --- - - 
 72
    65
 73
     6
 40
10.0
 49
3.25
 49
-1.25
 49
1.25
 49
-1.25
 49
1.25
 49
-1.25
  0
LTYPE
  2
LONG3
 70
    64
  3
--------  -  -  --------  -  -  
 72
    65
 73
     6
 40
20.0
 49
10.0
 49
-2.5
 49
1.25
 49
-2.5
 49
1.25
 49
-2.5
  0
LTYPE
  2
LONG4
 70
    64
  3
----- - ----- - ----- - ----- - 
 72
    65
 73
     4
 40
10.0
 49
6.25
 49
-1.25
 49
1.25
 49
-1.25
  0
LTYPE
  2
LONG5
 70
    64
  3
----------  --  ----------  --  
 72
    65
 73
     4
 40
20.0
 49
12.5
 49
-2.5
 49
2.5
 49
-2.5
  0
ENDTAB
  0
TABLE
  2
STYLE
  5
3
100
AcDbSymbolTable
 70
     1
  0
STYLE
  5
10
100
AcDbSymbolTableRecord
100
AcDbTextStyleTableRecord
  2
STANDARD
 70
     0
 40
0.0
 41
1.0
 50
0.0
 71
     0
 42
0.2
  3
txt
  4
bigfont.shx
  0
ENDTAB
  0
TABLE
  2
LAYER
 70
    5
  0
LAYER
  2
_0-a_3C1
 70
   64
 62
    7
  6
CONTINUOUS
  0
LAYER
  2
_1-2_HOJO
 70
   64
 62
    7
  6
CONTINUOUS
  0
LAYER
  2
_1-4_MOJI
 70
   64
 62
    7
  6
CONTINUOUS
  0
LAYER
  2
_1-5_SUNPO
 70
   64
 62
    7
  6
CONTINUOUS
  0
LAYER
  2
ADD_LINE
 70
   64
 62
    7
  6
CONTINUOUS
  0
ENDTAB
  0
ENDSEC
  0
SECTION
  2
BLOCKS
  0
BLOCK
  2
-000-_MODEL_SPACE
 70
   64
 10
0
 20
0
 30
0
  0
ENDBLK
  0
BLOCK
  2
-001-_PAPER_SPACE
 70
   64
 10
0
 20
0
 30
0
  0
ENDBLK
  0
BLOCK
  2
-002-_DOT
 70
   64
 10
0
 20
0
 30
0
  0
CIRCLE
  8
_0-0_0
  6
CONTINUOUS
 62
    7
 10
0
 20
0
 40
0.25
  0
CIRCLE
  8
_0-0_0
  6
CONTINUOUS
 62
    7
 10
0
 20
-0
 40
0.25
  0
LINE
  8
_0-0_0
  6
CONTINUOUS
 62
    7
 10
-0.5
 20
0
 11
-1
 21
0
  0
ENDBLK
  0
BLOCK
  2
-003-A4
 70
   64
 10
0
 20
0
 30
0
  0
LINE
  8
_1-2_HOJO
  6
CONTINUOUS
 62
    5
 10
0
 20
0
 11
297
 21
0
  0
LINE
  8
_1-2_HOJO
  6
CONTINUOUS
 62
    5
 10
297
 20
0
 11
297
 21
210
  0
LINE
  8
_1-2_HOJO
  6
CONTINUOUS
 62
    5
 10
297
 20
210
 11
0
 21
210
  0
LINE
  8
_1-2_HOJO
  6
CONTINUOUS
 62
    5
 10
0
 20
210
 11
0
 21
0
  0
LINE
  8
_1-2_HOJO
  6
CONTINUOUS
 62
    5
 10
18
 20
13
 11
279
 21
13
  0
LINE
  8
_1-2_HOJO
  6
CONTINUOUS
 62
    5
 10
279
 20
13
 11
279
 21
197
  0
LINE
  8
_1-2_HOJO
  6
CONTINUOUS
 62
    5
 10
279
 20
197
 11
18
 21
197
  0
LINE
  8
_1-2_HOJO
  6
CONTINUOUS
 62
    5
 10
18
 20
197
 11
18
 21
13
  0
ENDBLK
  0
BLOCK
  2
-004-_D6
 70
   64
 10
0
 20
0
 30
0
  0
LINE
  8
_1-5_SUNPO
  6
CONTINUOUS
 62
    7
 10
2382.5705
 20
2420.7041
 11
2382.5705
 21
2591.8778
  0
LINE
  8
_1-5_SUNPO
  6
CONTINUOUS
 62
    7
 10
2262.5705
 20
2420.7041
 11
2262.5705
 21
2591.8778
  0
LINE
  8
_1-5_SUNPO
  6
CONTINUOUS
 62
    7
 10
2432.5705
 20
2581.8778
 11
2482.5705
 21
2581.8778
  0
LINE
  8
_1-5_SUNPO
  6
CONTINUOUS
 62
    7
 10
2212.5705
 20
2581.8778
 11
2162.5705
 21
2581.8778
  0
LINE
  8
_1-5_SUNPO
  6
CONTINUOUS
 62
    7
 10
2382.5705
 20
2581.8778
 11
2262.5705
 21
2581.8778
  0
SOLID
  8
_1-5_SUNPO
  6
CONTINUOUS
 62
    7
 10
2432.5705
 20
2590.2111
 11
2432.5705
 21
2573.5444
 12
2382.5705
 22
2581.8778
 13
2382.5705
 23
2581.8778
  0
SOLID
  8
_1-5_SUNPO
  6
CONTINUOUS
 62
    7
 10
2212.5705
 20
2590.2111
 11
2212.5705
 21
2573.5444
 12
2262.5705
 22
2581.8778
 13
2262.5705
 23
2581.8778
  0
TEXT
  8
_1-5_SUNPO
 62
    7
 10
2280.8205
 20
2594.3778
 40
50
 41
1
 50
0
  1
120
  0
CIRCLE
  8
_0-2_DEFPOINTS
 62
    7
 10
2382.5705
 20
2400.7041
 40
8
  0
CIRCLE
  8
_0-2_DEFPOINTS
 62
    7
 10
2262.5705
 20
2400.7041
 40
8
  0
CIRCLE
  8
_0-2_DEFPOINTS
 62
    7
 10
2262.5705
 20
2581.8778
 40
8
  0
ENDBLK
  0
BLOCK
  2
-005-_D7
 70
   64
 10
0
 20
0
 30
0
  0
LINE
  8
_1-5_SUNPO
  6
CONTINUOUS
 62
    7
 10
2242.5705
 20
2280.7041
 11
2080.7118
 21
2280.7041
  0
LINE
  8
_1-5_SUNPO
  6
CONTINUOUS
 62
    7
 10
2242.5705
 20
2400.7041
 11
2080.7118
 21
2400.7041
  0
LINE
  8
_1-5_SUNPO
  6
CONTINUOUS
 62
    7
 10
2090.7118
 20
2230.7041
 11
2090.7118
 21
2180.7041
  0
LINE
  8
_1-5_SUNPO
  6
CONTINUOUS
 62
    7
 10
2090.7118
 20
2450.7041
 11
2090.7118
 21
2500.7041
  0
LINE
  8
_1-5_SUNPO
  6
CONTINUOUS
 62
    7
 10
2090.7118
 20
2280.7041
 11
2090.7118
 21
2400.7041
  0
SOLID
  8
_1-5_SUNPO
  6
CONTINUOUS
 62
    7
 10
2082.3784
 20
2230.7041
 11
2099.0451
 21
2230.7041
 12
2090.7118
 22
2280.7041
 13
2090.7118
 23
2280.7041
  0
SOLID
  8
_1-5_SUNPO
  6
CONTINUOUS
 62
    7
 10
2082.3784
 20
2450.7041
 11
2099.0451
 21
2450.7041
 12
2090.7118
 22
2400.7041
 13
2090.7118
 23
2400.7041
  0
TEXT
  8
_1-5_SUNPO
 62
    7
 10
2078.2118
 20
2298.9541
 40
50
 41
1
 50
90
  1
120
  0
CIRCLE
  8
_0-2_DEFPOINTS
 62
    7
 10
2262.5705
 20
2280.7041
 40
8
  0
CIRCLE
  8
_0-2_DEFPOINTS
 62
    7
 10
2262.5705
 20
2400.7041
 40
8
  0
CIRCLE
  8
_0-2_DEFPOINTS
 62
    7
 10
2090.7118
 20
2400.7041
 40
8
  0
ENDBLK
  0
BLOCK
  2
-006-_D8
 70
   64
 10
0
 20
0
 30
0
  0
LINE
  8
_1-5_SUNPO
  6
CONTINUOUS
 62
    7
 10
3542.5705
 20
2420.7041
 11
3542.5705
 21
2591.8778
  0
LINE
  8
_1-5_SUNPO
  6
CONTINUOUS
 62
    7
 10
4142.5705
 20
2420.7041
 11
4142.5705
 21
2591.8778
  0
LINE
  8
_1-5_SUNPO
  6
CONTINUOUS
 62
    7
 10
3592.5705
 20
2581.8778
 11
4092.5705
 21
2581.8778
  0
SOLID
  8
_1-5_SUNPO
  6
CONTINUOUS
 62
    7
 10
3592.5705
 20
2590.2111
 11
3592.5705
 21
2573.5444
 12
3542.5705
 22
2581.8778
 13
3542.5705
 23
2581.8778
  0
SOLID
  8
_1-5_SUNPO
  6
CONTINUOUS
 62
    7
 10
4092.5705
 20
2590.2111
 11
4092.5705
 21
2573.5444
 12
4142.5705
 22
2581.8778
 13
4142.5705
 23
2581.8778
  0
TEXT
  8
_1-5_SUNPO
 62
    7
 10
3800.8205
 20
2594.3778
 40
50
 41
1
 50
0
  1
600
  0
CIRCLE
  8
_0-2_DEFPOINTS
 62
    7
 10
3542.5705
 20
2400.7041
 40
8
  0
CIRCLE
  8
_0-2_DEFPOINTS
 62
    7
 10
4142.5705
 20
2400.7041
 40
8
  0
CIRCLE
  8
_0-2_DEFPOINTS
 62
    7
 10
4142.5705
 20
2581.8778
 40
8
  0
ENDBLK
  0
BLOCK
  2
-007-_D9
 70
   64
 10
0
 20
0
 30
0
  0
LINE
  8
_1-5_SUNPO
  6
CONTINUOUS
 62
    7
 10
2262.5705
 20
2260.7041
 11
2262.5705
 21
2090
  0
LINE
  8
_1-5_SUNPO
  6
CONTINUOUS
 62
    7
 10
2382.5705
 20
2260.7041
 11
2382.5705
 21
2090
  0
LINE
  8
_1-5_SUNPO
  6
CONTINUOUS
 62
    7
 10
2212.5705
 20
2100
 11
2162.5705
 21
2100
  0
LINE
  8
_1-5_SUNPO
  6
CONTINUOUS
 62
    7
 10
2432.5705
 20
2100
 11
2482.5705
 21
2100
  0
LINE
  8
_1-5_SUNPO
  6
CONTINUOUS
 62
    7
 10
2262.5705
 20
2100
 11
2382.5705
 21
2100
  0
SOLID
  8
_1-5_SUNPO
  6
CONTINUOUS
 62
    7
 10
2212.5705
 20
2108.3333
 11
2212.5705
 21
2091.6666
 12
2262.5705
 22
2100
 13
2262.5705
 23
2100
  0
SOLID
  8
_1-5_SUNPO
  6
CONTINUOUS
 62
    7
 10
2432.5705
 20
2108.3333
 11
2432.5705
 21
2091.6666
 12
2382.5705
 22
2100
 13
2382.5705
 23
2100
  0
TEXT
  8
_1-5_SUNPO
 62
    7
 10
2280.8205
 20
2112.5
 40
50
 41
1
 50
0
  1
120
  0
CIRCLE
  8
_0-2_DEFPOINTS
 62
    7
 10
2262.5705
 20
2280.7041
 40
8
  0
CIRCLE
  8
_0-2_DEFPOINTS
 62
    7
 10
2382.5705
 20
2280.7041
 40
8
  0
CIRCLE
  8
_0-2_DEFPOINTS
 62
    7
 10
2382.5705
 20
2100
 40
8
  0
ENDBLK
  0
BLOCK
  2
-008-_D10
 70
   64
 10
0
 20
0
 30
0
  0
LINE
  8
_1-5_SUNPO
  6
CONTINUOUS
 62
    7
 10
3522.5705
 20
2280.7041
 11
3357.1862
 21
2280.7041
  0
LINE
  8
_1-5_SUNPO
  6
CONTINUOUS
 62
    7
 10
3522.5705
 20
2400.7041
 11
3357.1862
 21
2400.7041
  0
LINE
  8
_1-5_SUNPO
  6
CONTINUOUS
 62
    7
 10
3367.1862
 20
2230.7041
 11
3367.1862
 21
2180.7041
  0
LINE
  8
_1-5_SUNPO
  6
CONTINUOUS
 62
    7
 10
3367.1862
 20
2450.7041
 11
3367.1862
 21
2500.7041
  0
LINE
  8
_1-5_SUNPO
  6
CONTINUOUS
 62
    7
 10
3367.1862
 20
2280.7041
 11
3367.1862
 21
2400.7041
  0
SOLID
  8
_1-5_SUNPO
  6
CONTINUOUS
 62
    7
 10
3358.8529
 20
2230.7041
 11
3375.5195
 21
2230.7041
 12
3367.1862
 22
2280.7041
 13
3367.1862
 23
2280.7041
  0
SOLID
  8
_1-5_SUNPO
  6
CONTINUOUS
 62
    7
 10
3358.8529
 20
2450.7041
 11
3375.5195
 21
2450.7041
 12
3367.1862
 22
2400.7041
 13
3367.1862
 23
2400.7041
  0
TEXT
  8
_1-5_SUNPO
 62
    7
 10
3354.6862
 20
2298.9541
 40
50
 41
1
 50
90
  1
120
  0
CIRCLE
  8
_0-2_DEFPOINTS
 62
    7
 10
3542.5705
 20
2280.7041
 40
8
  0
CIRCLE
  8
_0-2_DEFPOINTS
 62
    7
 10
3542.5705
 20
2400.7041
 40
8
  0
CIRCLE
  8
_0-2_DEFPOINTS
 62
    7
 10
3367.1862
 20
2400.7041
 40
8
  0
ENDBLK
  0
ENDSEC
  0
SECTION
  2
ENTITIES
  0
LINE
  8
_1-2_HOJO
  6
CONTINUOUS
 62
    5
 10
360
 20
260
 11
5580
 21
260
  0
LINE
  8
_1-2_HOJO
  6
CONTINUOUS
 62
    5
 10
360
 20
560
 11
5580
 21
560
  0
LINE
  8
_1-2_HOJO
  6
CONTINUOUS
 62
    5
 10
360
 20
260
 11
360
 21
560
  0
LINE
  8
_1-2_HOJO
  6
CONTINUOUS
 62
    5
 10
2360
 20
260
 11
2360
 21
560
  0
LINE
  8
_1-2_HOJO
  6
CONTINUOUS
 62
    5
 10
3160
 20
260
 11
3160
 21
560
  0
LINE
  8
_1-2_HOJO
  6
CONTINUOUS
 62
    5
 10
3660
 20
260
 11
3660
 21
560
  0
LINE
  8
_0-a_3C1
  6
CONTINUOUS
 62
    7
 10
2382.5705
 20
2280.7041
 11
2382.5705
 21
2400.7041
  0
LINE
  8
_0-a_3C1
  6
CONTINUOUS
 62
    7
 10
2382.5705
 20
2280.7041
 11
2262.5705
 21
2280.7041
  0
LINE
  8
_0-a_3C1
  6
CONTINUOUS
 62
    7
 10
2262.5705
 20
2280.7041
 11
2262.5705
 21
2400.7041
  0
LINE
  8
_0-a_3C1
  6
CONTINUOUS
 62
    7
 10
2262.5705
 20
2400.7041
 11
2382.5705
 21
2400.7041
  0
LINE
  8
_0-a_3C1
  6
CONTINUOUS
 62
    7
 10
3542.5705
 20
2280.7041
 11
3542.5705
 21
2400.7041
  0
LINE
  8
_0-a_3C1
  6
CONTINUOUS
 62
    7
 10
3542.5705
 20
2400.7041
 11
4142.5705
 21
2400.7041
  0
LINE
  8
_0-a_3C1
  6
CONTINUOUS
 62
    7
 10
4142.5705
 20
2400.7041
 11
4142.5705
 21
2280.7041
  0
LINE
  8
_0-a_3C1
  6
CONTINUOUS
 62
    7
 10
4142.5705
 20
2280.7041
 11
3542.5705
 21
2280.7041
  0
TEXT
  8
_1-4_MOJI
 62
    7
 10
2660.4686
 20
351.75881
 40
100
 41
1
 50
0
  1
Ａ
  0
TEXT
  8
_1-4_MOJI
 62
    7
 10
721.10406
 20
351.75881
 40
100
 41
1
 50
0
  1
地先境界ブロック
  0
LINE
  8
_1-5_SUNPO
  6
CONTINUOUS
 62
    7
 10
3522.5705
 20
2280.7041
 11
3357.1862
 21
2280.7041
  0
LINE
  8
_1-5_SUNPO
  6
CONTINUOUS
 62
    7
 10
3522.5705
 20
2400.7041
 11
3357.1862
 21
2400.7041
  0
LINE
  8
_1-5_SUNPO
  6
CONTINUOUS
 62
    7
 10
3367.1862
 20
2230.7041
 11
3367.1862
 21
2180.7041
  0
LINE
  8
_1-5_SUNPO
  6
CONTINUOUS
 62
    7
 10
3367.1862
 20
2450.7041
 11
3367.1862
 21
2500.7041
  0
LINE
  8
_1-5_SUNPO
  6
CONTINUOUS
 62
    7
 10
3367.1862
 20
2280.7041
 11
3367.1862
 21
2400.7041
  0
SOLID
  8
_1-5_SUNPO
  6
CONTINUOUS
 62
    7
 10
3358.8529
 20
2230.7041
 11
3375.5195
 21
2230.7041
 12
3367.1862
 22
2280.7041
 13
3367.1862
 23
2280.7041
  0
SOLID
  8
_1-5_SUNPO
  6
CONTINUOUS
 62
    7
 10
3358.8529
 20
2450.7041
 11
3375.5195
 21
2450.7041
 12
3367.1862
 22
2400.7041
 13
3367.1862
 23
2400.7041
  0
LINE
  8
_1-5_SUNPO
  6
CONTINUOUS
 62
    7
 10
2262.5705
 20
2260.7041
 11
2262.5705
 21
2090
  0
LINE
  8
_1-5_SUNPO
  6
CONTINUOUS
 62
    7
 10
2382.5705
 20
2260.7041
 11
2382.5705
 21
2090
  0
LINE
  8
_1-5_SUNPO
  6
CONTINUOUS
 62
    7
 10
2212.5705
 20
2100
 11
2162.5705
 21
2100
  0
LINE
  8
_1-5_SUNPO
  6
CONTINUOUS
 62
    7
 10
2432.5705
 20
2100
 11
2482.5705
 21
2100
  0
LINE
  8
_1-5_SUNPO
  6
CONTINUOUS
 62
    7
 10
2262.5705
 20
2100
 11
2382.5705
 21
2100
  0
SOLID
  8
_1-5_SUNPO
  6
CONTINUOUS
 62
    7
 10
2212.5705
 20
2108.3333
 11
2212.5705
 21
2091.6666
 12
2262.5705
 22
2100
 13
2262.5705
 23
2100
  0
SOLID
  8
_1-5_SUNPO
  6
CONTINUOUS
 62
    7
 10
2432.5705
 20
2108.3333
 11
2432.5705
 21
2091.6666
 12
2382.5705
 22
2100
 13
2382.5705
 23
2100
  0
LINE
  8
_1-5_SUNPO
  6
CONTINUOUS
 62
    7
 10
3542.5705
 20
2420.7041
 11
3542.5705
 21
2591.8778
  0
LINE
  8
_1-5_SUNPO
  6
CONTINUOUS
 62
    7
 10
4142.5705
 20
2420.7041
 11
4142.5705
 21
2591.8778
  0
LINE
  8
_1-5_SUNPO
  6
CONTINUOUS
 62
    7
 10
3592.5705
 20
2581.8778
 11
4092.5705
 21
2581.8778
  0
SOLID
  8
_1-5_SUNPO
  6
CONTINUOUS
 62
    7
 10
3592.5705
 20
2590.2111
 11
3592.5705
 21
2573.5444
 12
3542.5705
 22
2581.8778
 13
3542.5705
 23
2581.8778
  0
SOLID
  8
_1-5_SUNPO
  6
CONTINUOUS
 62
    7
 10
4092.5705
 20
2590.2111
 11
4092.5705
 21
2573.5444
 12
4142.5705
 22
2581.8778
 13
4142.5705
 23
2581.8778
  0
LINE
  8
_1-5_SUNPO
  6
CONTINUOUS
 62
    7
 10
2242.5705
 20
2280.7041
 11
2080.7118
 21
2280.7041
  0
LINE
  8
_1-5_SUNPO
  6
CONTINUOUS
 62
    7
 10
2242.5705
 20
2400.7041
 11
2080.7118
 21
2400.7041
  0
LINE
  8
_1-5_SUNPO
  6
CONTINUOUS
 62
    7
 10
2090.7118
 20
2230.7041
 11
2090.7118
 21
2180.7041
  0
LINE
  8
_1-5_SUNPO
  6
CONTINUOUS
 62
    7
 10
2090.7118
 20
2450.7041
 11
2090.7118
 21
2500.7041
  0
LINE
  8
_1-5_SUNPO
  6
CONTINUOUS
 62
    7
 10
2090.7118
 20
2280.7041
 11
2090.7118
 21
2400.7041
  0
SOLID
  8
_1-5_SUNPO
  6
CONTINUOUS
 62
    7
 10
2082.3784
 20
2230.7041
 11
2099.0451
 21
2230.7041
 12
2090.7118
 22
2280.7041
 13
2090.7118
 23
2280.7041
  0
SOLID
  8
_1-5_SUNPO
  6
CONTINUOUS
 62
    7
 10
2082.3784
 20
2450.7041
 11
2099.0451
 21
2450.7041
 12
2090.7118
 22
2400.7041
 13
2090.7118
 23
2400.7041
  0
LINE
  8
_1-5_SUNPO
  6
CONTINUOUS
 62
    7
 10
2382.5705
 20
2420.7041
 11
2382.5705
 21
2591.8778
  0
LINE
  8
_1-5_SUNPO
  6
CONTINUOUS
 62
    7
 10
2262.5705
 20
2420.7041
 11
2262.5705
 21
2591.8778
  0
LINE
  8
_1-5_SUNPO
  6
CONTINUOUS
 62
    7
 10
2432.5705
 20
2581.8778
 11
2482.5705
 21
2581.8778
  0
LINE
  8
_1-5_SUNPO
  6
CONTINUOUS
 62
    7
 10
2212.5705
 20
2581.8778
 11
2162.5705
 21
2581.8778
  0
LINE
  8
_1-5_SUNPO
  6
CONTINUOUS
 62
    7
 10
2382.5705
 20
2581.8778
 11
2262.5705
 21
2581.8778
  0
SOLID
  8
_1-5_SUNPO
  6
CONTINUOUS
 62
    7
 10
2432.5705
 20
2590.2111
 11
2432.5705
 21
2573.5444
 12
2382.5705
 22
2581.8778
 13
2382.5705
 23
2581.8778
  0
SOLID
  8
_1-5_SUNPO
  6
CONTINUOUS
 62
    7
 10
2212.5705
 20
2590.2111
 11
2212.5705
 21
2573.5444
 12
2262.5705
 22
2581.8778
 13
2262.5705
 23
2581.8778
  0
TEXT
  8
_1-4_MOJI
 62
    7
 10
3246.6803
 20
359.22747
 40
70
 41
1
 50
0
  1
１／２０
  0
TEXT
  8
_1-4_MOJI
 62
    7
 10
381.88625
 20
488.69189
 40
50
 41
1
 50
0
  1
製品名
  0
TEXT
  8
_1-4_MOJI
 62
    7
 10
2376.2901
 20
494.45317
 40
50
 41
1
 50
0
  1
型式
  0
TEXT
  8
_1-4_MOJI
 62
    7
 10
3177.5102
 20
488.69189
 40
50
 41
1
 50
0
  1
縮尺
  0
TEXT
  8
_1-4_MOJI
 62
    7
 10
3730.8708
 20
352.27261
 40
100
 41
1
 50
0
  1
千葉県コンクリート製品協同組合
  0
LINE
  8
_1-2_HOJO
  6
CONTINUOUS
 62
    5
 10
360
 20
260
 11
5580
 21
260
  0
LINE
  8
_1-2_HOJO
  6
CONTINUOUS
 62
    5
 10
5580
 20
260
 11
5580
 21
3940
  0
LINE
  8
_1-2_HOJO
  6
CONTINUOUS
 62
    5
 10
5580
 20
3940
 11
360
 21
3940
  0
LINE
  8
_1-2_HOJO
  6
CONTINUOUS
 62
    5
 10
360
 20
3940
 11
360
 21
260
  0
LINE
  8
_1-2_HOJO
  6
CONTINUOUS
 62
    5
 10
0
 20
0
 11
5940
 21
0
  0
LINE
  8
_1-2_HOJO
  6
CONTINUOUS
 62
    5
 10
5940
 20
0
 11
5940
 21
4200
  0
LINE
  8
_1-2_HOJO
  6
CONTINUOUS
 62
    5
 10
5940
 20
4200
 11
0
 21
4200
  0
LINE
  8
_1-2_HOJO
  6
CONTINUOUS
 62
    5
 10
0
 20
4200
 11
0
 21
0
  0
TEXT
  8
_1-4_MOJI
 62
    7
 10
2275.6799
 20
2592.4141
 40
50
 41
1
 50
0
  1
120
  0
TEXT
  8
_1-4_MOJI
 62
    7
 10
2278.5202
 20
2114.2999
 40
50
 41
1
 50
0
  1
120
  0
TEXT
  8
_1-4_MOJI
 62
    7
 10
2077.8994
 20
2297.879
 40
50
 41
1
 50
90
  1
120
  0
TEXT
  8
_1-4_MOJI
 62
    7
 10
3811.6375
 20
2585.1603
 40
50
 41
1
 50
0
  1
600
  0
TEXT
  8
_1-4_MOJI
 62
    7
 10
3356.4607
 20
2292.7165
 40
50
 41
1
 50
90
  1
120
  0
ENDSEC
  0
EOF
