  0
SECTION
  2
HEADER
  9
$ACADVER
  1
AC1012
  9
$DWGCODEPAGE
  3
dos932
  9
$INSBASE
 10
0.0
 20
0.0
 30
0.0
  9
$EXTMIN
 10
-0.1812605841350887
 20
-0.1281640493871237
 30
-0.0015258207003583
  9
$EXTMAX
 10
5940.181288244414
 20
4200.128183607161
 30
0.0000000349246037
  9
$LIMMIN
 10
0.0
 20
0.0
  9
$LIMMAX
 10
5940.0
 20
4200.0
  9
$ORTHOMODE
 70
     0
  9
$REGENMODE
 70
     1
  9
$FILLMODE
 70
     1
  9
$QTEXTMODE
 70
     0
  9
$MIRRTEXT
 70
     0
  9
$DRAGMODE
 70
     2
  9
$LTSCALE
 40
10.0
  9
$OSMODE
 70
  3071
  9
$ATTMODE
 70
     1
  9
$TEXTSIZE
 40
50.0
  9
$TRACEWID
 40
140.0
  9
$TEXTSTYLE
  7
ADD
  9
$CLAYER
  8
SUNPO
  9
$CELTYPE
  6
BYLAYER
  9
$CECOLOR
 62
   256
  9
$CELTSCALE
 40
1.0
  9
$DELOBJ
 70
     1
  9
$DISPSILH
 70
     0
  9
$DIMSCALE
 40
20.0
  9
$DIMASZ
 40
2.5
  9
$DIMEXO
 40
1.0
  9
$DIMDLI
 40
7.0
  9
$DIMRND
 40
0.0
  9
$DIMDLE
 40
0.0
  9
$DIMEXE
 40
0.5
  9
$DIMTP
 40
0.0
  9
$DIMTM
 40
0.0
  9
$DIMTXT
 40
2.5
  9
$DIMCEN
 40
2.5
  9
$DIMTSZ
 40
0.0
  9
$DIMTOL
 70
     0
  9
$DIMLIM
 70
     0
  9
$DIMTIH
 70
     0
  9
$DIMTOH
 70
     0
  9
$DIMSE1
 70
     0
  9
$DIMSE2
 70
     0
  9
$DIMTAD
 70
     1
  9
$DIMZIN
 70
     8
  9
$DIMBLK
  1

  9
$DIMASO
 70
     1
  9
$DIMSHO
 70
     1
  9
$DIMPOST
  1

  9
$DIMAPOST
  1

  9
$DIMALT
 70
     0
  9
$DIMALTD
 70
     3
  9
$DIMALTF
 40
0.03937007874016
  9
$DIMLFAC
 40
1.0
  9
$DIMTOFL
 70
     1
  9
$DIMTVP
 40
0.7
  9
$DIMTIX
 70
     1
  9
$DIMSOXD
 70
     0
  9
$DIMSAH
 70
     0
  9
$DIMBLK1
  1

  9
$DIMBLK2
  1

  9
$DIMSTYLE
  2
ADD
  9
$DIMCLRD
 70
   144
  9
$DIMCLRE
 70
   144
  9
$DIMCLRT
 70
     7
  9
$DIMTFAC
 40
1.0
  9
$DIMGAP
 40
0.625
  9
$DIMJUST
 70
     0
  9
$DIMSD1
 70
     0
  9
$DIMSD2
 70
     0
  9
$DIMTOLJ
 70
     2
  9
$DIMTZIN
 70
     8
  9
$DIMALTZ
 70
     0
  9
$DIMALTTZ
 70
     0
  9
$DIMFIT
 70
     3
  9
$DIMUPT
 70
     0
  9
$DIMUNIT
 70
     2
  9
$DIMDEC
 70
     1
  9
$DIMTDEC
 70
     1
  9
$DIMALTU
 70
     2
  9
$DIMALTTD
 70
     3
  9
$DIMTXSTY
  7
ADD
  9
$DIMAUNIT
 70
     0
  9
$LUNITS
 70
     2
  9
$LUPREC
 70
     4
  9
$SKETCHINC
 40
1.0
  9
$FILLETRAD
 40
30.0
  9
$AUNITS
 70
     0
  9
$AUPREC
 70
     1
  9
$MENU
  1
.
  9
$ELEVATION
 40
0.0
  9
$PELEVATION
 40
0.0
  9
$THICKNESS
 40
0.0
  9
$LIMCHECK
 70
     0
  9
$BLIPMODE
 70
     0
  9
$CHAMFERA
 40
0.0
  9
$CHAMFERB
 40
0.0
  9
$CHAMFERC
 40
25.0
  9
$CHAMFERD
 40
0.7853981633974483
  9
$SKPOLY
 70
     0
  9
$TDCREATE
 40
2451801.142532870
  9
$TDUPDATE
 40
2452207.595660590
  9
$TDINDWG
 40
0.1256907523
  9
$TDUSRTIMER
 40
0.1256905208
  9
$USRTIMER
 70
     1
  9
$ANGBASE
 50
0.0
  9
$ANGDIR
 70
     0
  9
$PDMODE
 70
     0
  9
$PDSIZE
 40
0.0
  9
$PLINEWID
 40
0.0
  9
$COORDS
 70
     1
  9
$SPLFRAME
 70
     0
  9
$SPLINETYPE
 70
     6
  9
$SPLINESEGS
 70
     8
  9
$ATTDIA
 70
     0
  9
$ATTREQ
 70
     1
  9
$HANDLING
 70
-16383
  9
$HANDSEED
  5
B0D
  9
$SURFTAB1
 70
     6
  9
$SURFTAB2
 70
     6
  9
$SURFTYPE
 70
     6
  9
$SURFU
 70
     6
  9
$SURFV
 70
     6
  9
$UCSNAME
  2

  9
$UCSORG
 10
0.0
 20
0.0
 30
0.0
  9
$UCSXDIR
 10
1.0
 20
0.0
 30
0.0
  9
$UCSYDIR
 10
0.0
 20
1.0
 30
0.0
  9
$PUCSNAME
  2

  9
$PUCSORG
 10
0.0
 20
0.0
 30
0.0
  9
$PUCSXDIR
 10
1.0
 20
0.0
 30
0.0
  9
$PUCSYDIR
 10
0.0
 20
1.0
 30
0.0
  9
$USERI1
 70
     0
  9
$USERI2
 70
     0
  9
$USERI3
 70
     0
  9
$USERI4
 70
     0
  9
$USERI5
 70
     0
  9
$USERR1
 40
841.0
  9
$USERR2
 40
594.0
  9
$USERR3
 40
1.0
  9
$USERR4
 40
0.0
  9
$USERR5
 40
0.0
  9
$WORLDVIEW
 70
     1
  9
$SHADEDGE
 70
     3
  9
$SHADEDIF
 70
    70
  9
$TILEMODE
 70
     1
  9
$MAXACTVP
 70
    48
  9
$PINSBASE
 10
0.0
 20
0.0
 30
0.0
  9
$PLIMCHECK
 70
     0
  9
$PEXTMIN
 10
-5.662975978526673
 20
-6.331907780761866
 30
-0.0015258207003583
  9
$PEXTMAX
 10
834.4213426047982
 20
560.9663709967471
 30
0.0000000349246037
  9
$PLIMMIN
 10
-7.5
 20
-20.0
  9
$PLIMMAX
 10
833.5000000000004
 20
574.0000000000001
  9
$UNITMODE
 70
     0
  9
$VISRETAIN
 70
     1
  9
$PLINEGEN
 70
     0
  9
$PSLTSCALE
 70
     1
  9
$TREEDEPTH
 70
  3020
  9
$PICKSTYLE
 70
     1
  9
$CMLSTYLE
  2
STANDARD
  9
$CMLJUST
 70
     0
  9
$CMLSCALE
 40
20.0
  9
$SAVEIMAGES
 70
     1
  0
ENDSEC
  0
SECTION
  2
CLASSES
  0
CLASS
  1
ACDBDICTIONARYWDFLT
  2
AcDbDictionaryWithDefault
  3
AutoCAD 2000
 90
    32768
280
     0
281
     0
  0
CLASS
  1
ACDBPLACEHOLDER
  2
AcDbPlaceHolder
  3
AutoCAD 2000
 90
    32768
280
     0
281
     0
  0
CLASS
  1
LAYOUT
  2
AcDbLayout
  3
AutoCAD 2000
 90
    32768
280
     0
281
     0
  0
CLASS
  1
RTEXT
  2
RText
  3
RText|AutoCAD Express Tool|expresstools@autodesk.com
 90
    32768
280
     0
281
     1
  0
CLASS
  1
DICTIONARYVAR
  2
AcDbDictionaryVar
  3
AutoCAD 2000
 90
    32768
280
     0
281
     0
  0
CLASS
  1
LONG_TRANSACTION
  2
AcDbLongTransaction
  3
AutoCAD 2000
 90
    32768
280
     0
281
     0
  0
CLASS
  1
LWPOLYLINE
  2
AcDbPolyline
  3
AutoCAD 2000
 90
    32768
280
     0
281
     1
  0
CLASS
  1
HATCH
  2
AcDbHatch
  3
AutoCAD 2000
 90
    32768
280
     0
281
     1
  0
CLASS
  1
XRECORD
  2
AcDbXrecord
  3
AutoCAD 2000
 90
    32768
280
     0
281
     0
  0
CLASS
  1
LONG_TRANSACTION
  2
AcDbLongTransaction
  3
AutoCAD 2000
 90
    32768
280
     0
281
     0
  0
CLASS
  1
LWPOLYLINE
  2
AcDbPolyline
  3
AutoCAD 2000
 90
    32768
280
     0
281
     1
  0
CLASS
  1
HATCH
  2
AcDbHatch
  3
AutoCAD 2000
 90
    32768
280
     0
281
     1
  0
CLASS
  1
XRECORD
  2
AcDbXrecord
  3
AutoCAD 2000
 90
    32768
280
     0
281
     0
  0
CLASS
  1
LONG_TRANSACTION
  2
AcDbLongTransaction
  3
AutoCAD 2000
 90
    32768
280
     0
281
     0
  0
CLASS
  1
LWPOLYLINE
  2
AcDbPolyline
  3
AutoCAD 2000
 90
    32768
280
     0
281
     1
  0
CLASS
  1
HATCH
  2
AcDbHatch
  3
AutoCAD 2000
 90
    32768
280
     0
281
     1
  0
CLASS
  1
XRECORD
  2
AcDbXrecord
  3
AutoCAD 2000
 90
    32768
280
     0
281
     0
  0
CLASS
  1
LONG_TRANSACTION
  2
AcDbLongTransaction
  3
AutoCAD 2000
 90
    32768
280
     0
281
     0
  0
CLASS
  1
LWPOLYLINE
  2
AcDbPolyline
  3
AutoCAD 2000
 90
    32768
280
     0
281
     1
  0
CLASS
  1
HATCH
  2
AcDbHatch
  3
AutoCAD 2000
 90
    32768
280
     0
281
     1
  0
CLASS
  1
XRECORD
  2
AcDbXrecord
  3
AutoCAD 2000
 90
    32768
280
     0
281
     0
  0
CLASS
  1
LONG_TRANSACTION
  2
AcDbLongTransaction
  3
AutoCAD 2000
 90
    32768
280
     0
281
     0
  0
CLASS
  1
LWPOLYLINE
  2
AcDbPolyline
  3
AutoCAD 2000
 90
    32768
280
     0
281
     1
  0
CLASS
  1
HATCH
  2
AcDbHatch
  3
AutoCAD 2000
 90
    32768
280
     0
281
     1
  0
CLASS
  1
XRECORD
  2
AcDbXrecord
  3
AutoCAD 2000
 90
    32768
280
     0
281
     0
  0
CLASS
  1
LONG_TRANSACTION
  2
AcDbLongTransaction
  3
AutoCAD 2000
 90
    32768
280
     0
281
     0
  0
CLASS
  1
LWPOLYLINE
  2
AcDbPolyline
  3
AutoCAD 2000
 90
    32768
280
     0
281
     1
  0
CLASS
  1
HATCH
  2
AcDbHatch
  3
AutoCAD 2000
 90
    32768
280
     0
281
     1
  0
CLASS
  1
XRECORD
  2
AcDbXrecord
  3
AutoCAD 2000
 90
    32768
280
     0
281
     0
  0
CLASS
  1
LONG_TRANSACTION
  2
AcDbLongTransaction
  3
AutoCAD 2000
 90
    32768
280
     0
281
     0
  0
CLASS
  1
LWPOLYLINE
  2
AcDbPolyline
  3
AutoCAD 2000
 90
    32768
280
     0
281
     1
  0
CLASS
  1
HATCH
  2
AcDbHatch
  3
AutoCAD 2000
 90
    32768
280
     0
281
     1
  0
CLASS
  1
XRECORD
  2
AcDbXrecord
  3
AutoCAD 2000
 90
    32768
280
     0
281
     0
  0
CLASS
  1
LONG_TRANSACTION
  2
AcDbLongTransaction
  3
AutoCAD 2000
 90
    32768
280
     0
281
     0
  0
CLASS
  1
LWPOLYLINE
  2
AcDbPolyline
  3
AutoCAD 2000
 90
    32768
280
     0
281
     1
  0
CLASS
  1
HATCH
  2
AcDbHatch
  3
AutoCAD 2000
 90
    32768
280
     0
281
     1
  0
CLASS
  1
XRECORD
  2
AcDbXrecord
  3
AutoCAD 2000
 90
    32768
280
     0
281
     0
  0
ENDSEC
  0
SECTION
  2
TABLES
  0
TABLE
  2
VPORT
  5
8
330
0
100
AcDbSymbolTable
 70
     2
  0
VPORT
  5
AFD
330
8
100
AcDbSymbolTableRecord
100
AcDbViewportTableRecord
  2
*ACTIVE
 70
     0
 10
0.0
 20
0.0
 11
1.0
 21
1.0
 12
2970.000013830138
 22
2100.000009778886
 13
0.0
 23
0.0
 14
10.0
 24
10.0
 15
10.0
 25
10.0
 16
0.0
 26
0.0
 36
1.0
 17
0.0
 27
0.0
 37
0.0
 40
4249.286577395729
 41
1.84990253411306
 42
50.0
 43
0.0
 44
0.0
 50
0.0
 51
0.0
 71
     0
 72
   100
 73
     1
 74
     1
 75
     0
 76
     0
 77
     0
 78
     0
  0
ENDTAB
  0
TABLE
  2
LTYPE
  5
5
330
0
100
AcDbSymbolTable
 70
     5
  0
LTYPE
  5
14
330
5
100
AcDbSymbolTableRecord
100
AcDbLinetypeTableRecord
  2
BYBLOCK
 70
     0
  3

 72
    65
 73
     0
 40
0.0
  0
LTYPE
  5
15
330
5
100
AcDbSymbolTableRecord
100
AcDbLinetypeTableRecord
  2
BYLAYER
 70
     0
  3

 72
    65
 73
     0
 40
0.0
  0
LTYPE
  5
16
330
5
100
AcDbSymbolTableRecord
100
AcDbLinetypeTableRecord
  2
CONTINUOUS
 70
     0
  3
Solid line
 72
    65
 73
     0
 40
0.0
  0
LTYPE
  5
555
330
5
100
AcDbSymbolTableRecord
100
AcDbLinetypeTableRecord
  2
CENTER
 70
     0
  3
Center ____ _ ____ _ ____ _ ____ _ ____ _ ____
 72
    65
 73
     4
 40
50.8
 49
31.75
 74
     0
 49
-6.349999999999998
 74
     0
 49
6.349999999999998
 74
     0
 49
-6.349999999999998
 74
     0
  0
LTYPE
  5
556
330
5
100
AcDbSymbolTableRecord
100
AcDbLinetypeTableRecord
  2
HIDDEN
 70
     0
  3
Hidden __ __ __ __ __ __ __ __ __ __ __ __ __ _
 72
    65
 73
     2
 40
9.524999999999996
 49
6.349999999999998
 74
     0
 49
-3.174999999999998
 74
     0
  0
LTYPE
  5
557
330
5
100
AcDbSymbolTableRecord
100
AcDbLinetypeTableRecord
  2
HIDDEN2
 70
     0
  3
Hidden (.5x) _ _ _ _ _ _ _ _ _ _ _ _ _ _ _ _ _
 72
    65
 73
     2
 40
4.762499999999998
 49
3.174999999999998
 74
     0
 49
-1.587499999999999
 74
     0
  0
LTYPE
  5
558
330
5
100
AcDbSymbolTableRecord
100
AcDbLinetypeTableRecord
  2
PHANTOM
 70
     0
  3
Phantom ______  __  __  ______  __  __  ______
 72
    65
 73
     6
 40
63.5
 49
31.75
 74
     0
 49
-6.349999999999998
 74
     0
 49
6.349999999999998
 74
     0
 49
-6.349999999999998
 74
     0
 49
6.349999999999998
 74
     0
 49
-6.349999999999998
 74
     0
  0
ENDTAB
  0
TABLE
  2
LAYER
  5
2
330
0
100
AcDbSymbolTable
 70
    22
  0
LAYER
  5
10
330
2
100
AcDbSymbolTableRecord
100
AcDbLayerTableRecord
  2
0
 70
     0
 62
     7
  6
CONTINUOUS
  0
LAYER
  5
75
330
2
100
AcDbSymbolTableRecord
100
AcDbLayerTableRecord
  2
VIEWPORT
 70
     0
 62
     1
  6
CONTINUOUS
  0
LAYER
  5
504
330
2
100
AcDbSymbolTableRecord
100
AcDbLayerTableRecord
  2
DEFPOINTS
 70
     0
 62
     6
  6
CONTINUOUS
  0
LAYER
  5
505
330
2
100
AcDbSymbolTableRecord
100
AcDbLayerTableRecord
  2
1C1
 70
     0
 62
   254
  6
CONTINUOUS
  0
LAYER
  5
506
330
2
100
AcDbSymbolTableRecord
100
AcDbLayerTableRecord
  2
1C2
 70
     0
 62
   254
  6
CONTINUOUS
  0
LAYER
  5
507
330
2
100
AcDbSymbolTableRecord
100
AcDbLayerTableRecord
  2
2C1
 70
     0
 62
   144
  6
CONTINUOUS
  0
LAYER
  5
508
330
2
100
AcDbSymbolTableRecord
100
AcDbLayerTableRecord
  2
2C2
 70
     0
 62
   144
  6
CONTINUOUS
  0
LAYER
  5
509
330
2
100
AcDbSymbolTableRecord
100
AcDbLayerTableRecord
  2
2H1
 70
     0
 62
   144
  6
HIDDEN
  0
LAYER
  5
50A
330
2
100
AcDbSymbolTableRecord
100
AcDbLayerTableRecord
  2
2H2
 70
     0
 62
   144
  6
HIDDEN2
  0
LAYER
  5
50B
330
2
100
AcDbSymbolTableRecord
100
AcDbLayerTableRecord
  2
2P1
 70
     0
 62
   144
  6
PHANTOM
  0
LAYER
  5
50C
330
2
100
AcDbSymbolTableRecord
100
AcDbLayerTableRecord
  2
3C1
 70
     0
 62
     7
  6
CONTINUOUS
  0
LAYER
  5
50D
330
2
100
AcDbSymbolTableRecord
100
AcDbLayerTableRecord
  2
3C2
 70
     0
 62
     7
  6
CONTINUOUS
  0
LAYER
  5
50E
330
2
100
AcDbSymbolTableRecord
100
AcDbLayerTableRecord
  2
3C3
 70
     0
 62
     7
  6
CONTINUOUS
  0
LAYER
  5
50F
330
2
100
AcDbSymbolTableRecord
100
AcDbLayerTableRecord
  2
4H1
 70
     0
 62
     6
  6
HIDDEN
  0
LAYER
  5
510
330
2
100
AcDbSymbolTableRecord
100
AcDbLayerTableRecord
  2
4H2
 70
     0
 62
     6
  6
HIDDEN2
  0
LAYER
  5
511
330
2
100
AcDbSymbolTableRecord
100
AcDbLayerTableRecord
  2
5C1
 70
     0
 62
    55
  6
CONTINUOUS
  0
LAYER
  5
512
330
2
100
AcDbSymbolTableRecord
100
AcDbLayerTableRecord
  2
5C2
 70
     0
 62
    55
  6
CONTINUOUS
  0
LAYER
  5
513
330
2
100
AcDbSymbolTableRecord
100
AcDbLayerTableRecord
  2
8C1
 70
     0
 62
    92
  6
CONTINUOUS
  0
LAYER
  5
514
330
2
100
AcDbSymbolTableRecord
100
AcDbLayerTableRecord
  2
HOJO
 70
     0
 62
     5
  6
CONTINUOUS
  0
LAYER
  5
515
330
2
100
AcDbSymbolTableRecord
100
AcDbLayerTableRecord
  2
KIJUN
 70
     0
 62
     1
  6
CENTER
  0
LAYER
  5
516
330
2
100
AcDbSymbolTableRecord
100
AcDbLayerTableRecord
  2
MOJI
 70
     0
 62
     7
  6
CONTINUOUS
  0
LAYER
  5
517
330
2
100
AcDbSymbolTableRecord
100
AcDbLayerTableRecord
  2
SUNPO
 70
     0
 62
   144
  6
CONTINUOUS
  0
ENDTAB
  0
TABLE
  2
STYLE
  5
3
330
0
100
AcDbSymbolTable
 70
     6
  0
STYLE
  5
11
330
3
100
AcDbSymbolTableRecord
100
AcDbTextStyleTableRecord
  2
STANDARD
 70
     0
 40
0.0
 41
1.0
 50
0.0
 71
     0
 42
2.5
  3
txt
  4

  0
STYLE
  5
2C
330
3
100
AcDbSymbolTableRecord
100
AcDbTextStyleTableRecord
  2

 70
     1
 40
0.0
 41
1.0
 50
0.0
 71
     0
 42
2.5
  3
ltypeshp.shx
  4

  0
STYLE
  5
18E
330
3
100
AcDbSymbolTableRecord
100
AcDbTextStyleTableRecord
  2
ADD
 70
     0
 40
0.0
 41
1.0
 50
0.0
 71
     0
 42
50.0
  3
romans.shx
  4
bigfont.shx
  0
STYLE
  5
191
330
3
100
AcDbSymbolTableRecord
100
AcDbTextStyleTableRecord
  2
MSG
 70
     0
 40
0.0
 41
1.0
 50
0.0
 71
     0
 42
2.5
  3
MS Gothic.ttf
  4

1001
ACAD
1000
MS Gothic
1071
    32817
  0
STYLE
  5
5C8
330
3
100
AcDbSymbolTableRecord
100
AcDbTextStyleTableRecord
  2
STANDARD15
 70
     0
 40
0.0
 41
1.0
 50
15.0
 71
     0
 42
2.5
  3
ROMANS
  4
bigfont
  0
STYLE
  5
5C9
330
3
100
AcDbSymbolTableRecord
100
AcDbTextStyleTableRecord
  2
ROMANS15
 70
     0
 40
0.0
 41
1.0
 50
15.0
 71
     0
 42
2.5
  3
romans
  4

  0
ENDTAB
  0
TABLE
  2
VIEW
  5
6
330
0
100
AcDbSymbolTable
 70
     1
  0
VIEW
  5
54D
330
6
100
AcDbSymbolTableRecord
100
AcDbViewTableRecord
  2
ALL
 70
     0
 40
594.0
 10
420.5
 20
297.0
 41
865.125
 11
0.0
 21
0.0
 31
1.0
 12
0.0
 22
0.0
 32
0.0
 42
50.0
 43
0.0
 44
0.0
 50
0.0
 71
     0
  0
ENDTAB
  0
TABLE
  2
UCS
  5
7
330
0
100
AcDbSymbolTable
 70
     0
  0
ENDTAB
  0
TABLE
  2
APPID
  5
9
330
0
100
AcDbSymbolTable
 70
     4
  0
APPID
  5
12
330
9
100
AcDbSymbolTableRecord
100
AcDbRegAppTableRecord
  2
ACAD
 70
     0
  0
APPID
  5
5CB
330
9
100
AcDbSymbolTableRecord
100
AcDbRegAppTableRecord
  2
ARAIGUMI_YOHEKI
 70
     0
  0
APPID
  5
5CC
330
9
100
AcDbSymbolTableRecord
100
AcDbRegAppTableRecord
  2
CONTENTTABDATA
 70
     0
  0
APPID
  5
5CD
330
9
100
AcDbSymbolTableRecord
100
AcDbRegAppTableRecord
  2
CONTENTCURRENTTAB
 70
     0
  0
ENDTAB
  0
TABLE
  2
DIMSTYLE
  5
A
330
0
100
AcDbSymbolTable
 70
    10
  0
DIMSTYLE
105
27
330
A
100
AcDbSymbolTableRecord
100
AcDbDimStyleTableRecord
  2
ISO-25
 70
     0
  3

  4

  5

  6

  7

 40
1.0
 41
2.5
 42
0.625
 43
3.75
 44
1.25
 45
0.0
 46
0.0
 47
0.0
 48
0.0
140
2.5
141
2.5
142
0.0
143
0.03937007874016
144
1.0
145
0.0
146
1.0
147
0.625
 71
     0
 72
     0
 73
     0
 74
     0
 75
     0
 76
     0
 77
     1
 78
     8
170
     0
171
     3
172
     1
173
     0
174
     0
175
     0
176
     0
177
     0
178
     0
270
     2
271
     2
272
     2
273
     2
274
     3
340
11
275
     0
280
     0
281
     0
282
     0
283
     0
284
     8
285
     0
286
     0
287
     3
288
     0
  0
DIMSTYLE
105
197
330
A
100
AcDbSymbolTableRecord
100
AcDbDimStyleTableRecord
  2
ADD
 70
     0
  3

  4

  5

  6

  7

 40
1.0
 41
2.5
 42
1.0
 43
7.0
 44
0.5
 45
0.0
 46
0.0
 47
0.0
 48
0.0
140
2.5
141
2.5
142
0.0
143
0.03937007874016
144
1.0
145
0.7
146
1.0
147
0.625
 71
     0
 72
     0
 73
     0
 74
     0
 75
     0
 76
     0
 77
     1
 78
     8
170
     0
171
     3
172
     1
173
     0
174
     1
175
     0
176
   144
177
   144
178
     7
270
     2
271
     1
272
     1
273
     2
274
     3
340
18E
275
     0
280
     0
281
     0
282
     0
283
     2
284
     8
285
     0
286
     0
287
     3
288
     0
  0
DIMSTYLE
105
3E6
330
A
100
AcDbSymbolTableRecord
100
AcDbDimStyleTableRecord
  2
ADD$2
 70
     0
  3

  4

  5

  6

  7

 40
1.0
 41
2.5
 42
1.0
 43
7.0
 44
0.5
 45
0.0
 46
0.0
 47
0.0
 48
0.0
140
2.5
141
2.5
142
0.0
143
0.03937007874016
144
1.0
145
0.7
146
1.0
147
0.625
 71
     0
 72
     0
 73
     0
 74
     0
 75
     0
 76
     0
 77
     1
 78
     8
170
     0
171
     3
172
     1
173
     0
174
     1
175
     0
176
   144
177
   144
178
     7
270
     2
271
     1
272
     1
273
     2
274
     3
340
18E
275
     0
280
     0
281
     0
282
     0
283
     2
284
     8
285
     0
286
     0
287
     3
288
     0
  0
DIMSTYLE
105
3E7
330
A
100
AcDbSymbolTableRecord
100
AcDbDimStyleTableRecord
  2
ADD$4
 70
     0
  3

  4

  5

  6

  7

 40
1.0
 41
2.5
 42
1.0
 43
7.0
 44
0.5
 45
0.0
 46
0.0
 47
0.0
 48
0.0
140
2.5
141
2.5
142
0.0
143
0.03937007874016
144
1.0
145
0.0
146
1.0
147
0.625
 71
     0
 72
     0
 73
     0
 74
     0
 75
     0
 76
     0
 77
     1
 78
     8
170
     0
171
     3
172
     1
173
     0
174
     1
175
     0
176
   144
177
   144
178
     7
270
     2
271
     1
272
     1
273
     2
274
     3
340
18E
275
     0
280
     0
281
     0
282
     0
283
     2
284
     8
285
     0
286
     0
287
     3
288
     0
  0
DIMSTYLE
105
3E8
330
A
100
AcDbSymbolTableRecord
100
AcDbDimStyleTableRecord
  2
ADD$3
 70
     0
  3

  4

  5

  6

  7

 40
1.0
 41
2.5
 42
1.0
 43
7.0
 44
0.5
 45
0.0
 46
0.0
 47
0.0
 48
0.0
140
2.5
141
2.5
142
0.0
143
0.03937007874016
144
1.0
145
0.0
146
1.0
147
0.625
 71
     0
 72
     0
 73
     0
 74
     0
 75
     0
 76
     0
 77
     1
 78
     8
170
     0
171
     3
172
     1
173
     0
174
     1
175
     0
176
   144
177
   144
178
     7
270
     2
271
     1
272
     1
273
     2
274
     3
340
18E
275
     0
280
     0
281
     0
282
     0
283
     2
284
     8
285
     0
286
     0
287
     3
288
     0
  0
DIMSTYLE
105
3E9
330
A
100
AcDbSymbolTableRecord
100
AcDbDimStyleTableRecord
  2
ADD$6
 70
     0
  3

  4

  5

  6

  7

 40
1.0
 41
2.5
 42
1.0
 43
7.0
 44
0.5
 45
0.0
 46
0.0
 47
0.0
 48
0.0
140
2.5
141
2.5
142
0.0
143
0.03937007874016
144
1.0
145
0.0
146
1.0
147
0.625
 71
     0
 72
     0
 73
     0
 74
     0
 75
     0
 76
     0
 77
     1
 78
     8
170
     0
171
     3
172
     1
173
     0
174
     1
175
     0
176
   144
177
   144
178
     7
270
     2
271
     1
272
     1
273
     2
274
     3
340
18E
275
     0
280
     0
281
     0
282
     0
283
     2
284
     8
285
     0
286
     0
287
     3
288
     0
  0
DIMSTYLE
105
3EA
330
A
100
AcDbSymbolTableRecord
100
AcDbDimStyleTableRecord
  2
ADD$7
 70
     0
  3

  4

  5

  6

  7

 40
1.0
 41
2.5
 42
1.0
 43
7.0
 44
0.5
 45
0.0
 46
0.0
 47
0.0
 48
0.0
140
2.5
141
2.5
142
0.0
143
0.03937007874016
144
1.0
145
0.0
146
1.0
147
0.625
 71
     0
 72
     0
 73
     0
 74
     0
 75
     0
 76
     0
 77
     0
 78
     8
170
     0
171
     3
172
     1
173
     0
174
     1
175
     0
176
   144
177
   144
178
     7
270
     2
271
     1
272
     1
273
     2
274
     3
340
18E
275
     0
280
     0
281
     0
282
     0
283
     2
284
     8
285
     0
286
     0
287
     3
288
     0
  0
DIMSTYLE
105
518
330
A
100
AcDbSymbolTableRecord
100
AcDbDimStyleTableRecord
  2
STANDARD
 70
     0
  3

  4

  5

  6

  7

 40
1.0
 41
0.18
 42
0.0625
 43
0.38
 44
0.18
 45
0.0
 46
0.0
 47
0.0
 48
0.0
140
0.18
141
0.09
142
0.0
143
25.4
144
1.0
145
0.0
146
1.0
147
0.09
 71
     0
 72
     0
 73
     1
 74
     1
 75
     0
 76
     0
 77
     0
 78
     0
170
     0
171
     2
172
     0
173
     0
174
     0
175
     0
176
     0
177
     0
178
     0
270
     2
271
     4
272
     4
273
     2
274
     2
340
11
275
     0
280
     0
281
     0
282
     0
283
     1
284
     0
285
     0
286
     0
287
     3
288
     0
  0
DIMSTYLE
105
550
330
A
100
AcDbSymbolTableRecord
100
AcDbDimStyleTableRecord
  2
ADD$0
 70
     0
  3

  4

  5

  6

  7

 40
1.0
 41
2.5
 42
1.0
 43
7.0
 44
0.5
 45
0.0
 46
0.0
 47
0.0
 48
0.0
140
2.5
141
2.5
142
0.0
143
0.03937007874016
144
1.0
145
0.7
146
1.0
147
0.625
 71
     0
 72
     0
 73
     0
 74
     0
 75
     0
 76
     0
 77
     1
 78
     8
170
     0
171
     3
172
     1
173
     0
174
     1
175
     0
176
   144
177
   144
178
     7
270
     2
271
     1
272
     1
273
     2
274
     3
340
18E
275
     0
280
     0
281
     0
282
     0
283
     2
284
     8
285
     0
286
     0
287
     3
288
     0
  0
DIMSTYLE
105
59B
330
A
100
AcDbSymbolTableRecord
100
AcDbDimStyleTableRecord
  2
ADD_M
 70
     0
  3

  4

  5

  6

  7

 40
1.0
 41
2.5
 42
1.0
 43
7.0
 44
0.5
 45
0.0
 46
0.0
 47
0.0
 48
0.0
140
2.5
141
2.5
142
0.0
143
0.03937007874016
144
1.0
145
0.7
146
1.0
147
0.625
 71
     0
 72
     0
 73
     0
 74
     0
 75
     0
 76
     0
 77
     1
 78
     8
170
     0
171
     3
172
     1
173
     0
174
     1
175
     0
176
   144
177
   144
178
     7
270
     2
271
     1
272
     1
273
     2
274
     3
340
18E
275
     0
280
     0
281
     0
282
     0
283
     2
284
     8
285
     0
286
     0
287
     3
288
     0
  0
ENDTAB
  0
TABLE
  2
BLOCK_RECORD
  5
1
330
0
100
AcDbSymbolTable
 70
     8
  0
BLOCK_RECORD
  5
1F
102
{ACAD_XDICTIONARY
360
65D
102
}
330
1
100
AcDbSymbolTableRecord
100
AcDbBlockTableRecord
  2
*MODEL_SPACE
  0
BLOCK_RECORD
  5
1B
102
{ACAD_XDICTIONARY
360
65F
102
}
330
1
100
AcDbSymbolTableRecord
100
AcDbBlockTableRecord
  2
*PAPER_SPACE
  0
BLOCK_RECORD
  5
192
330
1
100
AcDbSymbolTableRecord
100
AcDbBlockTableRecord
  2
_DOT
  0
BLOCK_RECORD
  5
5CE
330
1
100
AcDbSymbolTableRecord
100
AcDbBlockTableRecord
  2
A4
  0
BLOCK_RECORD
  5
989
330
1
100
AcDbSymbolTableRecord
100
AcDbBlockTableRecord
  2
*D2
  0
BLOCK_RECORD
  5
996
330
1
100
AcDbSymbolTableRecord
100
AcDbBlockTableRecord
  2
*D3
  0
BLOCK_RECORD
  5
9BD
330
1
100
AcDbSymbolTableRecord
100
AcDbBlockTableRecord
  2
*D4
  0
BLOCK_RECORD
  5
9CE
330
1
100
AcDbSymbolTableRecord
100
AcDbBlockTableRecord
  2
*D5
  0
BLOCK_RECORD
  5
9F2
330
1
100
AcDbSymbolTableRecord
100
AcDbBlockTableRecord
  2
*D6
  0
BLOCK_RECORD
  5
A0B
330
1
100
AcDbSymbolTableRecord
100
AcDbBlockTableRecord
  2
*D7
  0
ENDTAB
  0
ENDSEC
  0
SECTION
  2
BLOCKS
  0
BLOCK
  5
20
330
1F
100
AcDbEntity
  8
0
100
AcDbBlockBegin
  2
*MODEL_SPACE
 70
     0
 10
0.0
 20
0.0
 30
0.0
  3
*MODEL_SPACE
  1

  0
ENDBLK
  5
21
330
1F
100
AcDbEntity
  8
0
100
AcDbBlockEnd
  0
BLOCK
  5
1C
330
1B
100
AcDbEntity
 67
     1
  8
0
100
AcDbBlockBegin
  2
*PAPER_SPACE
 70
     0
 10
0.0
 20
0.0
 30
0.0
  3
*PAPER_SPACE
  1

  0
ENDBLK
  5
1D
330
1B
100
AcDbEntity
 67
     1
  8
0
100
AcDbBlockEnd
  0
BLOCK
  5
195
330
192
100
AcDbEntity
  8
0
100
AcDbBlockBegin
  2
_DOT
 70
     0
 10
0.0
 20
0.0
 30
0.0
  3
_DOT
  1

  0
POLYLINE
  5
193
330
192
100
AcDbEntity
  8
0
 62
     0
100
AcDb2dPolyline
 66
     1
 10
0.0
 20
0.0
 30
0.0
 70
     1
 40
0.5
 41
0.5
  0
VERTEX
  5
B00
330
193
100
AcDbEntity
  8
0
 62
     0
100
AcDbVertex
100
AcDb2dVertex
 10
-0.25
 20
0.0
 30
0.0
 42
1.0
  0
VERTEX
  5
B01
330
193
100
AcDbEntity
  8
0
 62
     0
100
AcDbVertex
100
AcDb2dVertex
 10
0.25
 20
0.0
 30
0.0
 42
1.0
  0
SEQEND
  5
B02
330
193
100
AcDbEntity
  8
0
 62
     0
  0
LINE
  5
194
330
192
100
AcDbEntity
  8
0
 62
     0
100
AcDbLine
 10
-0.5
 20
0.0
 30
0.0
 11
-1.0
 21
0.0
 31
0.0
  0
ENDBLK
  5
196
330
192
100
AcDbEntity
  8
0
100
AcDbBlockEnd
  0
BLOCK
  5
5D1
330
5CE
100
AcDbEntity
  8
0
100
AcDbBlockBegin
  2
A4
 70
     0
 10
0.0
 20
0.0
 30
0.0
  3
A4
  1

  0
POLYLINE
  5
5CF
330
5CE
100
AcDbEntity
  8
HOJO
100
AcDb2dPolyline
 66
     1
 10
0.0
 20
0.0
 30
0.0
 70
     1
  0
VERTEX
  5
B03
330
5CF
100
AcDbEntity
  8
HOJO
100
AcDbVertex
100
AcDb2dVertex
 10
0.0
 20
0.0
 30
0.0
  0
VERTEX
  5
B04
330
5CF
100
AcDbEntity
  8
HOJO
100
AcDbVertex
100
AcDb2dVertex
 10
297.0
 20
0.0
 30
0.0
  0
VERTEX
  5
B05
330
5CF
100
AcDbEntity
  8
HOJO
100
AcDbVertex
100
AcDb2dVertex
 10
297.0
 20
210.0
 30
0.0
  0
VERTEX
  5
B06
330
5CF
100
AcDbEntity
  8
HOJO
100
AcDbVertex
100
AcDb2dVertex
 10
0.0
 20
210.0
 30
0.0
  0
SEQEND
  5
B07
330
5CF
100
AcDbEntity
  8
HOJO
  0
POLYLINE
  5
5D0
330
5CE
100
AcDbEntity
  8
HOJO
100
AcDb2dPolyline
 66
     1
 10
0.0
 20
0.0
 30
0.0
 70
     1
  0
VERTEX
  5
B08
330
5D0
100
AcDbEntity
  8
HOJO
100
AcDbVertex
100
AcDb2dVertex
 10
18.0
 20
13.0
 30
0.0
  0
VERTEX
  5
B09
330
5D0
100
AcDbEntity
  8
HOJO
100
AcDbVertex
100
AcDb2dVertex
 10
279.0
 20
13.0
 30
0.0
  0
VERTEX
  5
B0A
330
5D0
100
AcDbEntity
  8
HOJO
100
AcDbVertex
100
AcDb2dVertex
 10
279.0
 20
197.0
 30
0.0
  0
VERTEX
  5
B0B
330
5D0
100
AcDbEntity
  8
HOJO
100
AcDbVertex
100
AcDb2dVertex
 10
18.0
 20
197.0
 30
0.0
  0
SEQEND
  5
B0C
330
5D0
100
AcDbEntity
  8
HOJO
  0
ENDBLK
  5
5D2
330
5CE
100
AcDbEntity
  8
0
100
AcDbBlockEnd
  0
BLOCK
  5
993
330
989
100
AcDbEntity
  8
0
100
AcDbBlockBegin
  2
*D2
 70
     1
 10
0.0
 20
0.0
 30
0.0
  3
*D2
  1

  0
LINE
  5
98A
330
989
100
AcDbEntity
  8
SUNPO
 62
   144
100
AcDbLine
 10
2504.237461007455
 20
1977.713959296596
 30
0.0
 11
2504.237461007455
 21
1875.145466479144
 31
0.0
  0
LINE
  5
98B
330
989
100
AcDbEntity
  8
SUNPO
 62
   144
100
AcDbLine
 10
2344.237461007455
 20
1977.713959296596
 30
0.0
 11
2344.237461007455
 21
1875.145466479144
 31
0.0
  0
LINE
  5
98C
330
989
100
AcDbEntity
  8
SUNPO
 62
   144
100
AcDbLine
 10
2454.237461007455
 20
1885.145466479145
 30
0.0
 11
2394.237461007454
 21
1885.145466479145
 31
0.0
  0
SOLID
  5
98D
330
989
100
AcDbEntity
  8
SUNPO
 62
   144
100
AcDbTrace
 10
2454.237461007455
 20
1893.478799812477
 30
0.0
 11
2454.237461007455
 21
1876.812133145812
 31
0.0
 12
2504.237461007455
 22
1885.145466479145
 32
0.0
 13
2504.237461007455
 23
1885.145466479145
 33
0.0
  0
SOLID
  5
98E
330
989
100
AcDbEntity
  8
SUNPO
 62
   144
100
AcDbTrace
 10
2394.237461007454
 20
1893.478799812477
 30
0.0
 11
2394.237461007454
 21
1876.812133145812
 31
0.0
 12
2344.237461007455
 22
1885.145466479145
 32
0.0
 13
2344.237461007455
 23
1885.145466479145
 33
0.0
  0
MTEXT
  5
98F
330
989
100
AcDbEntity
  8
SUNPO
 62
     7
100
AcDbMText
 10
2424.237461007455
 20
1922.645466479145
 30
0.0
 40
50.0
 41
0.0
 71
     5
 72
     1
  1
\A2;160
  7
ADD
1001
ACAD
1000
MTEXTBEGIN
1070
    73
1070
     1
1070
    44
1040
1.0
1070
    74
1070
     0
1000
MTEXTEND
1000
MTEXTBEGIN
1070
    73
1070
     1
1070
    44
1040
1.0
1070
    74
1070
     0
1000
MTEXTEND
1000
MTEXTBEGIN
1070
    73
1070
     1
1070
    44
1040
1.0
1070
    74
1070
     0
1000
MTEXTEND
  0
POINT
  5
990
330
989
100
AcDbEntity
  8
DEFPOINTS
 62
     0
100
AcDbPoint
 10
2504.237461007455
 20
1997.713959296596
 30
0.0
  0
POINT
  5
991
330
989
100
AcDbEntity
  8
DEFPOINTS
 62
     0
100
AcDbPoint
 10
2344.237461007455
 20
1997.713959296596
 30
0.0
  0
POINT
  5
992
330
989
100
AcDbEntity
  8
DEFPOINTS
 62
     0
100
AcDbPoint
 10
2344.237461007455
 20
1885.145466479145
 30
0.0
  0
ENDBLK
  5
994
330
989
100
AcDbEntity
  8
0
100
AcDbBlockEnd
  0
BLOCK
  5
9A2
330
996
100
AcDbEntity
  8
0
100
AcDbBlockBegin
  2
*D3
 70
     1
 10
0.0
 20
0.0
 30
0.0
  3
*D3
  1

  0
LINE
  5
997
330
996
100
AcDbEntity
  8
SUNPO
 62
   144
100
AcDbLine
 10
2354.237461007455
 20
2070.333156186307
 30
0.0
 11
2354.237461007455
 21
2120.736688820267
 31
0.0
  0
LINE
  5
998
330
996
100
AcDbEntity
  8
SUNPO
 62
   144
100
AcDbLine
 10
2494.237461007454
 20
2070.333156186307
 30
0.0
 11
2494.237461007454
 21
2120.736688820267
 31
0.0
  0
LINE
  5
999
330
996
100
AcDbEntity
  8
SUNPO
 62
   144
100
AcDbLine
 10
2304.237461007454
 20
2110.736688820267
 30
0.0
 11
2254.237461007455
 21
2110.736688820267
 31
0.0
  0
LINE
  5
99A
330
996
100
AcDbEntity
  8
SUNPO
 62
   144
100
AcDbLine
 10
2544.237461007455
 20
2110.736688820267
 30
0.0
 11
2594.237461007455
 21
2110.736688820267
 31
0.0
  0
LINE
  5
99B
330
996
100
AcDbEntity
  8
SUNPO
 62
   144
100
AcDbLine
 10
2354.237461007455
 20
2110.736688820267
 30
0.0
 11
2494.237461007454
 21
2110.736688820267
 31
0.0
  0
SOLID
  5
99C
330
996
100
AcDbEntity
  8
SUNPO
 62
   144
100
AcDbTrace
 10
2304.237461007454
 20
2119.0700221536
 30
0.0
 11
2304.237461007454
 21
2102.403355486933
 31
0.0
 12
2354.237461007455
 22
2110.736688820267
 32
0.0
 13
2354.237461007455
 23
2110.736688820267
 33
0.0
  0
SOLID
  5
99D
330
996
100
AcDbEntity
  8
SUNPO
 62
   144
100
AcDbTrace
 10
2544.237461007455
 20
2119.0700221536
 30
0.0
 11
2544.237461007455
 21
2102.403355486933
 31
0.0
 12
2494.237461007454
 22
2110.736688820267
 32
0.0
 13
2494.237461007454
 23
2110.736688820267
 33
0.0
  0
MTEXT
  5
99E
330
996
100
AcDbEntity
  8
SUNPO
 62
     7
100
AcDbMText
 10
2424.237461007455
 20
2148.236688820265
 30
0.0
 40
50.0
 41
0.0
 71
     5
 72
     1
  1
\A2;140
  7
ADD
1001
ACAD
1000
MTEXTBEGIN
1070
    73
1070
     1
1070
    44
1040
1.0
1070
    74
1070
     0
1000
MTEXTEND
1000
MTEXTBEGIN
1070
    73
1070
     1
1070
    44
1040
1.0
1070
    74
1070
     0
1000
MTEXTEND
1000
MTEXTBEGIN
1070
    73
1070
     1
1070
    44
1040
1.0
1070
    74
1070
     0
1000
MTEXTEND
  0
POINT
  5
99F
330
996
100
AcDbEntity
  8
DEFPOINTS
 62
     0
100
AcDbPoint
 10
2354.237461007455
 20
2050.333156186308
 30
0.0
  0
POINT
  5
9A0
330
996
100
AcDbEntity
  8
DEFPOINTS
 62
     0
100
AcDbPoint
 10
2494.237461007454
 20
2050.333156186308
 30
0.0
  0
POINT
  5
9A1
330
996
100
AcDbEntity
  8
DEFPOINTS
 62
     0
100
AcDbPoint
 10
2494.237461007454
 20
2110.736688820267
 30
0.0
  0
ENDBLK
  5
9A3
330
996
100
AcDbEntity
  8
0
100
AcDbBlockEnd
  0
BLOCK
  5
9C9
330
9BD
100
AcDbEntity
  8
0
100
AcDbBlockBegin
  2
*D4
 70
     1
 10
0.0
 20
0.0
 30
0.0
  3
*D4
  1

  0
LINE
  5
A17
330
9BD
100
AcDbEntity
  8
SUNPO
 62
   144
100
AcDbLine
 10
2404.237461007455
 20
2032.713959296596
 30
0.0
 11
2247.15859699831
 21
2032.713959296596
 31
0.0
  0
LINE
  5
A18
330
9BD
100
AcDbEntity
  8
SUNPO
 62
   144
100
AcDbLine
 10
2404.237461007455
 20
1997.713959296596
 30
0.0
 11
2247.15859699831
 21
1997.713959296596
 31
0.0
  0
LINE
  5
A19
330
9BD
100
AcDbEntity
  8
SUNPO
 62
   144
100
AcDbLine
 10
2257.158596998309
 20
2082.713959296595
 30
0.0
 11
2257.158596998309
 21
2132.713959296596
 31
0.0
  0
LINE
  5
A1A
330
9BD
100
AcDbEntity
  8
SUNPO
 62
   144
100
AcDbLine
 10
2257.158596998309
 20
1947.713959296596
 30
0.0
 11
2257.158596998309
 21
1897.713959296596
 31
0.0
  0
MTEXT
  5
A1B
330
9BD
100
AcDbEntity
  8
SUNPO
 62
     7
100
AcDbMText
 10
2217.56812585958
 20
1909.931271618332
 30
0.0
 40
50.0
 41
0.0
 71
     5
 72
     1
  1
\A2;35
  7
ADD
 11
0.0000000000000001
 21
1.0
 31
0.0
1001
ACAD
1000
MTEXTBEGIN
1070
    73
1070
     1
1070
    44
1040
1.0
1070
    74
1070
     0
1000
MTEXTEND
1000
MTEXTBEGIN
1070
    73
1070
     1
1070
    44
1040
1.0
1070
    74
1070
     0
1000
MTEXTEND
1000
MTEXTBEGIN
1070
    73
1070
     1
1070
    44
1040
1.0
1070
    74
1070
     0
1000
MTEXTEND
  0
LINE
  5
A1C
330
9BD
100
AcDbEntity
  8
SUNPO
 62
   144
100
AcDbLine
 10
2257.158596998309
 20
2032.713959296596
 30
0.0
 11
2257.158596998309
 21
1997.713959296596
 31
0.0
  0
SOLID
  5
A1D
330
9BD
100
AcDbEntity
  8
SUNPO
 62
   144
100
AcDbTrace
 10
2248.825263664975
 20
2082.713959296595
 30
0.0
 11
2265.491930331643
 21
2082.713959296595
 31
0.0
 12
2257.158596998309
 22
2032.713959296596
 32
0.0
 13
2257.158596998309
 23
2032.713959296596
 33
0.0
  0
SOLID
  5
A1E
330
9BD
100
AcDbEntity
  8
SUNPO
 62
   144
100
AcDbTrace
 10
2248.825263664975
 20
1947.713959296596
 30
0.0
 11
2265.491930331643
 21
1947.713959296596
 31
0.0
 12
2257.158596998309
 22
1997.713959296596
 32
0.0
 13
2257.158596998309
 23
1997.713959296596
 33
0.0
  0
POINT
  5
A1F
330
9BD
100
AcDbEntity
  8
DEFPOINTS
 62
     0
100
AcDbPoint
 10
2424.237461007455
 20
2032.713959296596
 30
0.0
  0
POINT
  5
A20
330
9BD
100
AcDbEntity
  8
DEFPOINTS
 62
     0
100
AcDbPoint
 10
2424.237461007455
 20
1997.713959296596
 30
0.0
  0
POINT
  5
A21
330
9BD
100
AcDbEntity
  8
DEFPOINTS
 62
     0
100
AcDbPoint
 10
2257.158596998309
 20
1997.713959296596
 30
0.0
  0
ENDBLK
  5
9CA
330
9BD
100
AcDbEntity
  8
0
100
AcDbBlockEnd
  0
BLOCK
  5
9D8
330
9CE
100
AcDbEntity
  8
0
100
AcDbBlockBegin
  2
*D5
 70
     1
 10
0.0
 20
0.0
 30
0.0
  3
*D5
  1

  0
LINE
  5
9CF
330
9CE
100
AcDbEntity
  8
SUNPO
 62
   144
100
AcDbLine
 10
3545.437846802411
 20
1977.713959296596
 30
0.0
 11
3545.437846802411
 21
1890.361752864262
 31
0.0
  0
LINE
  5
9D0
330
9CE
100
AcDbEntity
  8
SUNPO
 62
   144
100
AcDbLine
 10
4145.437846802411
 20
1977.713959296596
 30
0.0
 11
4145.437846802411
 21
1890.361752864262
 31
0.0
  0
LINE
  5
9D1
330
9CE
100
AcDbEntity
  8
SUNPO
 62
   144
100
AcDbLine
 10
3595.437846802411
 20
1900.361752864262
 30
0.0
 11
4095.43784680241
 21
1900.361752864262
 31
0.0
  0
SOLID
  5
9D2
330
9CE
100
AcDbEntity
  8
SUNPO
 62
   144
100
AcDbTrace
 10
3595.437846802411
 20
1908.695086197596
 30
0.0
 11
3595.437846802411
 21
1892.028419530928
 31
0.0
 12
3545.437846802411
 22
1900.361752864262
 32
0.0
 13
3545.437846802411
 23
1900.361752864262
 33
0.0
  0
SOLID
  5
9D3
330
9CE
100
AcDbEntity
  8
SUNPO
 62
   144
100
AcDbTrace
 10
4095.43784680241
 20
1908.695086197596
 30
0.0
 11
4095.43784680241
 21
1892.028419530928
 31
0.0
 12
4145.437846802411
 22
1900.361752864262
 32
0.0
 13
4145.437846802411
 23
1900.361752864262
 33
0.0
  0
MTEXT
  5
9D4
330
9CE
100
AcDbEntity
  8
SUNPO
 62
     7
100
AcDbMText
 10
3845.437846802411
 20
1937.861752864262
 30
0.0
 40
50.0
 41
0.0
 71
     5
 72
     1
  1
\A2;600
  7
ADD
1001
ACAD
1000
MTEXTBEGIN
1070
    73
1070
     1
1070
    44
1040
1.0
1070
    74
1070
     0
1000
MTEXTEND
1000
MTEXTBEGIN
1070
    73
1070
     1
1070
    44
1040
1.0
1070
    74
1070
     0
1000
MTEXTEND
1000
MTEXTBEGIN
1070
    73
1070
     1
1070
    44
1040
1.0
1070
    74
1070
     0
1000
MTEXTEND
  0
POINT
  5
9D5
330
9CE
100
AcDbEntity
  8
DEFPOINTS
 62
     0
100
AcDbPoint
 10
3545.437846802411
 20
1997.713959296596
 30
0.0
  0
POINT
  5
9D6
330
9CE
100
AcDbEntity
  8
DEFPOINTS
 62
     0
100
AcDbPoint
 10
4145.437846802411
 20
1997.713959296596
 30
0.0
  0
POINT
  5
9D7
330
9CE
100
AcDbEntity
  8
DEFPOINTS
 62
     0
100
AcDbPoint
 10
4145.437846802411
 20
1900.361752864262
 30
0.0
  0
ENDBLK
  5
9D9
330
9CE
100
AcDbEntity
  8
0
100
AcDbBlockEnd
  0
BLOCK
  5
9FE
330
9F2
100
AcDbEntity
  8
0
100
AcDbBlockBegin
  2
*D6
 70
     1
 10
0.0
 20
0.0
 30
0.0
  3
*D6
  1

  0
LINE
  5
9F3
330
9F2
100
AcDbEntity
  8
SUNPO
 62
   144
100
AcDbLine
 10
2618.339599910119
 20
1997.713959296596
 30
0.0
 11
2657.190489499851
 21
1997.713959296596
 31
0.0
  0
LINE
  5
9F4
330
9F2
100
AcDbEntity
  8
SUNPO
 62
   144
100
AcDbLine
 10
2543.379596631186
 20
2036.856094920327
 30
0.0
 11
2612.391584657448
 21
2105.868082946588
 31
0.0
  0
ARC
  5
9F5
330
9F2
100
AcDbEntity
  8
SUNPO
 62
   144
100
AcDbCircle
 10
2504.237461007454
 20
1997.713959296596
 30
0.0
 40
142.9530284923973
100
AcDbArc
 50
20.14365465354998
 51
24.85634534644953
  0
SOLID
  5
9F6
330
9F2
100
AcDbEntity
  8
SUNPO
 62
   144
100
AcDbTrace
 10
2646.651269304137
 20
2048.400778944556
 30
0.0
 11
2630.24144780727
 21
2045.486068629841
 31
0.0
 12
2647.190489499851
 22
1997.713959296596
 32
0.0
 13
2647.190489499851
 23
1997.713959296596
 33
0.0
  0
SOLID
  5
9F7
330
9F2
100
AcDbEntity
  8
SUNPO
 62
   144
100
AcDbTrace
 10
2627.115716991268
 20
2053.032250358162
 30
0.0
 11
2640.780224478493
 21
2062.574734987927
 31
0.0
 12
2605.320516845583
 22
2098.797015134723
 32
0.0
 13
2605.320516845583
 23
2098.797015134723
 33
0.0
  0
MTEXT
  5
9F8
330
9F2
100
AcDbEntity
  8
SUNPO
 62
     7
100
AcDbMText
 10
2670.954320611256
 20
2066.770343620742
 30
0.0
 40
50.0
 41
0.0
 71
     5
 72
     1
  1
\A2;45°
  7
ADD
 11
0.3826834323650898
 21
-0.9238795325112867
 31
0.0
1001
ACAD
1000
MTEXTBEGIN
1070
    73
1070
     1
1070
    44
1040
1.0
1070
    74
1070
     0
1000
MTEXTEND
1000
MTEXTBEGIN
1070
    73
1070
     1
1070
    44
1040
1.0
1070
    74
1070
     0
1000
MTEXTEND
1000
MTEXTBEGIN
1070
    73
1070
     1
1070
    44
1040
1.0
1070
    74
1070
     0
1000
MTEXTEND
  0
POINT
  5
9F9
330
9F2
100
AcDbEntity
  8
DEFPOINTS
 62
     0
100
AcDbPoint
 10
2642.319483174498
 20
2034.712925625512
 30
0.0
  0
POINT
  5
9FA
330
9F2
100
AcDbEntity
  8
DEFPOINTS
 62
     0
100
AcDbPoint
 10
2504.237461007454
 20
1997.713959296596
 30
0.0
  0
POINT
  5
9FB
330
9F2
100
AcDbEntity
  8
DEFPOINTS
 62
     0
100
AcDbPoint
 10
2504.237461007454
 20
1997.713959296596
 30
0.0
  0
POINT
  5
9FC
330
9F2
100
AcDbEntity
  8
DEFPOINTS
 62
     0
100
AcDbPoint
 10
2529.237461007454
 20
2022.713959296596
 30
0.0
  0
POINT
  5
9FD
330
9F2
100
AcDbEntity
  8
DEFPOINTS
 62
     0
100
AcDbPoint
 10
2598.339599910119
 20
1997.713959296596
 30
0.0
  0
ENDBLK
  5
9FF
330
9F2
100
AcDbEntity
  8
0
100
AcDbBlockEnd
  0
BLOCK
  5
A15
330
A0B
100
AcDbEntity
  8
0
100
AcDbBlockBegin
  2
*D7
 70
     1
 10
0.0
 20
0.0
 30
0.0
  3
*D7
  1

  0
LINE
  5
A0C
330
A0B
100
AcDbEntity
  8
SUNPO
 62
   144
100
AcDbLine
 10
2363.254123047061
 20
2032.713959296596
 30
0.0
 11
2244.552556319518
 21
2032.713959296596
 31
0.0
  0
LINE
  5
A0D
330
A0B
100
AcDbEntity
  8
SUNPO
 62
   144
100
AcDbLine
 10
2329.237461007453
 20
2182.713959296596
 30
0.0
 11
2244.552556319518
 21
2182.713959296596
 31
0.0
  0
LINE
  5
A0E
330
A0B
100
AcDbEntity
  8
SUNPO
 62
   144
100
AcDbLine
 10
2254.552556319518
 20
2082.713959296595
 30
0.0
 11
2254.552556319518
 21
2132.713959296597
 31
0.0
  0
SOLID
  5
A0F
330
A0B
100
AcDbEntity
  8
SUNPO
 62
   144
100
AcDbTrace
 10
2246.219222986185
 20
2082.713959296595
 30
0.0
 11
2262.885889652852
 21
2082.713959296595
 31
0.0
 12
2254.552556319518
 22
2032.713959296596
 32
0.0
 13
2254.552556319518
 23
2032.713959296596
 33
0.0
  0
SOLID
  5
A10
330
A0B
100
AcDbEntity
  8
SUNPO
 62
   144
100
AcDbTrace
 10
2246.219222986185
 20
2132.713959296597
 30
0.0
 11
2262.885889652852
 21
2132.713959296597
 31
0.0
 12
2254.552556319518
 22
2182.713959296596
 32
0.0
 13
2254.552556319518
 23
2182.713959296596
 33
0.0
  0
MTEXT
  5
A11
330
A0B
100
AcDbEntity
  8
SUNPO
 62
     7
100
AcDbMText
 10
2217.052556319518
 20
2107.713959296597
 30
0.0
 40
50.0
 41
0.0
 71
     5
 72
     1
  1
\A2;150
  7
ADD
 11
0.0000000000000001
 21
1.0
 31
0.0
1001
ACAD
1000
MTEXTBEGIN
1070
    73
1070
     1
1070
    44
1040
1.0
1070
    74
1070
     0
1000
MTEXTEND
1000
MTEXTBEGIN
1070
    73
1070
     1
1070
    44
1040
1.0
1070
    74
1070
     0
1000
MTEXTEND
1000
MTEXTBEGIN
1070
    73
1070
     1
1070
    44
1040
1.0
1070
    74
1070
     0
1000
MTEXTEND
  0
POINT
  5
A12
330
A0B
100
AcDbEntity
  8
DEFPOINTS
 62
     0
100
AcDbPoint
 10
2383.254123047062
 20
2032.713959296596
 30
0.0
  0
POINT
  5
A13
330
A0B
100
AcDbEntity
  8
DEFPOINTS
 62
     0
100
AcDbPoint
 10
2349.237461007454
 20
2182.713959296596
 30
0.0
  0
POINT
  5
A14
330
A0B
100
AcDbEntity
  8
DEFPOINTS
 62
     0
100
AcDbPoint
 10
2254.552556319518
 20
2182.713959296596
 30
0.0
  0
ENDBLK
  5
A16
330
A0B
100
AcDbEntity
  8
0
100
AcDbBlockEnd
  0
ENDSEC
  0
SECTION
  2
ENTITIES
  0
LINE
  5
60A
330
1F
100
AcDbEntity
  8
HOJO
100
AcDbLine
 10
360.0
 20
260.0
 30
0.0
 11
5580.0
 21
260.0
 31
0.0
  0
LINE
  5
60B
330
1F
100
AcDbEntity
  8
HOJO
100
AcDbLine
 10
360.0
 20
560.0
 30
0.0
 11
5580.0
 21
560.0
 31
0.0
  0
LINE
  5
60C
330
1F
100
AcDbEntity
  8
HOJO
100
AcDbLine
 10
360.0
 20
260.0
 30
0.0
 11
360.0
 21
560.0
 31
0.0
  0
LINE
  5
60D
330
1F
100
AcDbEntity
  8
HOJO
100
AcDbLine
 10
2360.0
 20
260.0
 30
0.0
 11
2360.0
 21
560.0
 31
0.0
  0
LINE
  5
60F
330
1F
100
AcDbEntity
  8
HOJO
100
AcDbLine
 10
3160.0
 20
260.0
 30
0.0
 11
3160.0
 21
560.0
 31
0.0
  0
LINE
  5
610
330
1F
100
AcDbEntity
  8
HOJO
100
AcDbLine
 10
3660.0
 20
260.0
 30
0.0
 11
3660.0
 21
560.0
 31
0.0
  0
LINE
  5
929
330
1F
100
AcDbEntity
  8
MOJI
100
AcDbLine
 10
2344.237461007455
 20
1997.713959296596
 30
0.0
 11
2504.237461007455
 21
1997.713959296596
 31
0.0
  0
LINE
  5
92A
330
1F
100
AcDbEntity
  8
MOJI
100
AcDbLine
 10
2319.237461007455
 20
2022.713959296596
 30
0.0
 11
2319.237461007455
 21
2182.713959296596
 31
0.0
  0
LINE
  5
92B
330
1F
100
AcDbEntity
  8
MOJI
100
AcDbLine
 10
2319.237461007455
 20
2182.713959296596
 30
0.0
 11
2349.237461007454
 21
2182.713959296596
 31
0.0
  0
LINE
  5
92D
330
1F
100
AcDbEntity
  8
MOJI
100
AcDbLine
 10
2529.237461007455
 20
2182.713959296596
 30
0.0
 11
2529.237461007455
 21
2022.713959296596
 31
0.0
  0
LINE
  5
933
330
1F
100
AcDbEntity
  8
DEFPOINTS
100
AcDbLine
 10
2504.237461007455
 20
1997.713959296596
 30
0.0
 11
2504.237461007455
 21
2012.841120168619
 31
0.0
  0
LINE
  5
936
330
1F
100
AcDbEntity
  8
MOJI
100
AcDbLine
 10
2383.254123047062
 20
2032.713959296597
 30
0.0
 11
2465.220798967846
 21
2032.713959296596
 31
0.0
  0
LINE
  5
937
330
1F
100
AcDbEntity
  8
3C1
100
AcDbLine
 10
2349.237461007454
 20
2182.713959296596
 30
0.0
 11
2353.270775837687
 21
2061.714514389616
 31
0.0
  0
LINE
  5
938
330
1F
100
AcDbEntity
  8
3C1
100
AcDbLine
 10
2499.237461007455
 20
2182.713959296596
 30
0.0
 11
2495.204146177222
 21
2061.714514389616
 31
0.0
  0
LINE
  5
93A
330
1F
100
AcDbEntity
  8
MOJI
100
AcDbLine
 10
2344.237461007455
 20
1997.713959296596
 30
0.0
 11
2319.237461007455
 21
2022.713959296596
 31
0.0
  0
LINE
  5
93B
330
1F
100
AcDbEntity
  8
MOJI
100
AcDbLine
 10
2504.237461007455
 20
1997.713959296596
 30
0.0
 11
2529.237461007455
 21
2022.713959296596
 31
0.0
  0
ARC
  5
93C
330
1F
100
AcDbEntity
  8
3C1
100
AcDbCircle
 10
2383.254123047062
 20
2062.713959296595
 30
0.0
 40
30.0
100
AcDbArc
 50
181.9091524329963
 51
270.0
  0
ARC
  5
93D
330
1F
100
AcDbEntity
  8
3C1
100
AcDbCircle
 10
2465.220798967846
 20
2062.713959296595
 30
0.0
 40
30.0
100
AcDbArc
 50
270.0
 51
358.0908475670037
  0
LINE
  5
93E
330
1F
100
AcDbEntity
  8
MOJI
100
AcDbLine
 10
2499.237461007455
 20
2182.713959296596
 30
0.0
 11
2529.237461007455
 21
2182.713959296596
 31
0.0
  0
LINE
  5
943
330
1F
100
AcDbEntity
  8
3C1
100
AcDbLine
 10
3545.437846802411
 20
1997.713959296596
 30
0.0
 11
3545.437846802411
 21
2182.713959296596
 31
0.0
  0
LINE
  5
944
330
1F
100
AcDbEntity
  8
3C1
100
AcDbLine
 10
3545.437846802411
 20
1997.713959296596
 30
0.0
 11
4145.437846802411
 21
1997.713959296596
 31
0.0
  0
LINE
  5
945
330
1F
100
AcDbEntity
  8
3C1
100
AcDbLine
 10
3545.437846802411
 20
2182.713959296596
 30
0.0
 11
4145.437846802411
 21
2182.713959296596
 31
0.0
  0
LINE
  5
946
330
1F
100
AcDbEntity
  8
3C1
100
AcDbLine
 10
4145.437846802411
 20
1997.713959296596
 30
0.0
 11
4145.437846802411
 21
2182.713959296596
 31
0.0
  0
LINE
  5
947
330
1F
100
AcDbEntity
  8
3C1
100
AcDbLine
 10
3545.437846802411
 20
2032.713959296596
 30
0.0
 11
4145.437846802411
 21
2032.713959296596
 31
0.0
  0
LINE
  5
97A
330
1F
100
AcDbEntity
  8
SUNPO
 62
   144
100
AcDbLine
 10
2499.237461007455
 20
2202.713959296596
 30
0.0
 11
2499.237461007455
 21
2235.419771009758
 31
0.0
  0
LINE
  5
97B
330
1F
100
AcDbEntity
  8
SUNPO
 62
   144
100
AcDbLine
 10
2349.237461007454
 20
2202.713959296582
 30
0.0
 11
2349.237461007454
 21
2235.419771009758
 31
0.0
  0
LINE
  5
97C
330
1F
100
AcDbEntity
  8
SUNPO
 62
   144
100
AcDbLine
 10
2449.237461007454
 20
2225.419771009759
 30
0.0
 11
2399.237461007455
 21
2225.419771009759
 31
0.0
  0
SOLID
  5
97D
330
1F
100
AcDbEntity
  8
SUNPO
 62
   144
100
AcDbTrace
 10
2449.237461007454
 20
2233.753104343093
 30
0.0
 11
2449.237461007454
 21
2217.086437676426
 31
0.0
 12
2499.237461007455
 22
2225.419771009759
 32
0.0
 13
2499.237461007455
 23
2225.419771009759
 33
0.0
  0
SOLID
  5
97E
330
1F
100
AcDbEntity
  8
SUNPO
 62
   144
100
AcDbTrace
 10
2399.237461007455
 20
2233.753104343093
 30
0.0
 11
2399.237461007455
 21
2217.086437676426
 31
0.0
 12
2349.237461007454
 22
2225.419771009759
 32
0.0
 13
2349.237461007454
 23
2225.419771009759
 33
0.0
  0
LINE
  5
980
330
1F
100
AcDbEntity
  8
SUNPO
 62
   144
100
AcDbLine
 10
2529.237461007455
 20
2202.713959296596
 30
0.0
 11
2529.237461007455
 21
2235.419771009758
 31
0.0
  0
LINE
  5
981
330
1F
100
AcDbEntity
  8
SUNPO
 62
   144
100
AcDbLine
 10
2499.237461007455
 20
2202.713959296596
 30
0.0
 11
2499.237461007455
 21
2235.419771009758
 31
0.0
  0
LINE
  5
982
330
1F
100
AcDbEntity
  8
SUNPO
 62
   144
100
AcDbLine
 10
2449.237461007454
 20
2225.419771009759
 30
0.0
 11
2399.237461007455
 21
2225.419771009759
 31
0.0
  0
LINE
  5
983
330
1F
100
AcDbEntity
  8
SUNPO
 62
   144
100
AcDbLine
 10
2579.237461007455
 20
2225.419771009759
 30
0.0
 11
2629.237461007455
 21
2225.419771009759
 31
0.0
  0
LINE
  5
984
330
1F
100
AcDbEntity
  8
SUNPO
 62
   144
100
AcDbLine
 10
2499.237461007455
 20
2225.419771009759
 30
0.0
 11
2529.237461007455
 21
2225.419771009759
 31
0.0
  0
SOLID
  5
985
330
1F
100
AcDbEntity
  8
SUNPO
 62
   144
100
AcDbTrace
 10
2449.237461007454
 20
2233.753104343093
 30
0.0
 11
2449.237461007454
 21
2217.086437676426
 31
0.0
 12
2499.237461007455
 22
2225.419771009759
 32
0.0
 13
2499.237461007455
 23
2225.419771009759
 33
0.0
  0
SOLID
  5
986
330
1F
100
AcDbEntity
  8
SUNPO
 62
   144
100
AcDbTrace
 10
2579.237461007455
 20
2233.753104343093
 30
0.0
 11
2579.237461007455
 21
2217.086437676426
 31
0.0
 12
2529.237461007455
 22
2225.419771009759
 32
0.0
 13
2529.237461007455
 23
2225.419771009759
 33
0.0
  0
LINE
  5
9B3
330
1F
100
AcDbEntity
  8
SUNPO
 62
   144
100
AcDbLine
 10
2494.237461007454
 20
2070.333156186307
 30
0.0
 11
2494.237461007454
 21
2120.736688820267
 31
0.0
  0
LINE
  5
9B4
330
1F
100
AcDbEntity
  8
SUNPO
 62
   144
100
AcDbLine
 10
2529.237461007455
 20
2042.713959296596
 30
0.0
 11
2529.237461007455
 21
2120.736688820267
 31
0.0
  0
LINE
  5
9B5
330
1F
100
AcDbEntity
  8
SUNPO
 62
   144
100
AcDbLine
 10
2444.237461007455
 20
2110.736688820267
 30
0.0
 11
2394.237461007454
 21
2110.736688820267
 31
0.0
  0
LINE
  5
9B6
330
1F
100
AcDbEntity
  8
SUNPO
 62
   144
100
AcDbLine
 10
2579.237461007455
 20
2110.736688820267
 30
0.0
 11
2629.237461007455
 21
2110.736688820267
 31
0.0
  0
LINE
  5
9B7
330
1F
100
AcDbEntity
  8
SUNPO
 62
   144
100
AcDbLine
 10
2494.237461007454
 20
2110.736688820267
 30
0.0
 11
2529.237461007455
 21
2110.736688820267
 31
0.0
  0
SOLID
  5
9B8
330
1F
100
AcDbEntity
  8
SUNPO
 62
   144
100
AcDbTrace
 10
2444.237461007455
 20
2119.0700221536
 30
0.0
 11
2444.237461007455
 21
2102.403355486933
 31
0.0
 12
2494.237461007454
 22
2110.736688820267
 32
0.0
 13
2494.237461007454
 23
2110.736688820267
 33
0.0
  0
SOLID
  5
9B9
330
1F
100
AcDbEntity
  8
SUNPO
 62
   144
100
AcDbTrace
 10
2579.237461007455
 20
2119.0700221536
 30
0.0
 11
2579.237461007455
 21
2102.403355486933
 31
0.0
 12
2529.237461007455
 22
2110.736688820267
 32
0.0
 13
2529.237461007455
 23
2110.736688820267
 33
0.0
  0
TEXT
  5
9BB
330
1F
100
AcDbEntity
  8
SUNPO
 62
     7
100
AcDbText
 10
2544.237461007455
 20
2119.0700221536
 30
0.0
 40
50.0
  1
35
  7
ADD
100
AcDbText
  0
LINE
  5
9E2
330
1F
100
AcDbEntity
  8
SUNPO
100
AcDbLine
 10
2504.237461007455
 20
1997.713959296596
 30
0.0
 11
2598.339599910119
 21
1997.713959296596
 31
0.0
  0
TEXT
  5
A08
330
1F
100
AcDbEntity
  8
SUNPO
 62
     7
100
AcDbText
 10
2582.682871551971
 20
1874.849824955665
 30
0.0
 40
50.0
  1
30
  7
ADD
100
AcDbText
  0
LINE
  5
A9C
330
1F
100
AcDbEntity
  8
SUNPO
 62
   144
100
AcDbLine
 10
2363.254123047061
 20
2032.713959296596
 30
0.0
 11
2244.552556319518
 21
2032.713959296596
 31
0.0
  0
LINE
  5
A9D
330
1F
100
AcDbEntity
  8
SUNPO
 62
   144
100
AcDbLine
 10
2329.237461007453
 20
2182.713959296596
 30
0.0
 11
2244.552556319518
 21
2182.713959296596
 31
0.0
  0
LINE
  5
A9E
330
1F
100
AcDbEntity
  8
SUNPO
 62
   144
100
AcDbLine
 10
2254.552556319518
 20
2082.713959296595
 30
0.0
 11
2254.552556319518
 21
2132.713959296597
 31
0.0
  0
SOLID
  5
A9F
330
1F
100
AcDbEntity
  8
SUNPO
 62
   144
100
AcDbTrace
 10
2246.219222986185
 20
2082.713959296595
 30
0.0
 11
2262.885889652852
 21
2082.713959296595
 31
0.0
 12
2254.552556319518
 22
2032.713959296596
 32
0.0
 13
2254.552556319518
 23
2032.713959296596
 33
0.0
  0
SOLID
  5
AA0
330
1F
100
AcDbEntity
  8
SUNPO
 62
   144
100
AcDbTrace
 10
2246.219222986185
 20
2132.713959296597
 30
0.0
 11
2262.885889652852
 21
2132.713959296597
 31
0.0
 12
2254.552556319518
 22
2182.713959296596
 32
0.0
 13
2254.552556319518
 23
2182.713959296596
 33
0.0
  0
SOLID
  5
AA2
330
1F
100
AcDbEntity
  8
SUNPO
100
AcDbTrace
 10
2506.201626179526
 20
1994.626427624561
 30
0.0
 11
2486.077652191556
 21
2041.150293708281
 31
0.0
 12
2520.202665234356
 22
2003.667925463023
 32
0.0
 13
2520.202665234356
 23
2003.667925463023
 33
0.0
1001
ACAD
1000
DSTYLE
1002
{
1070
     5
1000

1070
    40
1040
20.0
1070
    77
1070
     0
1070
   147
1040
0.625
1002
}
  0
LINE
  5
AA4
330
1F
100
AcDbEntity
  8
SUNPO
 62
   144
100
AcDbLine
 10
2618.339599910119
 20
1997.713959296596
 30
0.0
 11
2657.190489499851
 21
1997.713959296596
 31
0.0
  0
LINE
  5
AA5
330
1F
100
AcDbEntity
  8
SUNPO
 62
   144
100
AcDbLine
 10
2543.379596631186
 20
2036.856094920327
 30
0.0
 11
2612.391584657448
 21
2105.868082946588
 31
0.0
  0
ARC
  5
AA6
330
1F
100
AcDbEntity
  8
SUNPO
 62
   144
100
AcDbCircle
 10
2504.237461007454
 20
1997.713959296596
 30
0.0
 40
142.9530284923973
100
AcDbArc
 50
20.14365465354998
 51
24.85634534644953
  0
SOLID
  5
AA7
330
1F
100
AcDbEntity
  8
SUNPO
 62
   144
100
AcDbTrace
 10
2646.651269304137
 20
2048.400778944556
 30
0.0
 11
2630.24144780727
 21
2045.486068629841
 31
0.0
 12
2647.190489499851
 22
1997.713959296596
 32
0.0
 13
2647.190489499851
 23
1997.713959296596
 33
0.0
  0
SOLID
  5
AA8
330
1F
100
AcDbEntity
  8
SUNPO
 62
   144
100
AcDbTrace
 10
2627.115716991268
 20
2053.032250358162
 30
0.0
 11
2640.780224478493
 21
2062.574734987927
 31
0.0
 12
2605.320516845583
 22
2098.797015134723
 32
0.0
 13
2605.320516845583
 23
2098.797015134723
 33
0.0
  0
LINE
  5
AAA
330
1F
100
AcDbEntity
  8
SUNPO
 62
   144
100
AcDbLine
 10
3545.437846802411
 20
1977.713959296596
 30
0.0
 11
3545.437846802411
 21
1890.361752864262
 31
0.0
  0
LINE
  5
AAB
330
1F
100
AcDbEntity
  8
SUNPO
 62
   144
100
AcDbLine
 10
4145.437846802411
 20
1977.713959296596
 30
0.0
 11
4145.437846802411
 21
1890.361752864262
 31
0.0
  0
LINE
  5
AAC
330
1F
100
AcDbEntity
  8
SUNPO
 62
   144
100
AcDbLine
 10
3595.437846802411
 20
1900.361752864262
 30
0.0
 11
4095.43784680241
 21
1900.361752864262
 31
0.0
  0
SOLID
  5
AAD
330
1F
100
AcDbEntity
  8
SUNPO
 62
   144
100
AcDbTrace
 10
3595.437846802411
 20
1908.695086197596
 30
0.0
 11
3595.437846802411
 21
1892.028419530928
 31
0.0
 12
3545.437846802411
 22
1900.361752864262
 32
0.0
 13
3545.437846802411
 23
1900.361752864262
 33
0.0
  0
SOLID
  5
AAE
330
1F
100
AcDbEntity
  8
SUNPO
 62
   144
100
AcDbTrace
 10
4095.43784680241
 20
1908.695086197596
 30
0.0
 11
4095.43784680241
 21
1892.028419530928
 31
0.0
 12
4145.437846802411
 22
1900.361752864262
 32
0.0
 13
4145.437846802411
 23
1900.361752864262
 33
0.0
  0
LINE
  5
AB0
330
1F
100
AcDbEntity
  8
SUNPO
 62
   144
100
AcDbLine
 10
2404.237461007455
 20
2032.713959296596
 30
0.0
 11
2247.15859699831
 21
2032.713959296596
 31
0.0
  0
LINE
  5
AB1
330
1F
100
AcDbEntity
  8
SUNPO
 62
   144
100
AcDbLine
 10
2404.237461007455
 20
1997.713959296596
 30
0.0
 11
2247.15859699831
 21
1997.713959296596
 31
0.0
  0
LINE
  5
AB2
330
1F
100
AcDbEntity
  8
SUNPO
 62
   144
100
AcDbLine
 10
2257.158596998309
 20
2082.713959296595
 30
0.0
 11
2257.158596998309
 21
2132.713959296596
 31
0.0
  0
LINE
  5
AB3
330
1F
100
AcDbEntity
  8
SUNPO
 62
   144
100
AcDbLine
 10
2257.158596998309
 20
1947.713959296596
 30
0.0
 11
2257.158596998309
 21
1897.713959296596
 31
0.0
  0
LINE
  5
AB5
330
1F
100
AcDbEntity
  8
SUNPO
 62
   144
100
AcDbLine
 10
2257.158596998309
 20
2032.713959296596
 30
0.0
 11
2257.158596998309
 21
1997.713959296596
 31
0.0
  0
SOLID
  5
AB6
330
1F
100
AcDbEntity
  8
SUNPO
 62
   144
100
AcDbTrace
 10
2248.825263664975
 20
2082.713959296595
 30
0.0
 11
2265.491930331643
 21
2082.713959296595
 31
0.0
 12
2257.158596998309
 22
2032.713959296596
 32
0.0
 13
2257.158596998309
 23
2032.713959296596
 33
0.0
  0
SOLID
  5
AB7
330
1F
100
AcDbEntity
  8
SUNPO
 62
   144
100
AcDbTrace
 10
2248.825263664975
 20
1947.713959296596
 30
0.0
 11
2265.491930331643
 21
1947.713959296596
 31
0.0
 12
2257.158596998309
 22
1997.713959296596
 32
0.0
 13
2257.158596998309
 23
1997.713959296596
 33
0.0
  0
LINE
  5
AB8
330
1F
100
AcDbEntity
  8
SUNPO
 62
   144
100
AcDbLine
 10
2354.237461007455
 20
2070.333156186307
 30
0.0
 11
2354.237461007455
 21
2120.736688820267
 31
0.0
  0
LINE
  5
AB9
330
1F
100
AcDbEntity
  8
SUNPO
 62
   144
100
AcDbLine
 10
2494.237461007454
 20
2070.333156186307
 30
0.0
 11
2494.237461007454
 21
2120.736688820267
 31
0.0
  0
LINE
  5
ABA
330
1F
100
AcDbEntity
  8
SUNPO
 62
   144
100
AcDbLine
 10
2304.237461007454
 20
2110.736688820267
 30
0.0
 11
2254.237461007455
 21
2110.736688820267
 31
0.0
  0
LINE
  5
ABB
330
1F
100
AcDbEntity
  8
SUNPO
 62
   144
100
AcDbLine
 10
2544.237461007455
 20
2110.736688820267
 30
0.0
 11
2594.237461007455
 21
2110.736688820267
 31
0.0
  0
LINE
  5
ABC
330
1F
100
AcDbEntity
  8
SUNPO
 62
   144
100
AcDbLine
 10
2354.237461007455
 20
2110.736688820267
 30
0.0
 11
2494.237461007454
 21
2110.736688820267
 31
0.0
  0
SOLID
  5
ABD
330
1F
100
AcDbEntity
  8
SUNPO
 62
   144
100
AcDbTrace
 10
2304.237461007454
 20
2119.0700221536
 30
0.0
 11
2304.237461007454
 21
2102.403355486933
 31
0.0
 12
2354.237461007455
 22
2110.736688820267
 32
0.0
 13
2354.237461007455
 23
2110.736688820267
 33
0.0
  0
SOLID
  5
ABE
330
1F
100
AcDbEntity
  8
SUNPO
 62
   144
100
AcDbTrace
 10
2544.237461007455
 20
2119.0700221536
 30
0.0
 11
2544.237461007455
 21
2102.403355486933
 31
0.0
 12
2494.237461007454
 22
2110.736688820267
 32
0.0
 13
2494.237461007454
 23
2110.736688820267
 33
0.0
  0
LINE
  5
AC0
330
1F
100
AcDbEntity
  8
SUNPO
 62
   144
100
AcDbLine
 10
2504.237461007455
 20
1977.713959296596
 30
0.0
 11
2504.237461007455
 21
1875.145466479144
 31
0.0
  0
LINE
  5
AC1
330
1F
100
AcDbEntity
  8
SUNPO
 62
   144
100
AcDbLine
 10
2344.237461007455
 20
1977.713959296596
 30
0.0
 11
2344.237461007455
 21
1875.145466479144
 31
0.0
  0
LINE
  5
AC2
330
1F
100
AcDbEntity
  8
SUNPO
 62
   144
100
AcDbLine
 10
2454.237461007455
 20
1885.145466479145
 30
0.0
 11
2394.237461007454
 21
1885.145466479145
 31
0.0
  0
SOLID
  5
AC3
330
1F
100
AcDbEntity
  8
SUNPO
 62
   144
100
AcDbTrace
 10
2454.237461007455
 20
1893.478799812477
 30
0.0
 11
2454.237461007455
 21
1876.812133145812
 31
0.0
 12
2504.237461007455
 22
1885.145466479145
 32
0.0
 13
2504.237461007455
 23
1885.145466479145
 33
0.0
  0
SOLID
  5
AC4
330
1F
100
AcDbEntity
  8
SUNPO
 62
   144
100
AcDbTrace
 10
2394.237461007454
 20
1893.478799812477
 30
0.0
 11
2394.237461007454
 21
1876.812133145812
 31
0.0
 12
2344.237461007455
 22
1885.145466479145
 32
0.0
 13
2344.237461007455
 23
1885.145466479145
 33
0.0
  0
TEXT
  5
AC6
330
1F
100
AcDbEntity
  8
SUNPO
 62
     7
100
AcDbText
 10
2538.883049628898
 20
2237.919771009758
 30
0.0
 40
50.0
  1
30
  7
ADD
100
AcDbText
1001
ACAD
1000
MTEXTBEGIN
1070
    73
1070
     1
1070
    44
1040
1.0
1070
    74
1070
     0
1000
MTEXTEND
  0
TEXT
  5
AC7
330
1F
100
AcDbEntity
  8
SUNPO
 62
     7
100
AcDbText
 10
2349.237461007454
 20
2237.919771009758
 30
0.0
 40
50.0
  1
150
  7
ADD
100
AcDbText
1001
ACAD
1000
MTEXTBEGIN
1070
    73
1070
     1
1070
    44
1040
1.0
1070
    74
1070
     0
1000
MTEXTEND
  0
TEXT
  5
AC8
330
1F
100
AcDbEntity
  8
SUNPO
100
AcDbText
 10
2461.211454852145
 20
339.4836178730511
 30
0.0
 40
100.0
  1
Ｕ_１５０
  7
ADD
100
AcDbText
1001
ACAD
1000
MTEXTBEGIN
1070
    73
1070
     1
1070
    44
1040
1.0
1070
    74
1070
     0
1000
MTEXTEND
  0
TEXT
  5
AC9
330
1F
100
AcDbEntity
  8
SUNPO
100
AcDbText
 10
609.3238094166336
 20
380.2782403583004
 30
0.0
 40
100.0
  1
道路用上ぶた式Ｕ形側溝
  7
ADD
100
AcDbText
1001
ACAD
1000
MTEXTBEGIN
1070
    73
1070
     1
1070
    44
1040
1.0
1070
    74
1070
     0
1000
MTEXTEND
  0
TEXT
  5
ACA
330
1F
100
AcDbEntity
  8
SUNPO
100
AcDbText
 10
3246.680311730542
 20
359.2274732162223
 30
0.0
 40
70.0
  1
１／２０
  7
ADD
100
AcDbText
1001
ACAD
1000
MTEXTBEGIN
1070
    73
1070
     1
1070
    44
1040
1.0
1070
    74
1070
     0
1000
MTEXTEND
1000
MTEXTBEGIN
1070
    73
1070
     1
1070
    44
1040
1.0
1070
    74
1070
     0
1000
MTEXTEND
1000
MTEXTBEGIN
1070
    73
1070
     1
1070
    44
1040
1.0
1070
    74
1070
     0
1000
MTEXTEND
1000
MTEXTBEGIN
1070
    73
1070
     1
1070
    44
1040
1.0
1070
    74
1070
     0
1000
MTEXTEND
1000
MTEXTBEGIN
1070
    73
1070
     1
1070
    44
1040
1.0
1070
    74
1070
     0
1000
MTEXTEND
1000
MTEXTBEGIN
1070
    73
1070
     1
1070
    44
1040
1.0
1070
    74
1070
     0
1000
MTEXTEND
  0
TEXT
  5
ACB
330
1F
100
AcDbEntity
  8
SUNPO
100
AcDbText
 10
381.8862574011546
 20
488.6918916770627
 30
0.0
 40
50.0
  1
製品名
  7
ADD
100
AcDbText
1001
ACAD
1000
MTEXTBEGIN
1070
    73
1070
     1
1070
    44
1040
1.0
1070
    74
1070
     0
1000
MTEXTEND
1000
MTEXTBEGIN
1070
    73
1070
     1
1070
    44
1040
1.0
1070
    74
1070
     0
1000
MTEXTEND
1000
MTEXTBEGIN
1070
    73
1070
     1
1070
    44
1040
1.0
1070
    74
1070
     0
1000
MTEXTEND
1000
MTEXTBEGIN
1070
    73
1070
     1
1070
    44
1040
1.0
1070
    74
1070
     0
1000
MTEXTEND
1000
MTEXTBEGIN
1070
    73
1070
     1
1070
    44
1040
1.0
1070
    74
1070
     0
1000
MTEXTEND
1000
MTEXTBEGIN
1070
    73
1070
     1
1070
    44
1040
1.0
1070
    74
1070
     0
1000
MTEXTEND
  0
TEXT
  5
ACC
330
1F
100
AcDbEntity
  8
SUNPO
100
AcDbText
 10
2376.290169028722
 20
494.4531736811823
 30
0.0
 40
50.0
  1
型式
  7
ADD
100
AcDbText
1001
ACAD
1000
MTEXTBEGIN
1070
    73
1070
     1
1070
    44
1040
1.0
1070
    74
1070
     0
1000
MTEXTEND
1000
MTEXTBEGIN
1070
    73
1070
     1
1070
    44
1040
1.0
1070
    74
1070
     0
1000
MTEXTEND
1000
MTEXTBEGIN
1070
    73
1070
     1
1070
    44
1040
1.0
1070
    74
1070
     0
1000
MTEXTEND
1000
MTEXTBEGIN
1070
    73
1070
     1
1070
    44
1040
1.0
1070
    74
1070
     0
1000
MTEXTEND
1000
MTEXTBEGIN
1070
    73
1070
     1
1070
    44
1040
1.0
1070
    74
1070
     0
1000
MTEXTEND
1000
MTEXTBEGIN
1070
    73
1070
     1
1070
    44
1040
1.0
1070
    74
1070
     0
1000
MTEXTEND
  0
TEXT
  5
ACD
330
1F
100
AcDbEntity
  8
SUNPO
100
AcDbText
 10
3177.510249231657
 20
488.6918916770627
 30
0.0
 40
50.0
  1
縮尺
  7
ADD
100
AcDbText
1001
ACAD
1000
MTEXTBEGIN
1070
    73
1070
     1
1070
    44
1040
1.0
1070
    74
1070
     0
1000
MTEXTEND
1000
MTEXTBEGIN
1070
    73
1070
     1
1070
    44
1040
1.0
1070
    74
1070
     0
1000
MTEXTEND
1000
MTEXTBEGIN
1070
    73
1070
     1
1070
    44
1040
1.0
1070
    74
1070
     0
1000
MTEXTEND
1000
MTEXTBEGIN
1070
    73
1070
     1
1070
    44
1040
1.0
1070
    74
1070
     0
1000
MTEXTEND
1000
MTEXTBEGIN
1070
    73
1070
     1
1070
    44
1040
1.0
1070
    74
1070
     0
1000
MTEXTEND
1000
MTEXTBEGIN
1070
    73
1070
     1
1070
    44
1040
1.0
1070
    74
1070
     0
1000
MTEXTEND
  0
TEXT
  5
ACE
330
1F
100
AcDbEntity
  8
SUNPO
100
AcDbText
 10
3730.870883051572
 20
352.2726133092144
 30
0.0
 40
100.0
  1
千葉県コンクリート製品協同組合
  7
ADD
100
AcDbText
1001
ACAD
1000
MTEXTBEGIN
1070
    73
1070
     1
1070
    44
1040
1.0
1070
    74
1070
     0
1000
MTEXTEND
1000
MTEXTBEGIN
1070
    73
1070
     1
1070
    44
1040
1.0
1070
    74
1070
     0
1000
MTEXTEND
1000
MTEXTBEGIN
1070
    73
1070
     1
1070
    44
1040
1.0
1070
    74
1070
     0
1000
MTEXTEND
1000
MTEXTBEGIN
1070
    73
1070
     1
1070
    44
1040
1.0
1070
    74
1070
     0
1000
MTEXTEND
1000
MTEXTBEGIN
1070
    73
1070
     1
1070
    44
1040
1.0
1070
    74
1070
     0
1000
MTEXTEND
1000
MTEXTBEGIN
1070
    73
1070
     1
1070
    44
1040
1.0
1070
    74
1070
     0
1000
MTEXTEND
  0
LINE
  5
ACF
330
1F
100
AcDbEntity
  8
HOJO
100
AcDbLine
 10
360.0
 20
260.0
 30
0.0
 11
5580.0
 21
260.0
 31
0.0
  0
LINE
  5
AD0
330
1F
100
AcDbEntity
  8
HOJO
100
AcDbLine
 10
5580.0
 20
260.0
 30
0.0
 11
5580.0
 21
3940.0
 31
0.0
  0
LINE
  5
AD1
330
1F
100
AcDbEntity
  8
HOJO
100
AcDbLine
 10
5580.0
 20
3940.0
 30
0.0
 11
360.0
 21
3940.0
 31
0.0
  0
LINE
  5
AD2
330
1F
100
AcDbEntity
  8
HOJO
100
AcDbLine
 10
360.0
 20
3940.0
 30
0.0
 11
360.0
 21
260.0
 31
0.0
  0
LINE
  5
AD3
330
1F
100
AcDbEntity
  8
HOJO
100
AcDbLine
 10
0.0
 20
0.0
 30
0.0
 11
5940.0
 21
0.0
 31
0.0
  0
LINE
  5
AD4
330
1F
100
AcDbEntity
  8
HOJO
100
AcDbLine
 10
5940.0
 20
0.0
 30
0.0
 11
5940.0
 21
4200.0
 31
0.0
  0
LINE
  5
AD5
330
1F
100
AcDbEntity
  8
HOJO
100
AcDbLine
 10
5940.0
 20
4200.0
 30
0.0
 11
0.0
 21
4200.0
 31
0.0
  0
LINE
  5
AD6
330
1F
100
AcDbEntity
  8
HOJO
100
AcDbLine
 10
0.0
 20
4200.0
 30
0.0
 11
0.0
 21
0.0
 31
0.0
  0
TEXT
  5
AD7
330
1F
100
AcDbEntity
  8
SUNPO
 62
     7
100
AcDbText
 10
2349.237461007454
 20
1897.645466479145
 30
0.0
 40
50.0
  1
160
  7
ADD
100
AcDbText
1001
ACAD
1000
MTEXTBEGIN
1070
    73
1070
     1
1070
    44
1040
1.0
1070
    74
1070
     0
1000
MTEXTEND
  0
TEXT
  5
AD8
330
1F
100
AcDbEntity
  8
SUNPO
 62
     7
100
AcDbText
 10
2349.237461007454
 20
2123.236688820266
 30
0.0
 40
50.0
  1
140
  7
ADD
100
AcDbText
1001
ACAD
1000
MTEXTBEGIN
1070
    73
1070
     1
1070
    44
1040
1.0
1070
    74
1070
     0
1000
MTEXTEND
  0
TEXT
  5
AD9
330
1F
100
AcDbEntity
  8
SUNPO
 62
     7
100
AcDbText
 10
2242.568125859578
 20
1862.312223999285
 30
0.0
 40
50.0
  1
35
 50
90.0
  7
ADD
100
AcDbText
1001
ACAD
1000
MTEXTBEGIN
1070
    73
1070
     1
1070
    44
1040
1.0
1070
    74
1070
     0
1000
MTEXTEND
  0
TEXT
  5
ADA
330
1F
100
AcDbEntity
  8
SUNPO
 62
     7
100
AcDbText
 10
3772.818799183363
 20
1912.861752864262
 30
0.0
 40
50.0
  1
600
  7
ADD
100
AcDbText
1001
ACAD
1000
MTEXTBEGIN
1070
    73
1070
     1
1070
    44
1040
1.0
1070
    74
1070
     0
1000
MTEXTEND
  0
TEXT
  5
ADB
330
1F
100
AcDbEntity
  8
SUNPO
 62
     7
100
AcDbText
 10
2616.787082194545
 20
2132.21347699884
 30
0.0
 40
50.0
  1
45°
 50
292.5
  7
ADD
100
AcDbText
1001
ACAD
1000
MTEXTBEGIN
1070
    73
1070
     1
1070
    44
1040
1.0
1070
    74
1070
     0
1000
MTEXTEND
  0
LINE
  5
ADC
330
1F
100
AcDbEntity
  8
SUNPO
100
AcDbLine
 10
2513.202145706941
 20
1999.147176543791
 30
0.0
 11
2577.325728694828
 21
1899.849824955665
 31
0.0
1001
ACAD
1000
DSTYLE
1002
{
1070
     5
1000

1070
    40
1040
20.0
1070
    77
1070
     0
1070
   147
1040
0.625
1002
}
  0
TEXT
  5
ADD
330
1F
100
AcDbEntity
  8
SUNPO
 62
     7
100
AcDbText
 10
2242.052556319518
 20
2032.713959296597
 30
0.0
 40
50.0
  1
150
 50
90.0
  7
ADD
100
AcDbText
1001
ACAD
1000
MTEXTBEGIN
1070
    73
1070
     1
1070
    44
1040
1.0
1070
    74
1070
     0
1000
MTEXTEND
  0
VIEWPORT
  5
72
330
1B
100
AcDbEntity
 67
     1
  8
0
100
AcDbViewport
 10
429.8380103383458
 20
277.0
 30
0.0
 40
948.9782706766916
 41
628.4520000000001
 68
     1
 69
     1
1001
ACAD
1000
MVIEW
1002
{
1070
    16
1010
0.0
1020
0.0
1030
0.0
1010
0.0
1020
0.0
1030
1.0
1040
0.0
1040
628.4520000000001
1040
429.8380103383458
1040
277.0
1040
50.0
1040
0.0
1040
0.0
1070
     0
1070
   100
1070
     1
1070
     1
1070
     0
1070
     0
1070
     0
1070
     0
1040
0.0
1040
0.0
1040
0.0
1040
10.0
1040
10.0
1040
10.0
1040
10.0
1070
     0
1002
{
1002
}
1002
}
  0
VIEWPORT
  5
74
330
1B
100
AcDbEntity
 67
     1
  8
VIEWPORT
100
AcDbViewport
 10
414.3779638919212
 20
277.3177265058034
 30
0.0
 40
840.0353682728887
 41
567.2285469943826
 68
     2
 69
     2
1001
ACAD
1000
MVIEW
1002
{
1070
    16
1010
0.0
1020
0.0
1030
0.0
1010
0.0
1020
0.0
1030
1.0
1040
0.0
1040
579.5583043546322
1040
424.4938908624541
1040
286.1973242720074
1040
50.0
1040
0.0
1040
0.0
1070
     0
1070
   100
1070
     1
1070
     1
1070
     0
1070
     0
1070
     0
1070
     0
1040
0.0
1040
0.0
1040
0.0
1040
10.0
1040
10.0
1040
10.0
1040
10.0
1070
     0
1002
{
1002
}
1002
}
  0
ENDSEC
  0
SECTION
  2
OBJECTS
  0
DICTIONARY
  5
C
330
0
100
AcDbDictionary
  3
ACAD_GROUP
350
D
  3
ACAD_LAYOUT
350
1A
  3
ACAD_MLINESTYLE
350
17
  3
ACAD_PLOTSETTINGS
350
19
  3
ACADDIM
350
A05
  3
DWGPROPS
350
4C7
1001
ACAD
1000
TREAT_AS_HARD
1070
     0
1000
TREAT_AS_HARD
1070
     0
  0
DICTIONARY
  5
65D
330
1F
100
AcDbDictionary
  3
ACAD_LAYOUTSELFREF
350
AFF
1001
ACAD
1000
TREAT_AS_HARD
1070
     1
1000
TREAT_AS_HARD
1070
     0
  0
DICTIONARY
  5
65F
330
1B
100
AcDbDictionary
  3
ACAD_LAYOUTSELFREF
350
AFE
1001
ACAD
1000
TREAT_AS_HARD
1070
     1
1000
TREAT_AS_HARD
1070
     0
  0
DICTIONARY
  5
D
102
{ACAD_REACTORS
330
C
102
}
330
C
100
AcDbDictionary
1001
ACAD
1000
TREAT_AS_HARD
1070
     0
1000
TREAT_AS_HARD
1070
     0
  0
DICTIONARY
  5
1A
102
{ACAD_REACTORS
330
C
102
}
330
C
100
AcDbDictionary
1001
ACAD
1000
TREAT_AS_HARD
1070
     0
1000
TREAT_AS_HARD
1070
     0
  0
DICTIONARY
  5
17
102
{ACAD_REACTORS
330
C
102
}
330
C
100
AcDbDictionary
  3
STANDARD
350
18
1001
ACAD
1000
TREAT_AS_HARD
1070
     0
1000
TREAT_AS_HARD
1070
     0
  0
DICTIONARY
  5
19
102
{ACAD_REACTORS
330
C
102
}
330
C
100
AcDbDictionary
1001
ACAD
1000
TREAT_AS_HARD
1070
     0
1000
TREAT_AS_HARD
1070
     0
  0
XRECORD
  5
A05
102
{ACAD_REACTORS
330
C
102
}
330
C
100
AcDbXrecord
 90
   990106
  3

 60
     0
 61
     0
 62
     1
 63
     3
 64
     0
 65
     0
 66
     0
 67
     3
 68
     1
 69
     0
 70
     0
 71
     0
 72
     0
 40
30.0
170
     0
340
0
  0
XRECORD
  5
4C7
102
{ACAD_REACTORS
330
C
102
}
330
C
100
AcDbXrecord
  1
DWGPROPS COOKIE
  2
印刷用テスト
  3
AutoCAD2000による建築設計
  4
鈴木 裕二
  6

  7

  8
U2
  9

300
=
301
=
302
=
303
=
304
=
305
=
306
=
307
=
308
=
309
=
 40
0.7653446875
 41
2451285.4846114
 42
2451333.689743032
  1

 90
        0
  0
XRECORD
  5
AFF
102
{ACAD_REACTORS
330
65D
102
}
330
65D
100
AcDbXrecord
340
1F
  0
XRECORD
  5
AFE
102
{ACAD_REACTORS
330
65F
102
}
330
65F
100
AcDbXrecord
340
1B
  0
MLINESTYLE
  5
18
102
{ACAD_REACTORS
330
17
102
}
330
17
100
AcDbMlineStyle
  2
STANDARD
 70
     0
  3

 62
   256
 51
90.0
 52
90.0
 71
     2
 49
0.5
 62
   256
  6
BYLAYER
 49
-0.5
 62
   256
  6
BYLAYER
  0
ENDSEC
  0
EOF
