  0
SECTION
  2
HEADER
  9
$ACADVER
  1
AC1012
  9
$DWGCODEPAGE
  3
dos932
  9
$INSBASE
 10
0.0
 20
0.0
 30
0.0
  9
$EXTMIN
 10
-0.1812605841350887
 20
-0.1281640493871237
 30
-0.0015258207003583
  9
$EXTMAX
 10
5940.181288244414
 20
4200.128183607161
 30
0.0000000349246037
  9
$LIMMIN
 10
0.0
 20
0.0
  9
$LIMMAX
 10
5940.0
 20
4200.0
  9
$ORTHOMODE
 70
     0
  9
$REGENMODE
 70
     1
  9
$FILLMODE
 70
     1
  9
$QTEXTMODE
 70
     0
  9
$MIRRTEXT
 70
     0
  9
$DRAGMODE
 70
     2
  9
$LTSCALE
 40
10.0
  9
$OSMODE
 70
  3071
  9
$ATTMODE
 70
     1
  9
$TEXTSIZE
 40
50.0
  9
$TRACEWID
 40
220.0
  9
$TEXTSTYLE
  7
ADD
  9
$CLAYER
  8
SUNPO
  9
$CELTYPE
  6
BYLAYER
  9
$CECOLOR
 62
   256
  9
$CELTSCALE
 40
1.0
  9
$DELOBJ
 70
     1
  9
$DISPSILH
 70
     0
  9
$DIMSCALE
 40
20.0
  9
$DIMASZ
 40
2.5
  9
$DIMEXO
 40
1.0
  9
$DIMDLI
 40
7.0
  9
$DIMRND
 40
0.0
  9
$DIMDLE
 40
0.0
  9
$DIMEXE
 40
0.5
  9
$DIMTP
 40
0.0
  9
$DIMTM
 40
0.0
  9
$DIMTXT
 40
2.5
  9
$DIMCEN
 40
2.5
  9
$DIMTSZ
 40
0.0
  9
$DIMTOL
 70
     0
  9
$DIMLIM
 70
     0
  9
$DIMTIH
 70
     0
  9
$DIMTOH
 70
     0
  9
$DIMSE1
 70
     0
  9
$DIMSE2
 70
     0
  9
$DIMTAD
 70
     1
  9
$DIMZIN
 70
     8
  9
$DIMBLK
  1

  9
$DIMASO
 70
     1
  9
$DIMSHO
 70
     1
  9
$DIMPOST
  1

  9
$DIMAPOST
  1

  9
$DIMALT
 70
     0
  9
$DIMALTD
 70
     3
  9
$DIMALTF
 40
0.03937007874016
  9
$DIMLFAC
 40
1.0
  9
$DIMTOFL
 70
     1
  9
$DIMTVP
 40
0.7
  9
$DIMTIX
 70
     0
  9
$DIMSOXD
 70
     0
  9
$DIMSAH
 70
     0
  9
$DIMBLK1
  1

  9
$DIMBLK2
  1

  9
$DIMSTYLE
  2
ADD
  9
$DIMCLRD
 70
   144
  9
$DIMCLRE
 70
   144
  9
$DIMCLRT
 70
     7
  9
$DIMTFAC
 40
1.0
  9
$DIMGAP
 40
0.625
  9
$DIMJUST
 70
     0
  9
$DIMSD1
 70
     0
  9
$DIMSD2
 70
     0
  9
$DIMTOLJ
 70
     2
  9
$DIMTZIN
 70
     8
  9
$DIMALTZ
 70
     0
  9
$DIMALTTZ
 70
     0
  9
$DIMFIT
 70
     3
  9
$DIMUPT
 70
     0
  9
$DIMUNIT
 70
     2
  9
$DIMDEC
 70
     0
  9
$DIMTDEC
 70
     0
  9
$DIMALTU
 70
     2
  9
$DIMALTTD
 70
     3
  9
$DIMTXSTY
  7
ADD
  9
$DIMAUNIT
 70
     0
  9
$LUNITS
 70
     2
  9
$LUPREC
 70
     4
  9
$SKETCHINC
 40
1.0
  9
$FILLETRAD
 40
50.0
  9
$AUNITS
 70
     0
  9
$AUPREC
 70
     1
  9
$MENU
  1
.
  9
$ELEVATION
 40
0.0
  9
$PELEVATION
 40
0.0
  9
$THICKNESS
 40
0.0
  9
$LIMCHECK
 70
     0
  9
$BLIPMODE
 70
     0
  9
$CHAMFERA
 40
0.0
  9
$CHAMFERB
 40
0.0
  9
$CHAMFERC
 40
20.0
  9
$CHAMFERD
 40
0.0
  9
$SKPOLY
 70
     0
  9
$TDCREATE
 40
2451801.142532870
  9
$TDUPDATE
 40
2452207.594313981
  9
$TDINDWG
 40
0.1998229745
  9
$TDUSRTIMER
 40
0.1998227431
  9
$USRTIMER
 70
     1
  9
$ANGBASE
 50
0.0
  9
$ANGDIR
 70
     0
  9
$PDMODE
 70
    34
  9
$PDSIZE
 40
0.0
  9
$PLINEWID
 40
0.0
  9
$COORDS
 70
     1
  9
$SPLFRAME
 70
     0
  9
$SPLINETYPE
 70
     6
  9
$SPLINESEGS
 70
     8
  9
$ATTDIA
 70
     0
  9
$ATTREQ
 70
     1
  9
$HANDLING
 70
-16383
  9
$HANDSEED
  5
E1A
  9
$SURFTAB1
 70
     6
  9
$SURFTAB2
 70
     6
  9
$SURFTYPE
 70
     6
  9
$SURFU
 70
     6
  9
$SURFV
 70
     6
  9
$UCSNAME
  2

  9
$UCSORG
 10
0.0
 20
0.0
 30
0.0
  9
$UCSXDIR
 10
1.0
 20
0.0
 30
0.0
  9
$UCSYDIR
 10
0.0
 20
1.0
 30
0.0
  9
$PUCSNAME
  2

  9
$PUCSORG
 10
0.0
 20
0.0
 30
0.0
  9
$PUCSXDIR
 10
1.0
 20
0.0
 30
0.0
  9
$PUCSYDIR
 10
0.0
 20
1.0
 30
0.0
  9
$USERI1
 70
     0
  9
$USERI2
 70
     0
  9
$USERI3
 70
     0
  9
$USERI4
 70
     0
  9
$USERI5
 70
     0
  9
$USERR1
 40
841.0
  9
$USERR2
 40
594.0
  9
$USERR3
 40
1.0
  9
$USERR4
 40
0.0
  9
$USERR5
 40
0.0
  9
$WORLDVIEW
 70
     1
  9
$SHADEDGE
 70
     3
  9
$SHADEDIF
 70
    70
  9
$TILEMODE
 70
     1
  9
$MAXACTVP
 70
    48
  9
$PINSBASE
 10
0.0
 20
0.0
 30
0.0
  9
$PLIMCHECK
 70
     0
  9
$PEXTMIN
 10
-5.639720244523232
 20
-6.296546991387912
 30
0.0
  9
$PEXTMAX
 10
834.3956480283653
 20
560.9320000029946
 30
0.0
  9
$PLIMMIN
 10
-7.5
 20
-20.0
  9
$PLIMMAX
 10
833.5000000000004
 20
574.0000000000001
  9
$UNITMODE
 70
     0
  9
$VISRETAIN
 70
     1
  9
$PLINEGEN
 70
     0
  9
$PSLTSCALE
 70
     1
  9
$TREEDEPTH
 70
  3020
  9
$PICKSTYLE
 70
     1
  9
$CMLSTYLE
  2
STANDARD
  9
$CMLJUST
 70
     0
  9
$CMLSCALE
 40
20.0
  9
$SAVEIMAGES
 70
     1
  0
ENDSEC
  0
SECTION
  2
CLASSES
  0
CLASS
  1
ACDBDICTIONARYWDFLT
  2
AcDbDictionaryWithDefault
  3
AutoCAD 2000
 90
    32768
280
     0
281
     0
  0
CLASS
  1
ACDBPLACEHOLDER
  2
AcDbPlaceHolder
  3
AutoCAD 2000
 90
    32768
280
     0
281
     0
  0
CLASS
  1
LAYOUT
  2
AcDbLayout
  3
AutoCAD 2000
 90
    32768
280
     0
281
     0
  0
CLASS
  1
RTEXT
  2
RText
  3
RText|AutoCAD Express Tool|expresstools@autodesk.com
 90
    32768
280
     0
281
     1
  0
CLASS
  1
DICTIONARYVAR
  2
AcDbDictionaryVar
  3
AutoCAD 2000
 90
    32768
280
     0
281
     0
  0
CLASS
  1
LONG_TRANSACTION
  2
AcDbLongTransaction
  3
AutoCAD 2000
 90
    32768
280
     0
281
     0
  0
CLASS
  1
LWPOLYLINE
  2
AcDbPolyline
  3
AutoCAD 2000
 90
    32768
280
     0
281
     1
  0
CLASS
  1
HATCH
  2
AcDbHatch
  3
AutoCAD 2000
 90
    32768
280
     0
281
     1
  0
CLASS
  1
XRECORD
  2
AcDbXrecord
  3
AutoCAD 2000
 90
    32768
280
     0
281
     0
  0
CLASS
  1
LONG_TRANSACTION
  2
AcDbLongTransaction
  3
AutoCAD 2000
 90
    32768
280
     0
281
     0
  0
CLASS
  1
LWPOLYLINE
  2
AcDbPolyline
  3
AutoCAD 2000
 90
    32768
280
     0
281
     1
  0
CLASS
  1
HATCH
  2
AcDbHatch
  3
AutoCAD 2000
 90
    32768
280
     0
281
     1
  0
CLASS
  1
XRECORD
  2
AcDbXrecord
  3
AutoCAD 2000
 90
    32768
280
     0
281
     0
  0
CLASS
  1
LONG_TRANSACTION
  2
AcDbLongTransaction
  3
AutoCAD 2000
 90
    32768
280
     0
281
     0
  0
CLASS
  1
LWPOLYLINE
  2
AcDbPolyline
  3
AutoCAD 2000
 90
    32768
280
     0
281
     1
  0
CLASS
  1
HATCH
  2
AcDbHatch
  3
AutoCAD 2000
 90
    32768
280
     0
281
     1
  0
CLASS
  1
XRECORD
  2
AcDbXrecord
  3
AutoCAD 2000
 90
    32768
280
     0
281
     0
  0
CLASS
  1
LONG_TRANSACTION
  2
AcDbLongTransaction
  3
AutoCAD 2000
 90
    32768
280
     0
281
     0
  0
CLASS
  1
LWPOLYLINE
  2
AcDbPolyline
  3
AutoCAD 2000
 90
    32768
280
     0
281
     1
  0
CLASS
  1
HATCH
  2
AcDbHatch
  3
AutoCAD 2000
 90
    32768
280
     0
281
     1
  0
CLASS
  1
XRECORD
  2
AcDbXrecord
  3
AutoCAD 2000
 90
    32768
280
     0
281
     0
  0
CLASS
  1
LONG_TRANSACTION
  2
AcDbLongTransaction
  3
AutoCAD 2000
 90
    32768
280
     0
281
     0
  0
CLASS
  1
LWPOLYLINE
  2
AcDbPolyline
  3
AutoCAD 2000
 90
    32768
280
     0
281
     1
  0
CLASS
  1
HATCH
  2
AcDbHatch
  3
AutoCAD 2000
 90
    32768
280
     0
281
     1
  0
CLASS
  1
XRECORD
  2
AcDbXrecord
  3
AutoCAD 2000
 90
    32768
280
     0
281
     0
  0
CLASS
  1
LONG_TRANSACTION
  2
AcDbLongTransaction
  3
AutoCAD 2000
 90
    32768
280
     0
281
     0
  0
CLASS
  1
LWPOLYLINE
  2
AcDbPolyline
  3
AutoCAD 2000
 90
    32768
280
     0
281
     1
  0
CLASS
  1
HATCH
  2
AcDbHatch
  3
AutoCAD 2000
 90
    32768
280
     0
281
     1
  0
CLASS
  1
XRECORD
  2
AcDbXrecord
  3
AutoCAD 2000
 90
    32768
280
     0
281
     0
  0
CLASS
  1
LONG_TRANSACTION
  2
AcDbLongTransaction
  3
AutoCAD 2000
 90
    32768
280
     0
281
     0
  0
CLASS
  1
LWPOLYLINE
  2
AcDbPolyline
  3
AutoCAD 2000
 90
    32768
280
     0
281
     1
  0
CLASS
  1
HATCH
  2
AcDbHatch
  3
AutoCAD 2000
 90
    32768
280
     0
281
     1
  0
CLASS
  1
XRECORD
  2
AcDbXrecord
  3
AutoCAD 2000
 90
    32768
280
     0
281
     0
  0
CLASS
  1
LONG_TRANSACTION
  2
AcDbLongTransaction
  3
AutoCAD 2000
 90
    32768
280
     0
281
     0
  0
CLASS
  1
LWPOLYLINE
  2
AcDbPolyline
  3
AutoCAD 2000
 90
    32768
280
     0
281
     1
  0
CLASS
  1
HATCH
  2
AcDbHatch
  3
AutoCAD 2000
 90
    32768
280
     0
281
     1
  0
CLASS
  1
XRECORD
  2
AcDbXrecord
  3
AutoCAD 2000
 90
    32768
280
     0
281
     0
  0
CLASS
  1
LONG_TRANSACTION
  2
AcDbLongTransaction
  3
AutoCAD 2000
 90
    32768
280
     0
281
     0
  0
CLASS
  1
LWPOLYLINE
  2
AcDbPolyline
  3
AutoCAD 2000
 90
    32768
280
     0
281
     1
  0
CLASS
  1
HATCH
  2
AcDbHatch
  3
AutoCAD 2000
 90
    32768
280
     0
281
     1
  0
CLASS
  1
XRECORD
  2
AcDbXrecord
  3
AutoCAD 2000
 90
    32768
280
     0
281
     0
  0
ENDSEC
  0
SECTION
  2
TABLES
  0
TABLE
  2
VPORT
  5
8
330
0
100
AcDbSymbolTable
 70
     2
  0
VPORT
  5
E0A
330
8
100
AcDbSymbolTableRecord
100
AcDbViewportTableRecord
  2
*ACTIVE
 70
     0
 10
0.0
 20
0.0
 11
1.0
 21
1.0
 12
2970.000013830138
 22
2100.000009778886
 13
0.0
 23
0.0
 14
10.0
 24
10.0
 15
10.0
 25
10.0
 16
0.0
 26
0.0
 36
1.0
 17
0.0
 27
0.0
 37
0.0
 40
4249.286577395729
 41
1.84990253411306
 42
50.0
 43
0.0
 44
0.0
 50
0.0
 51
0.0
 71
     0
 72
   100
 73
     1
 74
     1
 75
     0
 76
     0
 77
     0
 78
     0
  0
ENDTAB
  0
TABLE
  2
LTYPE
  5
5
330
0
100
AcDbSymbolTable
 70
     5
  0
LTYPE
  5
14
330
5
100
AcDbSymbolTableRecord
100
AcDbLinetypeTableRecord
  2
BYBLOCK
 70
     0
  3

 72
    65
 73
     0
 40
0.0
  0
LTYPE
  5
15
330
5
100
AcDbSymbolTableRecord
100
AcDbLinetypeTableRecord
  2
BYLAYER
 70
     0
  3

 72
    65
 73
     0
 40
0.0
  0
LTYPE
  5
16
330
5
100
AcDbSymbolTableRecord
100
AcDbLinetypeTableRecord
  2
CONTINUOUS
 70
     0
  3
Solid line
 72
    65
 73
     0
 40
0.0
  0
LTYPE
  5
555
330
5
100
AcDbSymbolTableRecord
100
AcDbLinetypeTableRecord
  2
CENTER
 70
     0
  3
Center ____ _ ____ _ ____ _ ____ _ ____ _ ____
 72
    65
 73
     4
 40
50.8
 49
31.75
 74
     0
 49
-6.349999999999998
 74
     0
 49
6.349999999999998
 74
     0
 49
-6.349999999999998
 74
     0
  0
LTYPE
  5
556
330
5
100
AcDbSymbolTableRecord
100
AcDbLinetypeTableRecord
  2
HIDDEN
 70
     0
  3
Hidden __ __ __ __ __ __ __ __ __ __ __ __ __ _
 72
    65
 73
     2
 40
9.524999999999996
 49
6.349999999999998
 74
     0
 49
-3.174999999999998
 74
     0
  0
LTYPE
  5
557
330
5
100
AcDbSymbolTableRecord
100
AcDbLinetypeTableRecord
  2
HIDDEN2
 70
     0
  3
Hidden (.5x) _ _ _ _ _ _ _ _ _ _ _ _ _ _ _ _ _
 72
    65
 73
     2
 40
4.762499999999998
 49
3.174999999999998
 74
     0
 49
-1.587499999999999
 74
     0
  0
LTYPE
  5
558
330
5
100
AcDbSymbolTableRecord
100
AcDbLinetypeTableRecord
  2
PHANTOM
 70
     0
  3
Phantom ______  __  __  ______  __  __  ______
 72
    65
 73
     6
 40
63.5
 49
31.75
 74
     0
 49
-6.349999999999998
 74
     0
 49
6.349999999999998
 74
     0
 49
-6.349999999999998
 74
     0
 49
6.349999999999998
 74
     0
 49
-6.349999999999998
 74
     0
  0
ENDTAB
  0
TABLE
  2
LAYER
  5
2
330
0
100
AcDbSymbolTable
 70
    22
  0
LAYER
  5
10
330
2
100
AcDbSymbolTableRecord
100
AcDbLayerTableRecord
  2
0
 70
     0
 62
     7
  6
CONTINUOUS
  0
LAYER
  5
75
330
2
100
AcDbSymbolTableRecord
100
AcDbLayerTableRecord
  2
VIEWPORT
 70
     0
 62
     1
  6
CONTINUOUS
  0
LAYER
  5
504
330
2
100
AcDbSymbolTableRecord
100
AcDbLayerTableRecord
  2
DEFPOINTS
 70
     0
 62
     6
  6
CONTINUOUS
  0
LAYER
  5
505
330
2
100
AcDbSymbolTableRecord
100
AcDbLayerTableRecord
  2
1C1
 70
     0
 62
   254
  6
CONTINUOUS
  0
LAYER
  5
506
330
2
100
AcDbSymbolTableRecord
100
AcDbLayerTableRecord
  2
1C2
 70
     0
 62
   254
  6
CONTINUOUS
  0
LAYER
  5
507
330
2
100
AcDbSymbolTableRecord
100
AcDbLayerTableRecord
  2
2C1
 70
     0
 62
   144
  6
CONTINUOUS
  0
LAYER
  5
508
330
2
100
AcDbSymbolTableRecord
100
AcDbLayerTableRecord
  2
2C2
 70
     0
 62
   144
  6
CONTINUOUS
  0
LAYER
  5
509
330
2
100
AcDbSymbolTableRecord
100
AcDbLayerTableRecord
  2
2H1
 70
     0
 62
   144
  6
HIDDEN
  0
LAYER
  5
50A
330
2
100
AcDbSymbolTableRecord
100
AcDbLayerTableRecord
  2
2H2
 70
     0
 62
   144
  6
HIDDEN2
  0
LAYER
  5
50B
330
2
100
AcDbSymbolTableRecord
100
AcDbLayerTableRecord
  2
2P1
 70
     0
 62
   144
  6
PHANTOM
  0
LAYER
  5
50C
330
2
100
AcDbSymbolTableRecord
100
AcDbLayerTableRecord
  2
3C1
 70
     0
 62
     7
  6
CONTINUOUS
  0
LAYER
  5
50D
330
2
100
AcDbSymbolTableRecord
100
AcDbLayerTableRecord
  2
3C2
 70
     0
 62
     7
  6
CONTINUOUS
  0
LAYER
  5
50E
330
2
100
AcDbSymbolTableRecord
100
AcDbLayerTableRecord
  2
3C3
 70
     0
 62
     7
  6
CONTINUOUS
  0
LAYER
  5
50F
330
2
100
AcDbSymbolTableRecord
100
AcDbLayerTableRecord
  2
4H1
 70
     0
 62
     6
  6
HIDDEN
  0
LAYER
  5
510
330
2
100
AcDbSymbolTableRecord
100
AcDbLayerTableRecord
  2
4H2
 70
     0
 62
     6
  6
HIDDEN2
  0
LAYER
  5
511
330
2
100
AcDbSymbolTableRecord
100
AcDbLayerTableRecord
  2
5C1
 70
     0
 62
    55
  6
CONTINUOUS
  0
LAYER
  5
512
330
2
100
AcDbSymbolTableRecord
100
AcDbLayerTableRecord
  2
5C2
 70
     0
 62
    55
  6
CONTINUOUS
  0
LAYER
  5
513
330
2
100
AcDbSymbolTableRecord
100
AcDbLayerTableRecord
  2
8C1
 70
     0
 62
    92
  6
CONTINUOUS
  0
LAYER
  5
514
330
2
100
AcDbSymbolTableRecord
100
AcDbLayerTableRecord
  2
HOJO
 70
     0
 62
     5
  6
CONTINUOUS
  0
LAYER
  5
515
330
2
100
AcDbSymbolTableRecord
100
AcDbLayerTableRecord
  2
KIJUN
 70
     0
 62
     1
  6
CENTER
  0
LAYER
  5
516
330
2
100
AcDbSymbolTableRecord
100
AcDbLayerTableRecord
  2
MOJI
 70
     0
 62
     7
  6
CONTINUOUS
  0
LAYER
  5
517
330
2
100
AcDbSymbolTableRecord
100
AcDbLayerTableRecord
  2
SUNPO
 70
     0
 62
   144
  6
CONTINUOUS
  0
ENDTAB
  0
TABLE
  2
STYLE
  5
3
330
0
100
AcDbSymbolTable
 70
     6
  0
STYLE
  5
11
330
3
100
AcDbSymbolTableRecord
100
AcDbTextStyleTableRecord
  2
STANDARD
 70
     0
 40
0.0
 41
1.0
 50
0.0
 71
     0
 42
2.5
  3
txt
  4

  0
STYLE
  5
2C
330
3
100
AcDbSymbolTableRecord
100
AcDbTextStyleTableRecord
  2

 70
     1
 40
0.0
 41
1.0
 50
0.0
 71
     0
 42
2.5
  3
ltypeshp.shx
  4

  0
STYLE
  5
18E
330
3
100
AcDbSymbolTableRecord
100
AcDbTextStyleTableRecord
  2
ADD
 70
     0
 40
0.0
 41
1.0
 50
0.0
 71
     0
 42
50.0
  3
romans.shx
  4
bigfont.shx
  0
STYLE
  5
191
330
3
100
AcDbSymbolTableRecord
100
AcDbTextStyleTableRecord
  2
MSG
 70
     0
 40
0.0
 41
1.0
 50
0.0
 71
     0
 42
2.5
  3
MS Gothic.ttf
  4

1001
ACAD
1000
MS Gothic
1071
    32817
  0
STYLE
  5
5C8
330
3
100
AcDbSymbolTableRecord
100
AcDbTextStyleTableRecord
  2
STANDARD15
 70
     0
 40
0.0
 41
1.0
 50
15.0
 71
     0
 42
2.5
  3
ROMANS
  4
bigfont
  0
STYLE
  5
5C9
330
3
100
AcDbSymbolTableRecord
100
AcDbTextStyleTableRecord
  2
ROMANS15
 70
     0
 40
0.0
 41
1.0
 50
15.0
 71
     0
 42
2.5
  3
romans
  4

  0
ENDTAB
  0
TABLE
  2
VIEW
  5
6
330
0
100
AcDbSymbolTable
 70
     1
  0
VIEW
  5
54D
330
6
100
AcDbSymbolTableRecord
100
AcDbViewTableRecord
  2
ALL
 70
     0
 40
594.0
 10
420.5
 20
297.0
 41
865.125
 11
0.0
 21
0.0
 31
1.0
 12
0.0
 22
0.0
 32
0.0
 42
50.0
 43
0.0
 44
0.0
 50
0.0
 71
     0
  0
ENDTAB
  0
TABLE
  2
UCS
  5
7
330
0
100
AcDbSymbolTable
 70
     0
  0
ENDTAB
  0
TABLE
  2
APPID
  5
9
330
0
100
AcDbSymbolTable
 70
     4
  0
APPID
  5
12
330
9
100
AcDbSymbolTableRecord
100
AcDbRegAppTableRecord
  2
ACAD
 70
     0
  0
APPID
  5
5CB
330
9
100
AcDbSymbolTableRecord
100
AcDbRegAppTableRecord
  2
ARAIGUMI_YOHEKI
 70
     0
  0
APPID
  5
5CC
330
9
100
AcDbSymbolTableRecord
100
AcDbRegAppTableRecord
  2
CONTENTTABDATA
 70
     0
  0
APPID
  5
5CD
330
9
100
AcDbSymbolTableRecord
100
AcDbRegAppTableRecord
  2
CONTENTCURRENTTAB
 70
     0
  0
ENDTAB
  0
TABLE
  2
DIMSTYLE
  5
A
330
0
100
AcDbSymbolTable
 70
    10
  0
DIMSTYLE
105
27
330
A
100
AcDbSymbolTableRecord
100
AcDbDimStyleTableRecord
  2
ISO-25
 70
     0
  3

  4

  5

  6

  7

 40
1.0
 41
2.5
 42
0.625
 43
3.75
 44
1.25
 45
0.0
 46
0.0
 47
0.0
 48
0.0
140
2.5
141
2.5
142
0.0
143
0.03937007874016
144
1.0
145
0.0
146
1.0
147
0.625
 71
     0
 72
     0
 73
     0
 74
     0
 75
     0
 76
     0
 77
     1
 78
     8
170
     0
171
     3
172
     1
173
     0
174
     0
175
     0
176
     0
177
     0
178
     0
270
     2
271
     2
272
     2
273
     2
274
     3
340
11
275
     0
280
     0
281
     0
282
     0
283
     0
284
     8
285
     0
286
     0
287
     3
288
     0
  0
DIMSTYLE
105
197
330
A
100
AcDbSymbolTableRecord
100
AcDbDimStyleTableRecord
  2
ADD
 70
     0
  3

  4

  5

  6

  7

 40
1.0
 41
2.5
 42
1.0
 43
7.0
 44
0.5
 45
0.0
 46
0.0
 47
0.0
 48
0.0
140
2.5
141
2.5
142
0.0
143
0.03937007874016
144
1.0
145
0.7
146
1.0
147
0.625
 71
     0
 72
     0
 73
     0
 74
     0
 75
     0
 76
     0
 77
     1
 78
     8
170
     0
171
     3
172
     1
173
     0
174
     1
175
     0
176
   144
177
   144
178
     7
270
     2
271
     1
272
     1
273
     2
274
     3
340
18E
275
     0
280
     0
281
     0
282
     0
283
     2
284
     8
285
     0
286
     0
287
     3
288
     0
  0
DIMSTYLE
105
3E6
330
A
100
AcDbSymbolTableRecord
100
AcDbDimStyleTableRecord
  2
ADD$2
 70
     0
  3

  4

  5

  6

  7

 40
1.0
 41
2.5
 42
1.0
 43
7.0
 44
0.5
 45
0.0
 46
0.0
 47
0.0
 48
0.0
140
2.5
141
2.5
142
0.0
143
0.03937007874016
144
1.0
145
0.7
146
1.0
147
0.625
 71
     0
 72
     0
 73
     0
 74
     0
 75
     0
 76
     0
 77
     1
 78
     8
170
     0
171
     3
172
     1
173
     0
174
     1
175
     0
176
   144
177
   144
178
     7
270
     2
271
     1
272
     1
273
     2
274
     3
340
18E
275
     0
280
     0
281
     0
282
     0
283
     2
284
     8
285
     0
286
     0
287
     3
288
     0
  0
DIMSTYLE
105
3E7
330
A
100
AcDbSymbolTableRecord
100
AcDbDimStyleTableRecord
  2
ADD$4
 70
     0
  3

  4

  5

  6

  7

 40
1.0
 41
2.5
 42
1.0
 43
7.0
 44
0.5
 45
0.0
 46
0.0
 47
0.0
 48
0.0
140
2.5
141
2.5
142
0.0
143
0.03937007874016
144
1.0
145
0.0
146
1.0
147
0.625
 71
     0
 72
     0
 73
     0
 74
     0
 75
     0
 76
     0
 77
     1
 78
     8
170
     0
171
     3
172
     1
173
     0
174
     1
175
     0
176
   144
177
   144
178
     7
270
     2
271
     1
272
     1
273
     2
274
     3
340
18E
275
     0
280
     0
281
     0
282
     0
283
     2
284
     8
285
     0
286
     0
287
     3
288
     0
  0
DIMSTYLE
105
3E8
330
A
100
AcDbSymbolTableRecord
100
AcDbDimStyleTableRecord
  2
ADD$3
 70
     0
  3

  4

  5

  6

  7

 40
1.0
 41
2.5
 42
1.0
 43
7.0
 44
0.5
 45
0.0
 46
0.0
 47
0.0
 48
0.0
140
2.5
141
2.5
142
0.0
143
0.03937007874016
144
1.0
145
0.0
146
1.0
147
0.625
 71
     0
 72
     0
 73
     0
 74
     0
 75
     0
 76
     0
 77
     1
 78
     8
170
     0
171
     3
172
     1
173
     0
174
     1
175
     0
176
   144
177
   144
178
     7
270
     2
271
     1
272
     1
273
     2
274
     3
340
18E
275
     0
280
     0
281
     0
282
     0
283
     2
284
     8
285
     0
286
     0
287
     3
288
     0
  0
DIMSTYLE
105
3E9
330
A
100
AcDbSymbolTableRecord
100
AcDbDimStyleTableRecord
  2
ADD$6
 70
     0
  3

  4

  5

  6

  7

 40
1.0
 41
2.5
 42
1.0
 43
7.0
 44
0.5
 45
0.0
 46
0.0
 47
0.0
 48
0.0
140
2.5
141
2.5
142
0.0
143
0.03937007874016
144
1.0
145
0.0
146
1.0
147
0.625
 71
     0
 72
     0
 73
     0
 74
     0
 75
     0
 76
     0
 77
     1
 78
     8
170
     0
171
     3
172
     1
173
     0
174
     1
175
     0
176
   144
177
   144
178
     7
270
     2
271
     1
272
     1
273
     2
274
     3
340
18E
275
     0
280
     0
281
     0
282
     0
283
     2
284
     8
285
     0
286
     0
287
     3
288
     0
  0
DIMSTYLE
105
3EA
330
A
100
AcDbSymbolTableRecord
100
AcDbDimStyleTableRecord
  2
ADD$7
 70
     0
  3

  4

  5

  6

  7

 40
1.0
 41
2.5
 42
1.0
 43
7.0
 44
0.5
 45
0.0
 46
0.0
 47
0.0
 48
0.0
140
2.5
141
2.5
142
0.0
143
0.03937007874016
144
1.0
145
0.0
146
1.0
147
0.625
 71
     0
 72
     0
 73
     0
 74
     0
 75
     0
 76
     0
 77
     0
 78
     8
170
     0
171
     3
172
     1
173
     0
174
     1
175
     0
176
   144
177
   144
178
     7
270
     2
271
     1
272
     1
273
     2
274
     3
340
18E
275
     0
280
     0
281
     0
282
     0
283
     2
284
     8
285
     0
286
     0
287
     3
288
     0
  0
DIMSTYLE
105
518
330
A
100
AcDbSymbolTableRecord
100
AcDbDimStyleTableRecord
  2
STANDARD
 70
     0
  3

  4

  5

  6

  7

 40
1.0
 41
0.18
 42
0.0625
 43
0.38
 44
0.18
 45
0.0
 46
0.0
 47
0.0
 48
0.0
140
0.18
141
0.09
142
0.0
143
25.4
144
1.0
145
0.0
146
1.0
147
0.09
 71
     0
 72
     0
 73
     1
 74
     1
 75
     0
 76
     0
 77
     0
 78
     0
170
     0
171
     2
172
     0
173
     0
174
     0
175
     0
176
     0
177
     0
178
     0
270
     2
271
     4
272
     4
273
     2
274
     2
340
11
275
     0
280
     0
281
     0
282
     0
283
     1
284
     0
285
     0
286
     0
287
     3
288
     0
  0
DIMSTYLE
105
550
330
A
100
AcDbSymbolTableRecord
100
AcDbDimStyleTableRecord
  2
ADD$0
 70
     0
  3

  4

  5

  6

  7

 40
1.0
 41
2.5
 42
1.0
 43
7.0
 44
0.5
 45
0.0
 46
0.0
 47
0.0
 48
0.0
140
2.5
141
2.5
142
0.0
143
0.03937007874016
144
1.0
145
0.7
146
1.0
147
0.625
 71
     0
 72
     0
 73
     0
 74
     0
 75
     0
 76
     0
 77
     1
 78
     8
170
     0
171
     3
172
     1
173
     0
174
     1
175
     0
176
   144
177
   144
178
     7
270
     2
271
     1
272
     1
273
     2
274
     3
340
18E
275
     0
280
     0
281
     0
282
     0
283
     2
284
     8
285
     0
286
     0
287
     3
288
     0
  0
DIMSTYLE
105
59B
330
A
100
AcDbSymbolTableRecord
100
AcDbDimStyleTableRecord
  2
ADD_M
 70
     0
  3

  4

  5

  6

  7

 40
1.0
 41
2.5
 42
1.0
 43
7.0
 44
0.5
 45
0.0
 46
0.0
 47
0.0
 48
0.0
140
2.5
141
2.5
142
0.0
143
0.03937007874016
144
1.0
145
0.7
146
1.0
147
0.625
 71
     0
 72
     0
 73
     0
 74
     0
 75
     0
 76
     0
 77
     1
 78
     8
170
     0
171
     3
172
     1
173
     0
174
     1
175
     0
176
   144
177
   144
178
     7
270
     2
271
     1
272
     1
273
     2
274
     3
340
18E
275
     0
280
     0
281
     0
282
     0
283
     2
284
     8
285
     0
286
     0
287
     3
288
     0
  0
ENDTAB
  0
TABLE
  2
BLOCK_RECORD
  5
1
330
0
100
AcDbSymbolTable
 70
    10
  0
BLOCK_RECORD
  5
1F
102
{ACAD_XDICTIONARY
360
65D
102
}
330
1
100
AcDbSymbolTableRecord
100
AcDbBlockTableRecord
  2
*MODEL_SPACE
  0
BLOCK_RECORD
  5
1B
102
{ACAD_XDICTIONARY
360
65F
102
}
330
1
100
AcDbSymbolTableRecord
100
AcDbBlockTableRecord
  2
*PAPER_SPACE
  0
BLOCK_RECORD
  5
192
330
1
100
AcDbSymbolTableRecord
100
AcDbBlockTableRecord
  2
_DOT
  0
BLOCK_RECORD
  5
5CE
330
1
100
AcDbSymbolTableRecord
100
AcDbBlockTableRecord
  2
A4
  0
BLOCK_RECORD
  5
B53
330
1
100
AcDbSymbolTableRecord
100
AcDbBlockTableRecord
  2
*D2
  0
BLOCK_RECORD
  5
B6F
330
1
100
AcDbSymbolTableRecord
100
AcDbBlockTableRecord
  2
*D3
  0
BLOCK_RECORD
  5
B8B
330
1
100
AcDbSymbolTableRecord
100
AcDbBlockTableRecord
  2
*D4
  0
BLOCK_RECORD
  5
B98
330
1
100
AcDbSymbolTableRecord
100
AcDbBlockTableRecord
  2
*D5
  0
BLOCK_RECORD
  5
BC1
330
1
100
AcDbSymbolTableRecord
100
AcDbBlockTableRecord
  2
*D6
  0
BLOCK_RECORD
  5
BCF
330
1
100
AcDbSymbolTableRecord
100
AcDbBlockTableRecord
  2
*D7
  0
BLOCK_RECORD
  5
CAB
330
1
100
AcDbSymbolTableRecord
100
AcDbBlockTableRecord
  2
*D8
  0
BLOCK_RECORD
  5
CC3
330
1
100
AcDbSymbolTableRecord
100
AcDbBlockTableRecord
  2
*D9
  0
ENDTAB
  0
ENDSEC
  0
SECTION
  2
BLOCKS
  0
BLOCK
  5
20
330
1F
100
AcDbEntity
  8
0
100
AcDbBlockBegin
  2
*MODEL_SPACE
 70
     0
 10
0.0
 20
0.0
 30
0.0
  3
*MODEL_SPACE
  1

  0
ENDBLK
  5
21
330
1F
100
AcDbEntity
  8
0
100
AcDbBlockEnd
  0
BLOCK
  5
1C
330
1B
100
AcDbEntity
 67
     1
  8
0
100
AcDbBlockBegin
  2
*PAPER_SPACE
 70
     0
 10
0.0
 20
0.0
 30
0.0
  3
*PAPER_SPACE
  1

  0
ENDBLK
  5
1D
330
1B
100
AcDbEntity
 67
     1
  8
0
100
AcDbBlockEnd
  0
BLOCK
  5
195
330
192
100
AcDbEntity
  8
0
100
AcDbBlockBegin
  2
_DOT
 70
     0
 10
0.0
 20
0.0
 30
0.0
  3
_DOT
  1

  0
POLYLINE
  5
193
330
192
100
AcDbEntity
  8
0
 62
     0
100
AcDb2dPolyline
 66
     1
 10
0.0
 20
0.0
 30
0.0
 70
     1
 40
0.5
 41
0.5
  0
VERTEX
  5
E0D
330
193
100
AcDbEntity
  8
0
 62
     0
100
AcDbVertex
100
AcDb2dVertex
 10
-0.25
 20
0.0
 30
0.0
 42
1.0
  0
VERTEX
  5
E0E
330
193
100
AcDbEntity
  8
0
 62
     0
100
AcDbVertex
100
AcDb2dVertex
 10
0.25
 20
0.0
 30
0.0
 42
1.0
  0
SEQEND
  5
E0F
330
193
100
AcDbEntity
  8
0
 62
     0
  0
LINE
  5
194
330
192
100
AcDbEntity
  8
0
 62
     0
100
AcDbLine
 10
-0.5
 20
0.0
 30
0.0
 11
-1.0
 21
0.0
 31
0.0
  0
ENDBLK
  5
196
330
192
100
AcDbEntity
  8
0
100
AcDbBlockEnd
  0
BLOCK
  5
5D1
330
5CE
100
AcDbEntity
  8
0
100
AcDbBlockBegin
  2
A4
 70
     0
 10
0.0
 20
0.0
 30
0.0
  3
A4
  1

  0
POLYLINE
  5
5CF
330
5CE
100
AcDbEntity
  8
HOJO
100
AcDb2dPolyline
 66
     1
 10
0.0
 20
0.0
 30
0.0
 70
     1
  0
VERTEX
  5
E10
330
5CF
100
AcDbEntity
  8
HOJO
100
AcDbVertex
100
AcDb2dVertex
 10
0.0
 20
0.0
 30
0.0
  0
VERTEX
  5
E11
330
5CF
100
AcDbEntity
  8
HOJO
100
AcDbVertex
100
AcDb2dVertex
 10
297.0
 20
0.0
 30
0.0
  0
VERTEX
  5
E12
330
5CF
100
AcDbEntity
  8
HOJO
100
AcDbVertex
100
AcDb2dVertex
 10
297.0
 20
210.0
 30
0.0
  0
VERTEX
  5
E13
330
5CF
100
AcDbEntity
  8
HOJO
100
AcDbVertex
100
AcDb2dVertex
 10
0.0
 20
210.0
 30
0.0
  0
SEQEND
  5
E14
330
5CF
100
AcDbEntity
  8
HOJO
  0
POLYLINE
  5
5D0
330
5CE
100
AcDbEntity
  8
HOJO
100
AcDb2dPolyline
 66
     1
 10
0.0
 20
0.0
 30
0.0
 70
     1
  0
VERTEX
  5
E15
330
5D0
100
AcDbEntity
  8
HOJO
100
AcDbVertex
100
AcDb2dVertex
 10
18.0
 20
13.0
 30
0.0
  0
VERTEX
  5
E16
330
5D0
100
AcDbEntity
  8
HOJO
100
AcDbVertex
100
AcDb2dVertex
 10
279.0
 20
13.0
 30
0.0
  0
VERTEX
  5
E17
330
5D0
100
AcDbEntity
  8
HOJO
100
AcDbVertex
100
AcDb2dVertex
 10
279.0
 20
197.0
 30
0.0
  0
VERTEX
  5
E18
330
5D0
100
AcDbEntity
  8
HOJO
100
AcDbVertex
100
AcDb2dVertex
 10
18.0
 20
197.0
 30
0.0
  0
SEQEND
  5
E19
330
5D0
100
AcDbEntity
  8
HOJO
  0
ENDBLK
  5
5D2
330
5CE
100
AcDbEntity
  8
0
100
AcDbBlockEnd
  0
BLOCK
  5
B5D
330
B53
100
AcDbEntity
  8
0
100
AcDbBlockBegin
  2
*D2
 70
     1
 10
0.0
 20
0.0
 30
0.0
  3
*D2
  1

  0
LINE
  5
D50
330
B53
100
AcDbEntity
  8
SUNPO
 62
   144
100
AcDbLine
 10
1653.368123347124
 20
2115.783485701105
 30
0.0
 11
1653.368123347124
 21
2435.775676477491
 31
0.0
  0
LINE
  5
D51
330
B53
100
AcDbEntity
  8
SUNPO
 62
   144
100
AcDbLine
 10
1873.368123347125
 20
2115.783485701105
 30
0.0
 11
1873.368123347125
 21
2435.775676477491
 31
0.0
  0
LINE
  5
D52
330
B53
100
AcDbEntity
  8
SUNPO
 62
   144
100
AcDbLine
 10
1703.368123347124
 20
2425.775676477491
 30
0.0
 11
1823.368123347125
 21
2425.775676477491
 31
0.0
  0
SOLID
  5
D53
330
B53
100
AcDbEntity
  8
SUNPO
 62
   144
100
AcDbTrace
 10
1703.368123347124
 20
2434.109009810825
 30
0.0
 11
1703.368123347124
 21
2417.442343144156
 31
0.0
 12
1653.368123347124
 22
2425.775676477491
 32
0.0
 13
1653.368123347124
 23
2425.775676477491
 33
0.0
  0
SOLID
  5
D54
330
B53
100
AcDbEntity
  8
SUNPO
 62
   144
100
AcDbTrace
 10
1823.368123347125
 20
2434.109009810825
 30
0.0
 11
1823.368123347125
 21
2417.442343144156
 31
0.0
 12
1873.368123347125
 22
2425.775676477491
 32
0.0
 13
1873.368123347125
 23
2425.775676477491
 33
0.0
  0
MTEXT
  5
D55
330
B53
100
AcDbEntity
  8
SUNPO
 62
     7
100
AcDbMText
 10
1763.368123347125
 20
2463.275676477491
 30
0.0
 40
50.0
 41
0.0
 71
     5
 72
     1
  1
\A2;220
  7
ADD
1001
ACAD
1000
MTEXTBEGIN
1070
    73
1070
     1
1070
    44
1040
1.0
1070
    74
1070
     0
1000
MTEXTEND
1000
MTEXTBEGIN
1070
    73
1070
     1
1070
    44
1040
1.0
1070
    74
1070
     0
1000
MTEXTEND
  0
POINT
  5
D56
330
B53
100
AcDbEntity
  8
DEFPOINTS
 62
     0
100
AcDbPoint
 10
1653.368123347124
 20
2095.783485701104
 30
0.0
  0
POINT
  5
D57
330
B53
100
AcDbEntity
  8
DEFPOINTS
 62
     0
100
AcDbPoint
 10
1873.368123347125
 20
2095.783485701104
 30
0.0
  0
POINT
  5
D58
330
B53
100
AcDbEntity
  8
DEFPOINTS
 62
     0
100
AcDbPoint
 10
1873.368123347125
 20
2425.775676477491
 30
0.0
  0
ENDBLK
  5
B5E
330
B53
100
AcDbEntity
  8
0
100
AcDbBlockEnd
  0
BLOCK
  5
B79
330
B6F
100
AcDbEntity
  8
0
100
AcDbBlockBegin
  2
*D3
 70
     1
 10
0.0
 20
0.0
 30
0.0
  3
*D3
  1

  0
LINE
  5
D59
330
B6F
100
AcDbEntity
  8
SUNPO
 62
   144
100
AcDbLine
 10
1641.049151106733
 20
2415.913595748985
 30
0.0
 11
1641.049151106733
 21
2571.134092147588
 31
0.0
  0
LINE
  5
D5A
330
B6F
100
AcDbEntity
  8
SUNPO
 62
   144
100
AcDbLine
 10
1881.049151106734
 20
2415.913595748985
 30
0.0
 11
1881.049151106734
 21
2571.134092147588
 31
0.0
  0
LINE
  5
D5B
330
B6F
100
AcDbEntity
  8
SUNPO
 62
   144
100
AcDbLine
 10
1691.049151106733
 20
2561.134092147587
 30
0.0
 11
1831.049151106734
 21
2561.134092147587
 31
0.0
  0
SOLID
  5
D5C
330
B6F
100
AcDbEntity
  8
SUNPO
 62
   144
100
AcDbTrace
 10
1691.049151106733
 20
2569.467425480921
 30
0.0
 11
1691.049151106733
 21
2552.800758814254
 31
0.0
 12
1641.049151106733
 22
2561.134092147587
 32
0.0
 13
1641.049151106733
 23
2561.134092147587
 33
0.0
  0
SOLID
  5
D5D
330
B6F
100
AcDbEntity
  8
SUNPO
 62
   144
100
AcDbTrace
 10
1831.049151106734
 20
2569.467425480921
 30
0.0
 11
1831.049151106734
 21
2552.800758814254
 31
0.0
 12
1881.049151106734
 22
2561.134092147587
 32
0.0
 13
1881.049151106734
 23
2561.134092147587
 33
0.0
  0
MTEXT
  5
D5E
330
B6F
100
AcDbEntity
  8
SUNPO
 62
     7
100
AcDbMText
 10
1761.049151106734
 20
2598.634092147587
 30
0.0
 40
50.0
 41
0.0
 71
     5
 72
     1
  1
\A2;240
  7
ADD
1001
ACAD
1000
MTEXTBEGIN
1070
    73
1070
     1
1070
    44
1040
1.0
1070
    74
1070
     0
1000
MTEXTEND
1000
MTEXTBEGIN
1070
    73
1070
     1
1070
    44
1040
1.0
1070
    74
1070
     0
1000
MTEXTEND
  0
POINT
  5
D5F
330
B6F
100
AcDbEntity
  8
DEFPOINTS
 62
     0
100
AcDbPoint
 10
1641.049151106733
 20
2395.913595748984
 30
0.0
  0
POINT
  5
D60
330
B6F
100
AcDbEntity
  8
DEFPOINTS
 62
     0
100
AcDbPoint
 10
1881.049151106734
 20
2395.913595748984
 30
0.0
  0
POINT
  5
D61
330
B6F
100
AcDbEntity
  8
DEFPOINTS
 62
     0
100
AcDbPoint
 10
1881.049151106734
 20
2561.134092147587
 30
0.0
  0
ENDBLK
  5
B7A
330
B6F
100
AcDbEntity
  8
0
100
AcDbBlockEnd
  0
BLOCK
  5
B95
330
B8B
100
AcDbEntity
  8
0
100
AcDbBlockBegin
  2
*D4
 70
     1
 10
0.0
 20
0.0
 30
0.0
  3
*D4
  1

  0
LINE
  5
D62
330
B8B
100
AcDbEntity
  8
SUNPO
 62
   144
100
AcDbLine
 10
1861.049151106734
 20
2385.783485701098
 30
0.0
 11
1789.403938647712
 21
2385.783485701098
 31
0.0
  0
LINE
  5
D63
330
B8B
100
AcDbEntity
  8
SUNPO
 62
   144
100
AcDbLine
 10
1790.38611239456
 20
2145.783485701104
 30
0.0
 11
1789.403938647712
 21
2145.783485701104
 31
0.0
  0
LINE
  5
D64
330
B8B
100
AcDbEntity
  8
SUNPO
 62
   144
100
AcDbLine
 10
1799.403938647712
 20
2335.783485701098
 30
0.0
 11
1799.403938647712
 21
2195.783485701106
 31
0.0
  0
SOLID
  5
D65
330
B8B
100
AcDbEntity
  8
SUNPO
 62
   144
100
AcDbTrace
 10
1791.070605314379
 20
2335.783485701098
 30
0.0
 11
1807.737271981046
 21
2335.783485701098
 31
0.0
 12
1799.403938647712
 22
2385.783485701098
 32
0.0
 13
1799.403938647712
 23
2385.783485701098
 33
0.0
  0
SOLID
  5
D66
330
B8B
100
AcDbEntity
  8
SUNPO
 62
   144
100
AcDbTrace
 10
1791.070605314379
 20
2195.783485701106
 30
0.0
 11
1807.737271981046
 21
2195.783485701106
 31
0.0
 12
1799.403938647712
 22
2145.783485701104
 32
0.0
 13
1799.403938647712
 23
2145.783485701104
 33
0.0
  0
MTEXT
  5
D67
330
B8B
100
AcDbEntity
  8
SUNPO
 62
     7
100
AcDbMText
 10
1761.903938647711
 20
2265.783485701102
 30
0.0
 40
50.0
 41
0.0
 71
     5
 72
     1
  1
\A2;240
  7
ADD
 11
0.0000000000000001
 21
1.0
 31
0.0
1001
ACAD
1000
MTEXTBEGIN
1070
    73
1070
     1
1070
    44
1040
1.0
1070
    74
1070
     0
1000
MTEXTEND
1000
MTEXTBEGIN
1070
    73
1070
     1
1070
    44
1040
1.0
1070
    74
1070
     0
1000
MTEXTEND
  0
POINT
  5
D68
330
B8B
100
AcDbEntity
  8
DEFPOINTS
 62
     0
100
AcDbPoint
 10
1881.049151106734
 20
2385.783485701098
 30
0.0
  0
POINT
  5
D69
330
B8B
100
AcDbEntity
  8
DEFPOINTS
 62
     0
100
AcDbPoint
 10
1810.38611239456
 20
2145.783485701104
 30
0.0
  0
POINT
  5
D6A
330
B8B
100
AcDbEntity
  8
DEFPOINTS
 62
     0
100
AcDbPoint
 10
1799.403938647712
 20
2145.783485701104
 30
0.0
  0
ENDBLK
  5
B96
330
B8B
100
AcDbEntity
  8
0
100
AcDbBlockEnd
  0
BLOCK
  5
BA4
330
B98
100
AcDbEntity
  8
0
100
AcDbBlockBegin
  2
*D5
 70
     1
 10
0.0
 20
0.0
 30
0.0
  3
*D5
  1

  0
LINE
  5
D6B
330
B98
100
AcDbEntity
  8
SUNPO
 62
   144
100
AcDbLine
 10
1790.38611239456
 20
2145.783485701104
 30
0.0
 11
1789.403938647712
 21
2145.783485701104
 31
0.0
  0
LINE
  5
D6C
330
B98
100
AcDbEntity
  8
SUNPO
 62
   144
100
AcDbLine
 10
1779.403938647712
 20
2095.783485701104
 30
0.0
 11
1789.403938647712
 21
2095.783485701104
 31
0.0
  0
LINE
  5
D6D
330
B98
100
AcDbEntity
  8
SUNPO
 62
   144
100
AcDbLine
 10
1799.403938647712
 20
2195.783485701106
 30
0.0
 11
1799.403938647712
 21
2245.783485701104
 31
0.0
  0
LINE
  5
D6E
330
B98
100
AcDbEntity
  8
SUNPO
 62
   144
100
AcDbLine
 10
1799.403938647712
 20
2045.783485701105
 30
0.0
 11
1799.403938647712
 21
1995.783485701105
 31
0.0
  0
MTEXT
  5
D6F
330
B98
100
AcDbEntity
  8
SUNPO
 62
     7
100
AcDbMText
 10
1729.769838694805
 20
2047.016743284376
 30
0.0
 40
50.0
 41
0.0
 71
     5
 72
     1
  1
\A2;50
  7
ADD
 11
0.0000000000000001
 21
1.0
 31
0.0
1001
ACAD
1000
MTEXTBEGIN
1070
    73
1070
     1
1070
    44
1040
1.0
1070
    74
1070
     0
1000
MTEXTEND
1000
MTEXTBEGIN
1070
    73
1070
     1
1070
    44
1040
1.0
1070
    74
1070
     0
1000
MTEXTEND
  0
LINE
  5
D70
330
B98
100
AcDbEntity
  8
SUNPO
 62
   144
100
AcDbLine
 10
1799.403938647712
 20
2145.783485701104
 30
0.0
 11
1799.403938647712
 21
2095.783485701104
 31
0.0
  0
SOLID
  5
D71
330
B98
100
AcDbEntity
  8
SUNPO
 62
   144
100
AcDbTrace
 10
1791.070605314379
 20
2195.783485701106
 30
0.0
 11
1807.737271981046
 21
2195.783485701106
 31
0.0
 12
1799.403938647712
 22
2145.783485701104
 32
0.0
 13
1799.403938647712
 23
2145.783485701104
 33
0.0
  0
SOLID
  5
D72
330
B98
100
AcDbEntity
  8
SUNPO
 62
   144
100
AcDbTrace
 10
1791.070605314379
 20
2045.783485701105
 30
0.0
 11
1807.737271981046
 21
2045.783485701105
 31
0.0
 12
1799.403938647712
 22
2095.783485701104
 32
0.0
 13
1799.403938647712
 23
2095.783485701104
 33
0.0
  0
POINT
  5
D73
330
B98
100
AcDbEntity
  8
DEFPOINTS
 62
     0
100
AcDbPoint
 10
1810.38611239456
 20
2145.783485701104
 30
0.0
  0
POINT
  5
D74
330
B98
100
AcDbEntity
  8
DEFPOINTS
 62
     0
100
AcDbPoint
 10
1799.403938647712
 20
2095.783485701104
 30
0.0
  0
POINT
  5
D75
330
B98
100
AcDbEntity
  8
DEFPOINTS
 62
     0
100
AcDbPoint
 10
1799.403938647712
 20
2095.783485701104
 30
0.0
  0
ENDBLK
  5
BA5
330
B98
100
AcDbEntity
  8
0
100
AcDbBlockEnd
  0
BLOCK
  5
BCB
330
BC1
100
AcDbEntity
  8
0
100
AcDbBlockBegin
  2
*D6
 70
     1
 10
0.0
 20
0.0
 30
0.0
  3
*D6
  1

  0
LINE
  5
D76
330
BC1
100
AcDbEntity
  8
SUNPO
 62
   144
100
AcDbLine
 10
1643.368123347125
 20
2075.783485701105
 30
0.0
 11
1643.368123347125
 21
1913.817894397134
 31
0.0
  0
LINE
  5
D77
330
BC1
100
AcDbEntity
  8
SUNPO
 62
   144
100
AcDbLine
 10
1883.368123347125
 20
2075.783485701105
 30
0.0
 11
1883.368123347125
 21
1913.817894397134
 31
0.0
  0
LINE
  5
D78
330
BC1
100
AcDbEntity
  8
SUNPO
 62
   144
100
AcDbLine
 10
1693.368123347125
 20
1923.817894397134
 30
0.0
 11
1833.368123347124
 21
1923.817894397134
 31
0.0
  0
SOLID
  5
D79
330
BC1
100
AcDbEntity
  8
SUNPO
 62
   144
100
AcDbTrace
 10
1693.368123347125
 20
1932.151227730467
 30
0.0
 11
1693.368123347125
 21
1915.4845610638
 31
0.0
 12
1643.368123347125
 22
1923.817894397134
 32
0.0
 13
1643.368123347125
 23
1923.817894397134
 33
0.0
  0
SOLID
  5
D7A
330
BC1
100
AcDbEntity
  8
SUNPO
 62
   144
100
AcDbTrace
 10
1833.368123347124
 20
1932.151227730467
 30
0.0
 11
1833.368123347124
 21
1915.4845610638
 31
0.0
 12
1883.368123347125
 22
1923.817894397134
 32
0.0
 13
1883.368123347125
 23
1923.817894397134
 33
0.0
  0
MTEXT
  5
D7B
330
BC1
100
AcDbEntity
  8
SUNPO
 62
     7
100
AcDbMText
 10
1763.368123347125
 20
1961.317894397134
 30
0.0
 40
50.0
 41
0.0
 71
     5
 72
     1
  1
\A2;240
  7
ADD
1001
ACAD
1000
MTEXTBEGIN
1070
    73
1070
     1
1070
    44
1040
1.0
1070
    74
1070
     0
1000
MTEXTEND
1000
MTEXTBEGIN
1070
    73
1070
     1
1070
    44
1040
1.0
1070
    74
1070
     0
1000
MTEXTEND
  0
POINT
  5
D7C
330
BC1
100
AcDbEntity
  8
DEFPOINTS
 62
     0
100
AcDbPoint
 10
1643.368123347125
 20
2095.783485701104
 30
0.0
  0
POINT
  5
D7D
330
BC1
100
AcDbEntity
  8
DEFPOINTS
 62
     0
100
AcDbPoint
 10
1883.368123347125
 20
2095.783485701104
 30
0.0
  0
POINT
  5
D7E
330
BC1
100
AcDbEntity
  8
DEFPOINTS
 62
     0
100
AcDbPoint
 10
1883.368123347125
 20
1923.817894397134
 30
0.0
  0
ENDBLK
  5
BCC
330
BC1
100
AcDbEntity
  8
0
100
AcDbBlockEnd
  0
BLOCK
  5
BDC
330
BCF
100
AcDbEntity
  8
0
100
AcDbBlockBegin
  2
*D7
 70
     1
 10
0.0
 20
0.0
 30
0.0
  3
*D7
  1

  0
LINE
  5
D7F
330
BCF
100
AcDbEntity
  8
SUNPO
 62
   144
100
AcDbLine
 10
1934.128032002822
 20
2116.55307724991
 30
0.0
 11
2102.745944415898
 21
2185.546999055139
 31
0.0
  0
ARC
  5
D80
330
BCF
100
AcDbEntity
  8
SUNPO
 62
   144
100
AcDbCircle
 10
1883.368123347126
 20
2095.783485701104
 30
0.0
 40
54.84472864222047
100
AcDbArc
 50
251.5259996839221
 51
305.762999841961
  0
ARC
  5
D81
330
BCF
100
AcDbEntity
  8
SUNPO
 62
   144
100
AcDbCircle
 10
1883.368123347126
 20
2095.783485701104
 30
0.0
 40
54.84472864222047
100
AcDbArc
 50
98.74311995821907
 51
152.9801201162578
  0
ARC
  5
D82
330
BCF
100
AcDbEntity
  8
SUNPO
 62
   144
100
AcDbCircle
 10
1883.368123347126
 20
2095.783485701104
 30
0.0
 40
54.84472864222047
100
AcDbArc
 50
359.9999999999998
 51
44.50611980018016
  0
SOLID
  5
D83
330
BCF
100
AcDbEntity
  8
SUNPO
 62
   144
100
AcDbTrace
 10
1908.004021990656
 20
2055.078804956076
 30
0.0
 11
1922.838449799784
 21
2047.481599591368
 31
0.0
 12
1938.212851989345
 22
2095.783485701104
 32
0.0
 13
1938.212851989345
 23
2095.783485701104
 33
0.0
  0
SOLID
  5
D84
330
BCF
100
AcDbEntity
  8
SUNPO
 62
   144
100
AcDbTrace
 10
1877.658477292622
 20
2157.899335642725
 30
0.0
 11
1872.404455996979
 21
2142.082476346306
 31
0.0
 12
1922.482044534056
 22
2134.228842107587
 32
0.0
 13
1922.482044534056
 23
2134.228842107587
 33
0.0
  0
MTEXT
  5
D85
330
BCF
100
AcDbEntity
  8
SUNPO
 62
     7
100
AcDbMText
 10
2137.452954947504
 20
2199.748175765506
 30
0.0
 40
50.0
 41
0.0
 71
     5
 72
     1
  1
\A2;45°
  7
ADD
 11
0.3786980456097298
 21
-0.9255202808428192
 31
0.0
1001
ACAD
1000
MTEXTBEGIN
1070
    73
1070
     1
1070
    44
1040
1.0
1070
    74
1070
     0
1000
MTEXTEND
1000
MTEXTBEGIN
1070
    73
1070
     1
1070
    44
1040
1.0
1070
    74
1070
     0
1000
MTEXTEND
  0
POINT
  5
D86
330
BCF
100
AcDbEntity
  8
DEFPOINTS
 62
     0
100
AcDbPoint
 10
1936.384630232337
 20
2109.826072981556
 30
0.0
  0
POINT
  5
D87
330
BCF
100
AcDbEntity
  8
DEFPOINTS
 62
     0
100
AcDbPoint
 10
1883.368123347125
 20
2095.783485701104
 30
0.0
  0
POINT
  5
D88
330
BCF
100
AcDbEntity
  8
DEFPOINTS
 62
     0
100
AcDbPoint
 10
1883.368123347125
 20
2095.783485701104
 30
0.0
  0
POINT
  5
D89
330
BCF
100
AcDbEntity
  8
DEFPOINTS
 62
     0
100
AcDbPoint
 10
1924.057676037159
 20
2135.777541723065
 30
0.0
  0
POINT
  5
D8A
330
BCF
100
AcDbEntity
  8
DEFPOINTS
 62
     0
100
AcDbPoint
 10
2020.400012987618
 20
2095.783485701104
 30
0.0
  0
ENDBLK
  5
BDD
330
BCF
100
AcDbEntity
  8
0
100
AcDbBlockEnd
  0
BLOCK
  5
CB5
330
CAB
100
AcDbEntity
  8
0
100
AcDbBlockBegin
  2
*D8
 70
     1
 10
0.0
 20
0.0
 30
0.0
  3
*D8
  1

  0
LINE
  5
D8B
330
CAB
100
AcDbEntity
  8
SUNPO
 62
   144
100
AcDbLine
 10
3514.432362542664
 20
2075.783485701105
 30
0.0
 11
3514.432362542664
 21
1956.99534777272
 31
0.0
  0
LINE
  5
D8C
330
CAB
100
AcDbEntity
  8
SUNPO
 62
   144
100
AcDbLine
 10
4114.432362542665
 20
2075.783485701105
 30
0.0
 11
4114.432362542665
 21
1956.99534777272
 31
0.0
  0
LINE
  5
D8D
330
CAB
100
AcDbEntity
  8
SUNPO
 62
   144
100
AcDbLine
 10
3564.432362542666
 20
1966.99534777272
 30
0.0
 11
4064.432362542666
 21
1966.99534777272
 31
0.0
  0
SOLID
  5
D8E
330
CAB
100
AcDbEntity
  8
SUNPO
 62
   144
100
AcDbTrace
 10
3564.432362542666
 20
1975.328681106054
 30
0.0
 11
3564.432362542666
 21
1958.662014439386
 31
0.0
 12
3514.432362542664
 22
1966.99534777272
 32
0.0
 13
3514.432362542664
 23
1966.99534777272
 33
0.0
  0
SOLID
  5
D8F
330
CAB
100
AcDbEntity
  8
SUNPO
 62
   144
100
AcDbTrace
 10
4064.432362542666
 20
1975.328681106054
 30
0.0
 11
4064.432362542666
 21
1958.662014439386
 31
0.0
 12
4114.432362542665
 22
1966.99534777272
 32
0.0
 13
4114.432362542665
 23
1966.99534777272
 33
0.0
  0
MTEXT
  5
D90
330
CAB
100
AcDbEntity
  8
SUNPO
 62
     7
100
AcDbMText
 10
3814.432362542666
 20
2004.49534777272
 30
0.0
 40
50.0
 41
0.0
 71
     5
 72
     1
  1
\A2;600
  7
ADD
1001
ACAD
1000
MTEXTBEGIN
1070
    73
1070
     1
1070
    44
1040
1.0
1070
    74
1070
     0
1000
MTEXTEND
1000
MTEXTBEGIN
1070
    73
1070
     1
1070
    44
1040
1.0
1070
    74
1070
     0
1000
MTEXTEND
  0
POINT
  5
D91
330
CAB
100
AcDbEntity
  8
DEFPOINTS
 62
     0
100
AcDbPoint
 10
3514.432362542664
 20
2095.783485701105
 30
0.0
  0
POINT
  5
D92
330
CAB
100
AcDbEntity
  8
DEFPOINTS
 62
     0
100
AcDbPoint
 10
4114.432362542665
 20
2095.783485701104
 30
0.0
  0
POINT
  5
D93
330
CAB
100
AcDbEntity
  8
DEFPOINTS
 62
     0
100
AcDbPoint
 10
4114.432362542665
 20
1966.99534777272
 30
0.0
  0
ENDBLK
  5
CB6
330
CAB
100
AcDbEntity
  8
0
100
AcDbBlockEnd
  0
BLOCK
  5
CCA
330
CC3
100
AcDbEntity
  8
0
100
AcDbBlockBegin
  2
*D9
 70
     1
 10
0.0
 20
0.0
 30
0.0
  3
*D9
  1

  0
LINE
  5
D94
330
CC3
100
AcDbEntity
  8
SUNPO
 62
   144
100
AcDbLine
 10
1504.543913488449
 20
1964.208798845622
 30
0.0
 11
1636.171991468577
 21
2119.500059442829
 31
0.0
  0
MTEXT
  5
D95
330
CC3
100
AcDbEntity
  8
SUNPO
 62
     7
100
AcDbMText
 10
1525.586815949888
 20
2047.030850102312
 30
0.0
 40
50.0
 41
0.0
 71
     5
 72
     1
  1
\A2;R50
  7
ADD
 11
0.6465940672708122
 21
0.7628342625827635
 31
0.0
1001
ACAD
1000
MTEXTBEGIN
1070
    73
1070
     1
1070
    44
1040
1.0
1070
    74
1070
     0
1000
MTEXTEND
1000
MTEXTBEGIN
1070
    73
1070
     1
1070
    44
1040
1.0
1070
    74
1070
     0
1000
MTEXTEND
  0
LINE
  5
D96
330
CC3
100
AcDbEntity
  8
SUNPO
 62
   144
100
AcDbLine
 10
1700.83139819566
 20
2195.783485701106
 30
0.0
 11
1668.501694832119
 21
2157.641772571967
 31
0.0
  0
SOLID
  5
D97
330
CC3
100
AcDbEntity
  8
SUNPO
 62
   144
100
AcDbTrace
 10
1629.815039280389
 20
2124.888343336752
 30
0.0
 11
1642.528943656768
 21
2114.111775548904
 31
0.0
 12
1668.501694832119
 22
2157.641772571967
 32
0.0
 13
1668.501694832119
 23
2157.641772571967
 33
0.0
  0
POINT
  5
D98
330
CC3
100
AcDbEntity
  8
DEFPOINTS
 62
     0
100
AcDbPoint
 10
1668.501694832119
 20
2157.641772571967
 30
0.0
  0
POINT
  5
D99
330
CC3
100
AcDbEntity
  8
DEFPOINTS
 62
     0
100
AcDbPoint
 10
1700.83139819566
 20
2195.783485701106
 30
0.0
  0
ENDBLK
  5
CCB
330
CC3
100
AcDbEntity
  8
0
100
AcDbBlockEnd
  0
ENDSEC
  0
SECTION
  2
ENTITIES
  0
LINE
  5
60A
330
1F
100
AcDbEntity
  8
HOJO
100
AcDbLine
 10
360.0
 20
260.0
 30
0.0
 11
5580.0
 21
260.0
 31
0.0
  0
LINE
  5
60B
330
1F
100
AcDbEntity
  8
HOJO
100
AcDbLine
 10
360.0
 20
560.0
 30
0.0
 11
5580.0
 21
560.0
 31
0.0
  0
LINE
  5
60C
330
1F
100
AcDbEntity
  8
HOJO
100
AcDbLine
 10
360.0
 20
260.0
 30
0.0
 11
360.0
 21
560.0
 31
0.0
  0
LINE
  5
60D
330
1F
100
AcDbEntity
  8
HOJO
100
AcDbLine
 10
2360.0
 20
260.0
 30
0.0
 11
2360.0
 21
560.0
 31
0.0
  0
LINE
  5
60F
330
1F
100
AcDbEntity
  8
HOJO
100
AcDbLine
 10
3160.0
 20
260.0
 30
0.0
 11
3160.0
 21
560.0
 31
0.0
  0
LINE
  5
610
330
1F
100
AcDbEntity
  8
HOJO
100
AcDbLine
 10
3660.0
 20
260.0
 30
0.0
 11
3660.0
 21
560.0
 31
0.0
  0
LINE
  5
B21
330
1F
100
AcDbEntity
  8
3C1
100
AcDbLine
 10
1643.368123347125
 20
2095.783485701104
 30
0.0
 11
1883.368123347125
 21
2095.783485701104
 31
0.0
  0
LINE
  5
B23
330
1F
100
AcDbEntity
  8
3C1
100
AcDbLine
 10
1928.368123347125
 20
2385.783485701105
 30
0.0
 11
1881.049151106734
 21
2385.783485701105
 31
0.0
  0
LINE
  5
B3E
330
1F
100
AcDbEntity
  8
3C1
100
AcDbLine
 10
1700.83139819566
 20
2145.783485701105
 30
0.0
 11
1824.965131063439
 21
2145.783485701104
 31
0.0
  0
LINE
  5
B3F
330
1F
100
AcDbEntity
  8
3C1
100
AcDbLine
 10
1641.049151106733
 20
2385.783485701105
 30
0.0
 11
1650.896656783185
 21
2193.229743335621
 31
0.0
  0
LINE
  5
B40
330
1F
100
AcDbEntity
  8
3C1
100
AcDbLine
 10
1881.049151106734
 20
2385.783485701105
 30
0.0
 11
1874.939730272724
 21
2194.18992557632
 31
0.0
  0
ARC
  5
B41
330
1F
100
AcDbEntity
  8
3C1
100
AcDbCircle
 10
1700.83139819566
 20
2195.783485701106
 30
0.0
 40
50.0
100
AcDbArc
 50
182.9276469950325
 51
270.0
  0
ARC
  5
B42
330
1F
100
AcDbEntity
  8
3C1
100
AcDbCircle
 10
1824.965131063439
 20
2195.783485701106
 30
0.0
 40
50.0
100
AcDbArc
 50
269.9999999999998
 51
358.1736053193863
  0
LINE
  5
B43
330
1F
100
AcDbEntity
  8
3C1
100
AcDbLine
 10
1641.049151106733
 20
2385.783485701105
 30
0.0
 11
1598.368123347125
 21
2385.783485701105
 31
0.0
  0
LINE
  5
B4E
330
1F
100
AcDbEntity
  8
3C1
100
AcDbLine
 10
1643.368123347125
 20
2095.783485701104
 30
0.0
 11
1602.678570657091
 21
2135.777541723065
 31
0.0
  0
LINE
  5
B4F
330
1F
100
AcDbEntity
  8
3C1
100
AcDbLine
 10
1883.368123347125
 20
2095.783485701104
 30
0.0
 11
1924.057676037159
 21
2135.777541723065
 31
0.0
  0
LINE
  5
BCD
330
1F
100
AcDbEntity
  8
SUNPO
100
AcDbLine
 10
1883.368123347125
 20
2095.783485701104
 30
0.0
 11
2020.400012987618
 21
2095.783485701104
 31
0.0
  0
LINE
  5
BE0
330
1F
100
AcDbEntity
  8
SUNPO
 62
   144
100
AcDbLine
 10
1873.368123347125
 20
2115.783485701105
 30
0.0
 11
1873.368123347125
 21
2435.775676477491
 31
0.0
  0
LINE
  5
BE1
330
1F
100
AcDbEntity
  8
SUNPO
 62
   144
100
AcDbLine
 10
1923.368123347125
 20
2115.783485701105
 30
0.0
 11
1923.368123347125
 21
2435.775676477491
 31
0.0
  0
LINE
  5
BE2
330
1F
100
AcDbEntity
  8
SUNPO
 62
   144
100
AcDbLine
 10
1823.368123347125
 20
2425.775676477491
 30
0.0
 11
1773.368123347125
 21
2425.775676477491
 31
0.0
  0
LINE
  5
BE3
330
1F
100
AcDbEntity
  8
SUNPO
 62
   144
100
AcDbLine
 10
1973.368123347125
 20
2425.775676477491
 30
0.0
 11
2023.368123347125
 21
2425.775676477491
 31
0.0
  0
LINE
  5
BE5
330
1F
100
AcDbEntity
  8
SUNPO
 62
   144
100
AcDbLine
 10
1873.368123347125
 20
2425.775676477491
 30
0.0
 11
1923.368123347125
 21
2425.775676477491
 31
0.0
  0
SOLID
  5
BE6
330
1F
100
AcDbEntity
  8
SUNPO
 62
   144
100
AcDbTrace
 10
1823.368123347125
 20
2434.109009810825
 30
0.0
 11
1823.368123347125
 21
2417.442343144156
 31
0.0
 12
1873.368123347125
 22
2425.775676477491
 32
0.0
 13
1873.368123347125
 23
2425.775676477491
 33
0.0
  0
SOLID
  5
BE7
330
1F
100
AcDbEntity
  8
SUNPO
 62
   144
100
AcDbTrace
 10
1973.368123347125
 20
2434.109009810825
 30
0.0
 11
1973.368123347125
 21
2417.442343144156
 31
0.0
 12
1923.368123347125
 22
2425.775676477491
 32
0.0
 13
1923.368123347125
 23
2425.775676477491
 33
0.0
  0
LINE
  5
C9A
330
1F
100
AcDbEntity
  8
SUNPO
 62
   144
100
AcDbLine
 10
1881.049151106734
 20
2405.783485701098
 30
0.0
 11
1881.049151106734
 21
2570.149358222401
 31
0.0
  0
LINE
  5
C9B
330
1F
100
AcDbEntity
  8
SUNPO
 62
   144
100
AcDbLine
 10
1928.368123347125
 20
2405.783485701106
 30
0.0
 11
1928.368123347125
 21
2570.149358222401
 31
0.0
  0
LINE
  5
C9C
330
1F
100
AcDbEntity
  8
SUNPO
 62
   144
100
AcDbLine
 10
1831.049151106734
 20
2560.149358222401
 30
0.0
 11
1781.049151106734
 21
2560.149358222401
 31
0.0
  0
LINE
  5
C9D
330
1F
100
AcDbEntity
  8
SUNPO
 62
   144
100
AcDbLine
 10
1978.368123347125
 20
2560.149358222401
 30
0.0
 11
2028.368123347124
 21
2560.149358222401
 31
0.0
  0
LINE
  5
C9F
330
1F
100
AcDbEntity
  8
SUNPO
 62
   144
100
AcDbLine
 10
1881.049151106734
 20
2560.149358222401
 30
0.0
 11
1928.368123347125
 21
2560.149358222401
 31
0.0
  0
SOLID
  5
CA0
330
1F
100
AcDbEntity
  8
SUNPO
 62
   144
100
AcDbTrace
 10
1831.049151106734
 20
2568.482691555734
 30
0.0
 11
1831.049151106734
 21
2551.816024889067
 31
0.0
 12
1881.049151106734
 22
2560.149358222401
 32
0.0
 13
1881.049151106734
 23
2560.149358222401
 33
0.0
  0
SOLID
  5
CA1
330
1F
100
AcDbEntity
  8
SUNPO
 62
   144
100
AcDbTrace
 10
1978.368123347125
 20
2568.482691555734
 30
0.0
 11
1978.368123347125
 21
2551.816024889067
 31
0.0
 12
1928.368123347125
 22
2560.149358222401
 32
0.0
 13
1928.368123347125
 23
2560.149358222401
 33
0.0
  0
LINE
  5
CA4
330
1F
100
AcDbEntity
  8
3C1
100
AcDbLine
 10
3514.432362542664
 20
2095.783485701105
 30
0.0
 11
4114.432362542665
 21
2095.783485701104
 31
0.0
  0
LINE
  5
CA6
330
1F
100
AcDbEntity
  8
3C1
100
AcDbLine
 10
3514.432362542664
 20
2095.783485701105
 30
0.0
 11
3514.432362542664
 21
2385.783485701105
 31
0.0
  0
LINE
  5
CA7
330
1F
100
AcDbEntity
  8
3C1
100
AcDbLine
 10
3514.432362542664
 20
2385.783485701105
 30
0.0
 11
4114.432362542665
 21
2385.783485701105
 31
0.0
  0
LINE
  5
CA8
330
1F
100
AcDbEntity
  8
3C1
100
AcDbLine
 10
4114.432362542665
 20
2385.783485701105
 30
0.0
 11
4114.432362542665
 21
2095.783485701105
 31
0.0
  0
LINE
  5
CA9
330
1F
100
AcDbEntity
  8
3C1
100
AcDbLine
 10
3514.432362542664
 20
2145.783485701105
 30
0.0
 11
4114.432362542665
 21
2145.783485701104
 31
0.0
  0
LINE
  5
CC0
330
1F
100
AcDbEntity
  8
3C1
100
AcDbLine
 10
1598.368123347125
 20
2385.783485701105
 30
0.0
 11
1602.678570657091
 21
2135.777541723065
 31
0.0
  0
LINE
  5
CC1
330
1F
100
AcDbEntity
  8
3C1
100
AcDbLine
 10
1928.368123347125
 20
2385.783485701105
 30
0.0
 11
1924.057676037159
 21
2135.777541723065
 31
0.0
  0
LINE
  5
DA1
330
1F
100
AcDbEntity
  8
SUNPO
 62
   144
100
AcDbLine
 10
1504.543913488449
 20
1964.208798845622
 30
0.0
 11
1636.171991468577
 21
2119.500059442829
 31
0.0
  0
LINE
  5
DA3
330
1F
100
AcDbEntity
  8
SUNPO
 62
   144
100
AcDbLine
 10
1700.83139819566
 20
2195.783485701106
 30
0.0
 11
1668.501694832119
 21
2157.641772571967
 31
0.0
  0
SOLID
  5
DA4
330
1F
100
AcDbEntity
  8
SUNPO
 62
   144
100
AcDbTrace
 10
1629.815039280389
 20
2124.888343336752
 30
0.0
 11
1642.528943656768
 21
2114.111775548904
 31
0.0
 12
1668.501694832119
 22
2157.641772571967
 32
0.0
 13
1668.501694832119
 23
2157.641772571967
 33
0.0
  0
LINE
  5
DA5
330
1F
100
AcDbEntity
  8
SUNPO
 62
   144
100
AcDbLine
 10
3514.432362542664
 20
2075.783485701105
 30
0.0
 11
3514.432362542664
 21
1956.99534777272
 31
0.0
  0
LINE
  5
DA6
330
1F
100
AcDbEntity
  8
SUNPO
 62
   144
100
AcDbLine
 10
4114.432362542665
 20
2075.783485701105
 30
0.0
 11
4114.432362542665
 21
1956.99534777272
 31
0.0
  0
LINE
  5
DA7
330
1F
100
AcDbEntity
  8
SUNPO
 62
   144
100
AcDbLine
 10
3564.432362542666
 20
1966.99534777272
 30
0.0
 11
4064.432362542666
 21
1966.99534777272
 31
0.0
  0
SOLID
  5
DA8
330
1F
100
AcDbEntity
  8
SUNPO
 62
   144
100
AcDbTrace
 10
3564.432362542666
 20
1975.328681106054
 30
0.0
 11
3564.432362542666
 21
1958.662014439386
 31
0.0
 12
3514.432362542664
 22
1966.99534777272
 32
0.0
 13
3514.432362542664
 23
1966.99534777272
 33
0.0
  0
SOLID
  5
DA9
330
1F
100
AcDbEntity
  8
SUNPO
 62
   144
100
AcDbTrace
 10
4064.432362542666
 20
1975.328681106054
 30
0.0
 11
4064.432362542666
 21
1958.662014439386
 31
0.0
 12
4114.432362542665
 22
1966.99534777272
 32
0.0
 13
4114.432362542665
 23
1966.99534777272
 33
0.0
  0
TEXT
  5
DAB
330
1F
100
AcDbEntity
  8
SUNPO
100
AcDbText
 10
1938.889819067915
 20
2571.852893542362
 30
0.0
 40
50.0
  1
45
  7
ADD
100
AcDbText
1001
ACAD
1000
MTEXTBEGIN
1070
    73
1070
     1
1070
    44
1040
1.0
1070
    74
1070
     0
1000
MTEXTEND
  0
TEXT
  5
DAC
330
1F
100
AcDbEntity
  8
SUNPO
 62
     7
100
AcDbText
 10
1969.988619609821
 20
2448.804768197057
 30
0.0
 40
50.0
  1
50
  7
ADD
100
AcDbText
1001
ACAD
1000
MTEXTBEGIN
1070
    73
1070
     1
1070
    44
1040
1.0
1070
    74
1070
     0
1000
MTEXTEND
  0
LINE
  5
DAD
330
1F
100
AcDbEntity
  8
SUNPO
 62
   144
100
AcDbLine
 10
1934.128032002822
 20
2116.55307724991
 30
0.0
 11
2102.745944415898
 21
2185.546999055139
 31
0.0
  0
ARC
  5
DAE
330
1F
100
AcDbEntity
  8
SUNPO
 62
   144
100
AcDbCircle
 10
1883.368123347126
 20
2095.783485701104
 30
0.0
 40
54.84472864222047
100
AcDbArc
 50
251.5259996839221
 51
305.762999841961
  0
ARC
  5
DAF
330
1F
100
AcDbEntity
  8
SUNPO
 62
   144
100
AcDbCircle
 10
1883.368123347126
 20
2095.783485701104
 30
0.0
 40
54.84472864222047
100
AcDbArc
 50
98.74311995821907
 51
152.9801201162578
  0
ARC
  5
DB0
330
1F
100
AcDbEntity
  8
SUNPO
 62
   144
100
AcDbCircle
 10
1883.368123347126
 20
2095.783485701104
 30
0.0
 40
54.84472864222047
100
AcDbArc
 50
359.9999999999998
 51
44.50611980018016
  0
SOLID
  5
DB1
330
1F
100
AcDbEntity
  8
SUNPO
 62
   144
100
AcDbTrace
 10
1908.004021990656
 20
2055.078804956076
 30
0.0
 11
1922.838449799784
 21
2047.481599591368
 31
0.0
 12
1938.212851989345
 22
2095.783485701104
 32
0.0
 13
1938.212851989345
 23
2095.783485701104
 33
0.0
  0
SOLID
  5
DB2
330
1F
100
AcDbEntity
  8
SUNPO
 62
   144
100
AcDbTrace
 10
1877.658477292622
 20
2157.899335642725
 30
0.0
 11
1872.404455996979
 21
2142.082476346306
 31
0.0
 12
1922.482044534056
 22
2134.228842107587
 32
0.0
 13
1922.482044534056
 23
2134.228842107587
 33
0.0
  0
LINE
  5
DB4
330
1F
100
AcDbEntity
  8
SUNPO
 62
   144
100
AcDbLine
 10
1643.368123347125
 20
2075.783485701105
 30
0.0
 11
1643.368123347125
 21
1913.817894397134
 31
0.0
  0
LINE
  5
DB5
330
1F
100
AcDbEntity
  8
SUNPO
 62
   144
100
AcDbLine
 10
1883.368123347125
 20
2075.783485701105
 30
0.0
 11
1883.368123347125
 21
1913.817894397134
 31
0.0
  0
LINE
  5
DB6
330
1F
100
AcDbEntity
  8
SUNPO
 62
   144
100
AcDbLine
 10
1693.368123347125
 20
1923.817894397134
 30
0.0
 11
1833.368123347124
 21
1923.817894397134
 31
0.0
  0
SOLID
  5
DB7
330
1F
100
AcDbEntity
  8
SUNPO
 62
   144
100
AcDbTrace
 10
1693.368123347125
 20
1932.151227730467
 30
0.0
 11
1693.368123347125
 21
1915.4845610638
 31
0.0
 12
1643.368123347125
 22
1923.817894397134
 32
0.0
 13
1643.368123347125
 23
1923.817894397134
 33
0.0
  0
SOLID
  5
DB8
330
1F
100
AcDbEntity
  8
SUNPO
 62
   144
100
AcDbTrace
 10
1833.368123347124
 20
1932.151227730467
 30
0.0
 11
1833.368123347124
 21
1915.4845610638
 31
0.0
 12
1883.368123347125
 22
1923.817894397134
 32
0.0
 13
1883.368123347125
 23
1923.817894397134
 33
0.0
  0
LINE
  5
DBA
330
1F
100
AcDbEntity
  8
SUNPO
 62
   144
100
AcDbLine
 10
1790.38611239456
 20
2145.783485701104
 30
0.0
 11
1789.403938647712
 21
2145.783485701104
 31
0.0
  0
LINE
  5
DBB
330
1F
100
AcDbEntity
  8
SUNPO
 62
   144
100
AcDbLine
 10
1779.403938647712
 20
2095.783485701104
 30
0.0
 11
1789.403938647712
 21
2095.783485701104
 31
0.0
  0
LINE
  5
DBC
330
1F
100
AcDbEntity
  8
SUNPO
 62
   144
100
AcDbLine
 10
1799.403938647712
 20
2195.783485701106
 30
0.0
 11
1799.403938647712
 21
2245.783485701104
 31
0.0
  0
LINE
  5
DBD
330
1F
100
AcDbEntity
  8
SUNPO
 62
   144
100
AcDbLine
 10
1799.403938647712
 20
2045.783485701105
 30
0.0
 11
1799.403938647712
 21
1995.783485701105
 31
0.0
  0
LINE
  5
DBF
330
1F
100
AcDbEntity
  8
SUNPO
 62
   144
100
AcDbLine
 10
1799.403938647712
 20
2145.783485701104
 30
0.0
 11
1799.403938647712
 21
2095.783485701104
 31
0.0
  0
SOLID
  5
DC0
330
1F
100
AcDbEntity
  8
SUNPO
 62
   144
100
AcDbTrace
 10
1791.070605314379
 20
2195.783485701106
 30
0.0
 11
1807.737271981046
 21
2195.783485701106
 31
0.0
 12
1799.403938647712
 22
2145.783485701104
 32
0.0
 13
1799.403938647712
 23
2145.783485701104
 33
0.0
  0
SOLID
  5
DC1
330
1F
100
AcDbEntity
  8
SUNPO
 62
   144
100
AcDbTrace
 10
1791.070605314379
 20
2045.783485701105
 30
0.0
 11
1807.737271981046
 21
2045.783485701105
 31
0.0
 12
1799.403938647712
 22
2095.783485701104
 32
0.0
 13
1799.403938647712
 23
2095.783485701104
 33
0.0
  0
LINE
  5
DC2
330
1F
100
AcDbEntity
  8
SUNPO
 62
   144
100
AcDbLine
 10
1861.049151106734
 20
2385.783485701098
 30
0.0
 11
1789.403938647712
 21
2385.783485701098
 31
0.0
  0
LINE
  5
DC3
330
1F
100
AcDbEntity
  8
SUNPO
 62
   144
100
AcDbLine
 10
1790.38611239456
 20
2145.783485701104
 30
0.0
 11
1789.403938647712
 21
2145.783485701104
 31
0.0
  0
LINE
  5
DC4
330
1F
100
AcDbEntity
  8
SUNPO
 62
   144
100
AcDbLine
 10
1799.403938647712
 20
2335.783485701098
 30
0.0
 11
1799.403938647712
 21
2195.783485701106
 31
0.0
  0
SOLID
  5
DC5
330
1F
100
AcDbEntity
  8
SUNPO
 62
   144
100
AcDbTrace
 10
1791.070605314379
 20
2335.783485701098
 30
0.0
 11
1807.737271981046
 21
2335.783485701098
 31
0.0
 12
1799.403938647712
 22
2385.783485701098
 32
0.0
 13
1799.403938647712
 23
2385.783485701098
 33
0.0
  0
SOLID
  5
DC6
330
1F
100
AcDbEntity
  8
SUNPO
 62
   144
100
AcDbTrace
 10
1791.070605314379
 20
2195.783485701106
 30
0.0
 11
1807.737271981046
 21
2195.783485701106
 31
0.0
 12
1799.403938647712
 22
2145.783485701104
 32
0.0
 13
1799.403938647712
 23
2145.783485701104
 33
0.0
  0
LINE
  5
DC8
330
1F
100
AcDbEntity
  8
SUNPO
 62
   144
100
AcDbLine
 10
1641.049151106733
 20
2415.913595748985
 30
0.0
 11
1641.049151106733
 21
2571.134092147588
 31
0.0
  0
LINE
  5
DC9
330
1F
100
AcDbEntity
  8
SUNPO
 62
   144
100
AcDbLine
 10
1881.049151106734
 20
2415.913595748985
 30
0.0
 11
1881.049151106734
 21
2571.134092147588
 31
0.0
  0
LINE
  5
DCA
330
1F
100
AcDbEntity
  8
SUNPO
 62
   144
100
AcDbLine
 10
1691.049151106733
 20
2561.134092147587
 30
0.0
 11
1831.049151106734
 21
2561.134092147587
 31
0.0
  0
SOLID
  5
DCB
330
1F
100
AcDbEntity
  8
SUNPO
 62
   144
100
AcDbTrace
 10
1691.049151106733
 20
2569.467425480921
 30
0.0
 11
1691.049151106733
 21
2552.800758814254
 31
0.0
 12
1641.049151106733
 22
2561.134092147587
 32
0.0
 13
1641.049151106733
 23
2561.134092147587
 33
0.0
  0
SOLID
  5
DCC
330
1F
100
AcDbEntity
  8
SUNPO
 62
   144
100
AcDbTrace
 10
1831.049151106734
 20
2569.467425480921
 30
0.0
 11
1831.049151106734
 21
2552.800758814254
 31
0.0
 12
1881.049151106734
 22
2561.134092147587
 32
0.0
 13
1881.049151106734
 23
2561.134092147587
 33
0.0
  0
LINE
  5
DCE
330
1F
100
AcDbEntity
  8
SUNPO
 62
   144
100
AcDbLine
 10
1653.368123347124
 20
2115.783485701105
 30
0.0
 11
1653.368123347124
 21
2435.775676477491
 31
0.0
  0
LINE
  5
DCF
330
1F
100
AcDbEntity
  8
SUNPO
 62
   144
100
AcDbLine
 10
1873.368123347125
 20
2115.783485701105
 30
0.0
 11
1873.368123347125
 21
2435.775676477491
 31
0.0
  0
LINE
  5
DD0
330
1F
100
AcDbEntity
  8
SUNPO
 62
   144
100
AcDbLine
 10
1703.368123347124
 20
2425.775676477491
 30
0.0
 11
1823.368123347125
 21
2425.775676477491
 31
0.0
  0
SOLID
  5
DD1
330
1F
100
AcDbEntity
  8
SUNPO
 62
   144
100
AcDbTrace
 10
1703.368123347124
 20
2434.109009810825
 30
0.0
 11
1703.368123347124
 21
2417.442343144156
 31
0.0
 12
1653.368123347124
 22
2425.775676477491
 32
0.0
 13
1653.368123347124
 23
2425.775676477491
 33
0.0
  0
SOLID
  5
DD2
330
1F
100
AcDbEntity
  8
SUNPO
 62
   144
100
AcDbTrace
 10
1823.368123347125
 20
2434.109009810825
 30
0.0
 11
1823.368123347125
 21
2417.442343144156
 31
0.0
 12
1873.368123347125
 22
2425.775676477491
 32
0.0
 13
1873.368123347125
 23
2425.775676477491
 33
0.0
  0
TEXT
  5
DD4
330
1F
100
AcDbEntity
  8
SUNPO
100
AcDbText
 10
2505.717978409796
 20
353.7321492013123
 30
0.0
 40
100.0
  1
U_240
  7
ADD
100
AcDbText
1001
ACAD
1000
MTEXTBEGIN
1070
    73
1070
     1
1070
    44
1040
1.0
1070
    74
1070
     0
1000
MTEXTEND
1000
MTEXTBEGIN
1070
    73
1070
     1
1070
    44
1040
1.0
1070
    74
1070
     0
1000
MTEXTEND
  0
TEXT
  5
DD5
330
1F
100
AcDbEntity
  8
SUNPO
100
AcDbText
 10
615.8709773606532
 20
347.6182270735043
 30
0.0
 40
100.0
  1
道路用上ぶた式Ｕ形側溝
  7
ADD
100
AcDbText
1001
ACAD
1000
MTEXTBEGIN
1070
    73
1070
     1
1070
    44
1040
1.0
1070
    74
1070
     0
1000
MTEXTEND
1000
MTEXTBEGIN
1070
    73
1070
     1
1070
    44
1040
1.0
1070
    74
1070
     0
1000
MTEXTEND
  0
TEXT
  5
DD6
330
1F
100
AcDbEntity
  8
SUNPO
100
AcDbText
 10
3246.680311730542
 20
359.2274732162223
 30
0.0
 40
70.0
  1
１／２０
  7
ADD
100
AcDbText
1001
ACAD
1000
MTEXTBEGIN
1070
    73
1070
     1
1070
    44
1040
1.0
1070
    74
1070
     0
1000
MTEXTEND
1000
MTEXTBEGIN
1070
    73
1070
     1
1070
    44
1040
1.0
1070
    74
1070
     0
1000
MTEXTEND
1000
MTEXTBEGIN
1070
    73
1070
     1
1070
    44
1040
1.0
1070
    74
1070
     0
1000
MTEXTEND
1000
MTEXTBEGIN
1070
    73
1070
     1
1070
    44
1040
1.0
1070
    74
1070
     0
1000
MTEXTEND
1000
MTEXTBEGIN
1070
    73
1070
     1
1070
    44
1040
1.0
1070
    74
1070
     0
1000
MTEXTEND
1000
MTEXTBEGIN
1070
    73
1070
     1
1070
    44
1040
1.0
1070
    74
1070
     0
1000
MTEXTEND
1000
MTEXTBEGIN
1070
    73
1070
     1
1070
    44
1040
1.0
1070
    74
1070
     0
1000
MTEXTEND
  0
TEXT
  5
DD7
330
1F
100
AcDbEntity
  8
SUNPO
100
AcDbText
 10
381.8862574011546
 20
488.6918916770627
 30
0.0
 40
50.0
  1
製品名
  7
ADD
100
AcDbText
1001
ACAD
1000
MTEXTBEGIN
1070
    73
1070
     1
1070
    44
1040
1.0
1070
    74
1070
     0
1000
MTEXTEND
1000
MTEXTBEGIN
1070
    73
1070
     1
1070
    44
1040
1.0
1070
    74
1070
     0
1000
MTEXTEND
1000
MTEXTBEGIN
1070
    73
1070
     1
1070
    44
1040
1.0
1070
    74
1070
     0
1000
MTEXTEND
1000
MTEXTBEGIN
1070
    73
1070
     1
1070
    44
1040
1.0
1070
    74
1070
     0
1000
MTEXTEND
1000
MTEXTBEGIN
1070
    73
1070
     1
1070
    44
1040
1.0
1070
    74
1070
     0
1000
MTEXTEND
1000
MTEXTBEGIN
1070
    73
1070
     1
1070
    44
1040
1.0
1070
    74
1070
     0
1000
MTEXTEND
1000
MTEXTBEGIN
1070
    73
1070
     1
1070
    44
1040
1.0
1070
    74
1070
     0
1000
MTEXTEND
  0
TEXT
  5
DD8
330
1F
100
AcDbEntity
  8
SUNPO
100
AcDbText
 10
2376.290169028722
 20
494.4531736811823
 30
0.0
 40
50.0
  1
型式
  7
ADD
100
AcDbText
1001
ACAD
1000
MTEXTBEGIN
1070
    73
1070
     1
1070
    44
1040
1.0
1070
    74
1070
     0
1000
MTEXTEND
1000
MTEXTBEGIN
1070
    73
1070
     1
1070
    44
1040
1.0
1070
    74
1070
     0
1000
MTEXTEND
1000
MTEXTBEGIN
1070
    73
1070
     1
1070
    44
1040
1.0
1070
    74
1070
     0
1000
MTEXTEND
1000
MTEXTBEGIN
1070
    73
1070
     1
1070
    44
1040
1.0
1070
    74
1070
     0
1000
MTEXTEND
1000
MTEXTBEGIN
1070
    73
1070
     1
1070
    44
1040
1.0
1070
    74
1070
     0
1000
MTEXTEND
1000
MTEXTBEGIN
1070
    73
1070
     1
1070
    44
1040
1.0
1070
    74
1070
     0
1000
MTEXTEND
1000
MTEXTBEGIN
1070
    73
1070
     1
1070
    44
1040
1.0
1070
    74
1070
     0
1000
MTEXTEND
  0
TEXT
  5
DD9
330
1F
100
AcDbEntity
  8
SUNPO
100
AcDbText
 10
3177.510249231657
 20
488.6918916770627
 30
0.0
 40
50.0
  1
縮尺
  7
ADD
100
AcDbText
1001
ACAD
1000
MTEXTBEGIN
1070
    73
1070
     1
1070
    44
1040
1.0
1070
    74
1070
     0
1000
MTEXTEND
1000
MTEXTBEGIN
1070
    73
1070
     1
1070
    44
1040
1.0
1070
    74
1070
     0
1000
MTEXTEND
1000
MTEXTBEGIN
1070
    73
1070
     1
1070
    44
1040
1.0
1070
    74
1070
     0
1000
MTEXTEND
1000
MTEXTBEGIN
1070
    73
1070
     1
1070
    44
1040
1.0
1070
    74
1070
     0
1000
MTEXTEND
1000
MTEXTBEGIN
1070
    73
1070
     1
1070
    44
1040
1.0
1070
    74
1070
     0
1000
MTEXTEND
1000
MTEXTBEGIN
1070
    73
1070
     1
1070
    44
1040
1.0
1070
    74
1070
     0
1000
MTEXTEND
1000
MTEXTBEGIN
1070
    73
1070
     1
1070
    44
1040
1.0
1070
    74
1070
     0
1000
MTEXTEND
  0
TEXT
  5
DDA
330
1F
100
AcDbEntity
  8
SUNPO
100
AcDbText
 10
3730.870883051572
 20
352.2726133092144
 30
0.0
 40
100.0
  1
千葉県コンクリート製品協同組合
  7
ADD
100
AcDbText
1001
ACAD
1000
MTEXTBEGIN
1070
    73
1070
     1
1070
    44
1040
1.0
1070
    74
1070
     0
1000
MTEXTEND
1000
MTEXTBEGIN
1070
    73
1070
     1
1070
    44
1040
1.0
1070
    74
1070
     0
1000
MTEXTEND
1000
MTEXTBEGIN
1070
    73
1070
     1
1070
    44
1040
1.0
1070
    74
1070
     0
1000
MTEXTEND
1000
MTEXTBEGIN
1070
    73
1070
     1
1070
    44
1040
1.0
1070
    74
1070
     0
1000
MTEXTEND
1000
MTEXTBEGIN
1070
    73
1070
     1
1070
    44
1040
1.0
1070
    74
1070
     0
1000
MTEXTEND
1000
MTEXTBEGIN
1070
    73
1070
     1
1070
    44
1040
1.0
1070
    74
1070
     0
1000
MTEXTEND
1000
MTEXTBEGIN
1070
    73
1070
     1
1070
    44
1040
1.0
1070
    74
1070
     0
1000
MTEXTEND
  0
LINE
  5
DDB
330
1F
100
AcDbEntity
  8
HOJO
100
AcDbLine
 10
360.0
 20
260.0
 30
0.0
 11
5580.0
 21
260.0
 31
0.0
  0
LINE
  5
DDC
330
1F
100
AcDbEntity
  8
HOJO
100
AcDbLine
 10
5580.0
 20
260.0
 30
0.0
 11
5580.0
 21
3940.0
 31
0.0
  0
LINE
  5
DDD
330
1F
100
AcDbEntity
  8
HOJO
100
AcDbLine
 10
5580.0
 20
3940.0
 30
0.0
 11
360.0
 21
3940.0
 31
0.0
  0
LINE
  5
DDE
330
1F
100
AcDbEntity
  8
HOJO
100
AcDbLine
 10
360.0
 20
3940.0
 30
0.0
 11
360.0
 21
260.0
 31
0.0
  0
LINE
  5
DDF
330
1F
100
AcDbEntity
  8
HOJO
100
AcDbLine
 10
0.0
 20
0.0
 30
0.0
 11
5940.0
 21
0.0
 31
0.0
  0
LINE
  5
DE0
330
1F
100
AcDbEntity
  8
HOJO
100
AcDbLine
 10
5940.0
 20
0.0
 30
0.0
 11
5940.0
 21
4200.0
 31
0.0
  0
LINE
  5
DE1
330
1F
100
AcDbEntity
  8
HOJO
100
AcDbLine
 10
5940.0
 20
4200.0
 30
0.0
 11
0.0
 21
4200.0
 31
0.0
  0
LINE
  5
DE2
330
1F
100
AcDbEntity
  8
HOJO
100
AcDbLine
 10
0.0
 20
4200.0
 30
0.0
 11
0.0
 21
0.0
 31
0.0
  0
TEXT
  5
DE3
330
1F
100
AcDbEntity
  8
SUNPO
 62
     7
100
AcDbText
 10
1691.939551918554
 20
2438.275676477491
 30
0.0
 40
50.0
  1
220
  7
ADD
100
AcDbText
  0
TEXT
  5
DE4
330
1F
100
AcDbEntity
  8
SUNPO
 62
     7
100
AcDbText
 10
1689.620579678162
 20
2573.634092147587
 30
0.0
 40
50.0
  1
240
  7
ADD
100
AcDbText
  0
TEXT
  5
DE5
330
1F
100
AcDbEntity
  8
SUNPO
 62
     7
100
AcDbText
 10
1786.903938647712
 20
2194.354914272531
 30
0.0
 40
50.0
  1
240
 50
90.0
  7
ADD
100
AcDbText
  0
TEXT
  5
DE6
330
1F
100
AcDbEntity
  8
SUNPO
 62
     7
100
AcDbText
 10
1754.769838694804
 20
1999.397695665328
 30
0.0
 40
50.0
  1
50
 50
90.0
  7
ADD
100
AcDbText
  0
TEXT
  5
DE7
330
1F
100
AcDbEntity
  8
SUNPO
 62
     7
100
AcDbText
 10
1691.939551918554
 20
1936.317894397134
 30
0.0
 40
50.0
  1
240
  7
ADD
100
AcDbText
  0
TEXT
  5
DE8
330
1F
100
AcDbEntity
  8
SUNPO
 62
     7
100
AcDbText
 10
2083.568273270977
 20
2265.424156950833
 30
0.0
 40
50.0
  1
45°
 50
292.2530599000899
  7
ADD
100
AcDbText
  0
TEXT
  5
DE9
330
1F
100
AcDbEntity
  8
SUNPO
 62
     7
100
AcDbText
 10
3741.813314923618
 20
1979.49534777272
 30
0.0
 40
50.0
  1
600
  7
ADD
100
AcDbText
  0
TEXT
  5
DEA
330
1F
100
AcDbEntity
  8
SUNPO
 62
     7
100
AcDbText
 10
1496.932872311137
 20
1974.561564753718
 30
0.0
 40
50.0
  1
R50
 50
49.71470136507941
  7
ADD
100
AcDbText
  0
VIEWPORT
  5
72
330
1B
100
AcDbEntity
 67
     1
  8
0
100
AcDbViewport
 10
578.8914265011195
 20
308.2351889773414
 30
0.0
 40
1287.06613890523
 41
690.9223776620393
 68
     1
 69
     1
1001
ACAD
1000
MVIEW
1002
{
1070
    16
1010
0.0
1020
0.0
1030
0.0
1010
0.0
1020
0.0
1030
1.0
1040
0.0
1040
690.9223776620393
1040
578.8914265011195
1040
308.2351889773414
1040
50.0
1040
0.0
1040
0.0
1070
     0
1070
   100
1070
     1
1070
     1
1070
     0
1070
     0
1070
     0
1070
     0
1040
0.0
1040
0.0
1040
0.0
1040
10.0
1040
10.0
1040
10.0
1040
10.0
1070
     0
1002
{
1002
}
1002
}
  0
VIEWPORT
  5
74
330
1B
100
AcDbEntity
 67
     1
  8
VIEWPORT
100
AcDbViewport
 10
414.3779638919212
 20
277.3177265058034
 30
0.0
 40
840.0353682728887
 41
567.2285469943826
 68
     2
 69
     2
1001
ACAD
1000
MVIEW
1002
{
1070
    16
1010
0.0
1020
0.0
1030
0.0
1010
0.0
1020
0.0
1030
1.0
1040
0.0
1040
579.5583043546322
1040
424.4938908624541
1040
286.1973242720074
1040
50.0
1040
0.0
1040
0.0
1070
     0
1070
   100
1070
     1
1070
     1
1070
     0
1070
     0
1070
     0
1070
     0
1040
0.0
1040
0.0
1040
0.0
1040
10.0
1040
10.0
1040
10.0
1040
10.0
1070
     0
1002
{
1002
}
1002
}
  0
ENDSEC
  0
SECTION
  2
OBJECTS
  0
DICTIONARY
  5
C
330
0
100
AcDbDictionary
  3
ACAD_GROUP
350
D
  3
ACAD_LAYOUT
350
1A
  3
ACAD_MLINESTYLE
350
17
  3
ACAD_PLOTSETTINGS
350
19
  3
DWGPROPS
350
4C7
1001
ACAD
1000
TREAT_AS_HARD
1070
     0
1000
TREAT_AS_HARD
1070
     0
  0
DICTIONARY
  5
65D
330
1F
100
AcDbDictionary
  3
ACAD_LAYOUTSELFREF
350
E0C
1001
ACAD
1000
TREAT_AS_HARD
1070
     1
1000
TREAT_AS_HARD
1070
     0
  0
DICTIONARY
  5
65F
330
1B
100
AcDbDictionary
  3
ACAD_LAYOUTSELFREF
350
E0B
1001
ACAD
1000
TREAT_AS_HARD
1070
     1
1000
TREAT_AS_HARD
1070
     0
  0
DICTIONARY
  5
D
102
{ACAD_REACTORS
330
C
102
}
330
C
100
AcDbDictionary
1001
ACAD
1000
TREAT_AS_HARD
1070
     0
1000
TREAT_AS_HARD
1070
     0
  0
DICTIONARY
  5
1A
102
{ACAD_REACTORS
330
C
102
}
330
C
100
AcDbDictionary
1001
ACAD
1000
TREAT_AS_HARD
1070
     0
1000
TREAT_AS_HARD
1070
     0
  0
DICTIONARY
  5
17
102
{ACAD_REACTORS
330
C
102
}
330
C
100
AcDbDictionary
  3
STANDARD
350
18
1001
ACAD
1000
TREAT_AS_HARD
1070
     0
1000
TREAT_AS_HARD
1070
     0
  0
DICTIONARY
  5
19
102
{ACAD_REACTORS
330
C
102
}
330
C
100
AcDbDictionary
1001
ACAD
1000
TREAT_AS_HARD
1070
     0
1000
TREAT_AS_HARD
1070
     0
  0
XRECORD
  5
4C7
102
{ACAD_REACTORS
330
C
102
}
330
C
100
AcDbXrecord
  1
DWGPROPS COOKIE
  2
印刷用テスト
  3
AutoCAD2000による建築設計
  4
鈴木 裕二
  6

  7

  8
U2
  9

300
=
301
=
302
=
303
=
304
=
305
=
306
=
307
=
308
=
309
=
 40
0.7653446875
 41
2451285.4846114
 42
2451333.689743032
  1

 90
        0
  0
XRECORD
  5
E0C
102
{ACAD_REACTORS
330
65D
102
}
330
65D
100
AcDbXrecord
340
1F
  0
XRECORD
  5
E0B
102
{ACAD_REACTORS
330
65F
102
}
330
65F
100
AcDbXrecord
340
1B
  0
MLINESTYLE
  5
18
102
{ACAD_REACTORS
330
17
102
}
330
17
100
AcDbMlineStyle
  2
STANDARD
 70
     0
  3

 62
   256
 51
90.0
 52
90.0
 71
     2
 49
0.5
 62
   256
  6
BYLAYER
 49
-0.5
 62
   256
  6
BYLAYER
  0
ENDSEC
  0
EOF
