  0
SECTION
  2
HEADER
  9
$ACADVER
  1
AC1012
  9
$DWGCODEPAGE
  3
dos932
  9
$INSBASE
 10
0.0
 20
0.0
 30
0.0
  9
$EXTMIN
 10
-0.1812605841350887
 20
-0.1281640493871237
 30
-0.0015258207003583
  9
$EXTMAX
 10
5940.181288244414
 20
4200.128183607161
 30
0.0000000349246037
  9
$LIMMIN
 10
0.0
 20
0.0
  9
$LIMMAX
 10
5940.0
 20
4200.0
  9
$ORTHOMODE
 70
     0
  9
$REGENMODE
 70
     1
  9
$FILLMODE
 70
     1
  9
$QTEXTMODE
 70
     0
  9
$MIRRTEXT
 70
     0
  9
$DRAGMODE
 70
     2
  9
$LTSCALE
 40
10.0
  9
$OSMODE
 70
  3071
  9
$ATTMODE
 70
     1
  9
$TEXTSIZE
 40
50.0
  9
$TRACEWID
 40
300.0
  9
$TEXTSTYLE
  7
ADD
  9
$CLAYER
  8
3C1
  9
$CELTYPE
  6
BYLAYER
  9
$CECOLOR
 62
   256
  9
$CELTSCALE
 40
1.0
  9
$DELOBJ
 70
     1
  9
$DISPSILH
 70
     0
  9
$DIMSCALE
 40
20.0
  9
$DIMASZ
 40
2.5
  9
$DIMEXO
 40
1.0
  9
$DIMDLI
 40
7.0
  9
$DIMRND
 40
0.0
  9
$DIMDLE
 40
0.0
  9
$DIMEXE
 40
0.5
  9
$DIMTP
 40
0.0
  9
$DIMTM
 40
0.0
  9
$DIMTXT
 40
2.5
  9
$DIMCEN
 40
2.5
  9
$DIMTSZ
 40
0.0
  9
$DIMTOL
 70
     0
  9
$DIMLIM
 70
     0
  9
$DIMTIH
 70
     0
  9
$DIMTOH
 70
     0
  9
$DIMSE1
 70
     0
  9
$DIMSE2
 70
     0
  9
$DIMTAD
 70
     1
  9
$DIMZIN
 70
     8
  9
$DIMBLK
  1

  9
$DIMASO
 70
     1
  9
$DIMSHO
 70
     1
  9
$DIMPOST
  1

  9
$DIMAPOST
  1

  9
$DIMALT
 70
     0
  9
$DIMALTD
 70
     3
  9
$DIMALTF
 40
0.03937007874016
  9
$DIMLFAC
 40
1.0
  9
$DIMTOFL
 70
     1
  9
$DIMTVP
 40
0.7
  9
$DIMTIX
 70
     0
  9
$DIMSOXD
 70
     0
  9
$DIMSAH
 70
     0
  9
$DIMBLK1
  1

  9
$DIMBLK2
  1

  9
$DIMSTYLE
  2
ADD
  9
$DIMCLRD
 70
   144
  9
$DIMCLRE
 70
   144
  9
$DIMCLRT
 70
     7
  9
$DIMTFAC
 40
1.0
  9
$DIMGAP
 40
0.625
  9
$DIMJUST
 70
     0
  9
$DIMSD1
 70
     0
  9
$DIMSD2
 70
     0
  9
$DIMTOLJ
 70
     2
  9
$DIMTZIN
 70
     8
  9
$DIMALTZ
 70
     0
  9
$DIMALTTZ
 70
     0
  9
$DIMFIT
 70
     3
  9
$DIMUPT
 70
     0
  9
$DIMUNIT
 70
     2
  9
$DIMDEC
 70
     0
  9
$DIMTDEC
 70
     0
  9
$DIMALTU
 70
     2
  9
$DIMALTTD
 70
     3
  9
$DIMTXSTY
  7
ADD
  9
$DIMAUNIT
 70
     0
  9
$LUNITS
 70
     2
  9
$LUPREC
 70
     4
  9
$SKETCHINC
 40
1.0
  9
$FILLETRAD
 40
50.0
  9
$AUNITS
 70
     0
  9
$AUPREC
 70
     1
  9
$MENU
  1
.
  9
$ELEVATION
 40
0.0
  9
$PELEVATION
 40
0.0
  9
$THICKNESS
 40
0.0
  9
$LIMCHECK
 70
     0
  9
$BLIPMODE
 70
     0
  9
$CHAMFERA
 40
40.0
  9
$CHAMFERB
 40
40.0
  9
$CHAMFERC
 40
20.0
  9
$CHAMFERD
 40
0.0
  9
$SKPOLY
 70
     0
  9
$TDCREATE
 40
2451801.142532870
  9
$TDUPDATE
 40
2452207.592275971
  9
$TDINDWG
 40
0.2612952546
  9
$TDUSRTIMER
 40
0.2612950231
  9
$USRTIMER
 70
     1
  9
$ANGBASE
 50
0.0
  9
$ANGDIR
 70
     0
  9
$PDMODE
 70
    34
  9
$PDSIZE
 40
0.0
  9
$PLINEWID
 40
0.0
  9
$COORDS
 70
     1
  9
$SPLFRAME
 70
     0
  9
$SPLINETYPE
 70
     6
  9
$SPLINESEGS
 70
     8
  9
$ATTDIA
 70
     0
  9
$ATTREQ
 70
     1
  9
$HANDLING
 70
-16383
  9
$HANDSEED
  5
FD0
  9
$SURFTAB1
 70
     6
  9
$SURFTAB2
 70
     6
  9
$SURFTYPE
 70
     6
  9
$SURFU
 70
     6
  9
$SURFV
 70
     6
  9
$UCSNAME
  2

  9
$UCSORG
 10
0.0
 20
0.0
 30
0.0
  9
$UCSXDIR
 10
1.0
 20
0.0
 30
0.0
  9
$UCSYDIR
 10
0.0
 20
1.0
 30
0.0
  9
$PUCSNAME
  2

  9
$PUCSORG
 10
0.0
 20
0.0
 30
0.0
  9
$PUCSXDIR
 10
1.0
 20
0.0
 30
0.0
  9
$PUCSYDIR
 10
0.0
 20
1.0
 30
0.0
  9
$USERI1
 70
     0
  9
$USERI2
 70
     0
  9
$USERI3
 70
     0
  9
$USERI4
 70
     0
  9
$USERI5
 70
     0
  9
$USERR1
 40
841.0
  9
$USERR2
 40
594.0
  9
$USERR3
 40
1.0
  9
$USERR4
 40
0.0
  9
$USERR5
 40
0.0
  9
$WORLDVIEW
 70
     1
  9
$SHADEDGE
 70
     3
  9
$SHADEDIF
 70
    70
  9
$TILEMODE
 70
     1
  9
$MAXACTVP
 70
    48
  9
$PINSBASE
 10
0.0
 20
0.0
 30
0.0
  9
$PLIMCHECK
 70
     0
  9
$PEXTMIN
 10
-5.639720244523232
 20
-6.296546991387912
 30
0.0
  9
$PEXTMAX
 10
834.3956480283653
 20
560.9320000029946
 30
0.0
  9
$PLIMMIN
 10
-7.5
 20
-20.0
  9
$PLIMMAX
 10
833.5000000000004
 20
574.0000000000001
  9
$UNITMODE
 70
     0
  9
$VISRETAIN
 70
     1
  9
$PLINEGEN
 70
     0
  9
$PSLTSCALE
 70
     1
  9
$TREEDEPTH
 70
  3020
  9
$PICKSTYLE
 70
     1
  9
$CMLSTYLE
  2
STANDARD
  9
$CMLJUST
 70
     0
  9
$CMLSCALE
 40
20.0
  9
$SAVEIMAGES
 70
     1
  0
ENDSEC
  0
SECTION
  2
CLASSES
  0
CLASS
  1
ACDBDICTIONARYWDFLT
  2
AcDbDictionaryWithDefault
  3
AutoCAD 2000
 90
    32768
280
     0
281
     0
  0
CLASS
  1
ACDBPLACEHOLDER
  2
AcDbPlaceHolder
  3
AutoCAD 2000
 90
    32768
280
     0
281
     0
  0
CLASS
  1
LAYOUT
  2
AcDbLayout
  3
AutoCAD 2000
 90
    32768
280
     0
281
     0
  0
CLASS
  1
RTEXT
  2
RText
  3
RText|AutoCAD Express Tool|expresstools@autodesk.com
 90
    32768
280
     0
281
     1
  0
CLASS
  1
DICTIONARYVAR
  2
AcDbDictionaryVar
  3
AutoCAD 2000
 90
    32768
280
     0
281
     0
  0
CLASS
  1
LONG_TRANSACTION
  2
AcDbLongTransaction
  3
AutoCAD 2000
 90
    32768
280
     0
281
     0
  0
CLASS
  1
LWPOLYLINE
  2
AcDbPolyline
  3
AutoCAD 2000
 90
    32768
280
     0
281
     1
  0
CLASS
  1
HATCH
  2
AcDbHatch
  3
AutoCAD 2000
 90
    32768
280
     0
281
     1
  0
CLASS
  1
XRECORD
  2
AcDbXrecord
  3
AutoCAD 2000
 90
    32768
280
     0
281
     0
  0
CLASS
  1
LONG_TRANSACTION
  2
AcDbLongTransaction
  3
AutoCAD 2000
 90
    32768
280
     0
281
     0
  0
CLASS
  1
LWPOLYLINE
  2
AcDbPolyline
  3
AutoCAD 2000
 90
    32768
280
     0
281
     1
  0
CLASS
  1
HATCH
  2
AcDbHatch
  3
AutoCAD 2000
 90
    32768
280
     0
281
     1
  0
CLASS
  1
XRECORD
  2
AcDbXrecord
  3
AutoCAD 2000
 90
    32768
280
     0
281
     0
  0
CLASS
  1
LONG_TRANSACTION
  2
AcDbLongTransaction
  3
AutoCAD 2000
 90
    32768
280
     0
281
     0
  0
CLASS
  1
LWPOLYLINE
  2
AcDbPolyline
  3
AutoCAD 2000
 90
    32768
280
     0
281
     1
  0
CLASS
  1
HATCH
  2
AcDbHatch
  3
AutoCAD 2000
 90
    32768
280
     0
281
     1
  0
CLASS
  1
XRECORD
  2
AcDbXrecord
  3
AutoCAD 2000
 90
    32768
280
     0
281
     0
  0
CLASS
  1
LONG_TRANSACTION
  2
AcDbLongTransaction
  3
AutoCAD 2000
 90
    32768
280
     0
281
     0
  0
CLASS
  1
LWPOLYLINE
  2
AcDbPolyline
  3
AutoCAD 2000
 90
    32768
280
     0
281
     1
  0
CLASS
  1
HATCH
  2
AcDbHatch
  3
AutoCAD 2000
 90
    32768
280
     0
281
     1
  0
CLASS
  1
XRECORD
  2
AcDbXrecord
  3
AutoCAD 2000
 90
    32768
280
     0
281
     0
  0
CLASS
  1
LONG_TRANSACTION
  2
AcDbLongTransaction
  3
AutoCAD 2000
 90
    32768
280
     0
281
     0
  0
CLASS
  1
LWPOLYLINE
  2
AcDbPolyline
  3
AutoCAD 2000
 90
    32768
280
     0
281
     1
  0
CLASS
  1
HATCH
  2
AcDbHatch
  3
AutoCAD 2000
 90
    32768
280
     0
281
     1
  0
CLASS
  1
XRECORD
  2
AcDbXrecord
  3
AutoCAD 2000
 90
    32768
280
     0
281
     0
  0
CLASS
  1
LONG_TRANSACTION
  2
AcDbLongTransaction
  3
AutoCAD 2000
 90
    32768
280
     0
281
     0
  0
CLASS
  1
LWPOLYLINE
  2
AcDbPolyline
  3
AutoCAD 2000
 90
    32768
280
     0
281
     1
  0
CLASS
  1
HATCH
  2
AcDbHatch
  3
AutoCAD 2000
 90
    32768
280
     0
281
     1
  0
CLASS
  1
XRECORD
  2
AcDbXrecord
  3
AutoCAD 2000
 90
    32768
280
     0
281
     0
  0
CLASS
  1
LONG_TRANSACTION
  2
AcDbLongTransaction
  3
AutoCAD 2000
 90
    32768
280
     0
281
     0
  0
CLASS
  1
LWPOLYLINE
  2
AcDbPolyline
  3
AutoCAD 2000
 90
    32768
280
     0
281
     1
  0
CLASS
  1
HATCH
  2
AcDbHatch
  3
AutoCAD 2000
 90
    32768
280
     0
281
     1
  0
CLASS
  1
XRECORD
  2
AcDbXrecord
  3
AutoCAD 2000
 90
    32768
280
     0
281
     0
  0
CLASS
  1
LONG_TRANSACTION
  2
AcDbLongTransaction
  3
AutoCAD 2000
 90
    32768
280
     0
281
     0
  0
CLASS
  1
LWPOLYLINE
  2
AcDbPolyline
  3
AutoCAD 2000
 90
    32768
280
     0
281
     1
  0
CLASS
  1
HATCH
  2
AcDbHatch
  3
AutoCAD 2000
 90
    32768
280
     0
281
     1
  0
CLASS
  1
XRECORD
  2
AcDbXrecord
  3
AutoCAD 2000
 90
    32768
280
     0
281
     0
  0
CLASS
  1
LONG_TRANSACTION
  2
AcDbLongTransaction
  3
AutoCAD 2000
 90
    32768
280
     0
281
     0
  0
CLASS
  1
LWPOLYLINE
  2
AcDbPolyline
  3
AutoCAD 2000
 90
    32768
280
     0
281
     1
  0
CLASS
  1
HATCH
  2
AcDbHatch
  3
AutoCAD 2000
 90
    32768
280
     0
281
     1
  0
CLASS
  1
XRECORD
  2
AcDbXrecord
  3
AutoCAD 2000
 90
    32768
280
     0
281
     0
  0
ENDSEC
  0
SECTION
  2
TABLES
  0
TABLE
  2
VPORT
  5
8
330
0
100
AcDbSymbolTable
 70
     2
  0
VPORT
  5
FC0
330
8
100
AcDbSymbolTableRecord
100
AcDbViewportTableRecord
  2
*ACTIVE
 70
     0
 10
0.0
 20
0.0
 11
1.0
 21
1.0
 12
2970.000013830138
 22
2100.000009778886
 13
0.0
 23
0.0
 14
10.0
 24
10.0
 15
10.0
 25
10.0
 16
0.0
 26
0.0
 36
1.0
 17
0.0
 27
0.0
 37
0.0
 40
4249.286577395729
 41
1.84990253411306
 42
50.0
 43
0.0
 44
0.0
 50
0.0
 51
0.0
 71
     0
 72
   100
 73
     1
 74
     1
 75
     0
 76
     0
 77
     0
 78
     0
  0
ENDTAB
  0
TABLE
  2
LTYPE
  5
5
330
0
100
AcDbSymbolTable
 70
     5
  0
LTYPE
  5
14
330
5
100
AcDbSymbolTableRecord
100
AcDbLinetypeTableRecord
  2
BYBLOCK
 70
     0
  3

 72
    65
 73
     0
 40
0.0
  0
LTYPE
  5
15
330
5
100
AcDbSymbolTableRecord
100
AcDbLinetypeTableRecord
  2
BYLAYER
 70
     0
  3

 72
    65
 73
     0
 40
0.0
  0
LTYPE
  5
16
330
5
100
AcDbSymbolTableRecord
100
AcDbLinetypeTableRecord
  2
CONTINUOUS
 70
     0
  3
Solid line
 72
    65
 73
     0
 40
0.0
  0
LTYPE
  5
555
330
5
100
AcDbSymbolTableRecord
100
AcDbLinetypeTableRecord
  2
CENTER
 70
     0
  3
Center ____ _ ____ _ ____ _ ____ _ ____ _ ____
 72
    65
 73
     4
 40
50.8
 49
31.75
 74
     0
 49
-6.349999999999998
 74
     0
 49
6.349999999999998
 74
     0
 49
-6.349999999999998
 74
     0
  0
LTYPE
  5
556
330
5
100
AcDbSymbolTableRecord
100
AcDbLinetypeTableRecord
  2
HIDDEN
 70
     0
  3
Hidden __ __ __ __ __ __ __ __ __ __ __ __ __ _
 72
    65
 73
     2
 40
9.524999999999996
 49
6.349999999999998
 74
     0
 49
-3.174999999999998
 74
     0
  0
LTYPE
  5
557
330
5
100
AcDbSymbolTableRecord
100
AcDbLinetypeTableRecord
  2
HIDDEN2
 70
     0
  3
Hidden (.5x) _ _ _ _ _ _ _ _ _ _ _ _ _ _ _ _ _
 72
    65
 73
     2
 40
4.762499999999998
 49
3.174999999999998
 74
     0
 49
-1.587499999999999
 74
     0
  0
LTYPE
  5
558
330
5
100
AcDbSymbolTableRecord
100
AcDbLinetypeTableRecord
  2
PHANTOM
 70
     0
  3
Phantom ______  __  __  ______  __  __  ______
 72
    65
 73
     6
 40
63.5
 49
31.75
 74
     0
 49
-6.349999999999998
 74
     0
 49
6.349999999999998
 74
     0
 49
-6.349999999999998
 74
     0
 49
6.349999999999998
 74
     0
 49
-6.349999999999998
 74
     0
  0
ENDTAB
  0
TABLE
  2
LAYER
  5
2
330
0
100
AcDbSymbolTable
 70
    22
  0
LAYER
  5
10
330
2
100
AcDbSymbolTableRecord
100
AcDbLayerTableRecord
  2
0
 70
     0
 62
     7
  6
CONTINUOUS
  0
LAYER
  5
75
330
2
100
AcDbSymbolTableRecord
100
AcDbLayerTableRecord
  2
VIEWPORT
 70
     0
 62
     1
  6
CONTINUOUS
  0
LAYER
  5
504
330
2
100
AcDbSymbolTableRecord
100
AcDbLayerTableRecord
  2
DEFPOINTS
 70
     0
 62
     6
  6
CONTINUOUS
  0
LAYER
  5
505
330
2
100
AcDbSymbolTableRecord
100
AcDbLayerTableRecord
  2
1C1
 70
     0
 62
   254
  6
CONTINUOUS
  0
LAYER
  5
506
330
2
100
AcDbSymbolTableRecord
100
AcDbLayerTableRecord
  2
1C2
 70
     0
 62
   254
  6
CONTINUOUS
  0
LAYER
  5
507
330
2
100
AcDbSymbolTableRecord
100
AcDbLayerTableRecord
  2
2C1
 70
     0
 62
   144
  6
CONTINUOUS
  0
LAYER
  5
508
330
2
100
AcDbSymbolTableRecord
100
AcDbLayerTableRecord
  2
2C2
 70
     0
 62
   144
  6
CONTINUOUS
  0
LAYER
  5
509
330
2
100
AcDbSymbolTableRecord
100
AcDbLayerTableRecord
  2
2H1
 70
     0
 62
   144
  6
HIDDEN
  0
LAYER
  5
50A
330
2
100
AcDbSymbolTableRecord
100
AcDbLayerTableRecord
  2
2H2
 70
     0
 62
   144
  6
HIDDEN2
  0
LAYER
  5
50B
330
2
100
AcDbSymbolTableRecord
100
AcDbLayerTableRecord
  2
2P1
 70
     0
 62
   144
  6
PHANTOM
  0
LAYER
  5
50C
330
2
100
AcDbSymbolTableRecord
100
AcDbLayerTableRecord
  2
3C1
 70
     0
 62
     7
  6
CONTINUOUS
  0
LAYER
  5
50D
330
2
100
AcDbSymbolTableRecord
100
AcDbLayerTableRecord
  2
3C2
 70
     0
 62
     7
  6
CONTINUOUS
  0
LAYER
  5
50E
330
2
100
AcDbSymbolTableRecord
100
AcDbLayerTableRecord
  2
3C3
 70
     0
 62
     7
  6
CONTINUOUS
  0
LAYER
  5
50F
330
2
100
AcDbSymbolTableRecord
100
AcDbLayerTableRecord
  2
4H1
 70
     0
 62
     6
  6
HIDDEN
  0
LAYER
  5
510
330
2
100
AcDbSymbolTableRecord
100
AcDbLayerTableRecord
  2
4H2
 70
     0
 62
     6
  6
HIDDEN2
  0
LAYER
  5
511
330
2
100
AcDbSymbolTableRecord
100
AcDbLayerTableRecord
  2
5C1
 70
     0
 62
    55
  6
CONTINUOUS
  0
LAYER
  5
512
330
2
100
AcDbSymbolTableRecord
100
AcDbLayerTableRecord
  2
5C2
 70
     0
 62
    55
  6
CONTINUOUS
  0
LAYER
  5
513
330
2
100
AcDbSymbolTableRecord
100
AcDbLayerTableRecord
  2
8C1
 70
     0
 62
    92
  6
CONTINUOUS
  0
LAYER
  5
514
330
2
100
AcDbSymbolTableRecord
100
AcDbLayerTableRecord
  2
HOJO
 70
     0
 62
     5
  6
CONTINUOUS
  0
LAYER
  5
515
330
2
100
AcDbSymbolTableRecord
100
AcDbLayerTableRecord
  2
KIJUN
 70
     0
 62
     1
  6
CENTER
  0
LAYER
  5
516
330
2
100
AcDbSymbolTableRecord
100
AcDbLayerTableRecord
  2
MOJI
 70
     0
 62
     7
  6
CONTINUOUS
  0
LAYER
  5
517
330
2
100
AcDbSymbolTableRecord
100
AcDbLayerTableRecord
  2
SUNPO
 70
     0
 62
   144
  6
CONTINUOUS
  0
ENDTAB
  0
TABLE
  2
STYLE
  5
3
330
0
100
AcDbSymbolTable
 70
     6
  0
STYLE
  5
11
330
3
100
AcDbSymbolTableRecord
100
AcDbTextStyleTableRecord
  2
STANDARD
 70
     0
 40
0.0
 41
1.0
 50
0.0
 71
     0
 42
2.5
  3
txt
  4

  0
STYLE
  5
2C
330
3
100
AcDbSymbolTableRecord
100
AcDbTextStyleTableRecord
  2

 70
     1
 40
0.0
 41
1.0
 50
0.0
 71
     0
 42
2.5
  3
ltypeshp.shx
  4

  0
STYLE
  5
18E
330
3
100
AcDbSymbolTableRecord
100
AcDbTextStyleTableRecord
  2
ADD
 70
     0
 40
0.0
 41
1.0
 50
0.0
 71
     0
 42
50.0
  3
romans.shx
  4
bigfont.shx
  0
STYLE
  5
191
330
3
100
AcDbSymbolTableRecord
100
AcDbTextStyleTableRecord
  2
MSG
 70
     0
 40
0.0
 41
1.0
 50
0.0
 71
     0
 42
2.5
  3
MS Gothic.ttf
  4

1001
ACAD
1000
MS Gothic
1071
    32817
  0
STYLE
  5
5C8
330
3
100
AcDbSymbolTableRecord
100
AcDbTextStyleTableRecord
  2
STANDARD15
 70
     0
 40
0.0
 41
1.0
 50
15.0
 71
     0
 42
2.5
  3
ROMANS
  4
bigfont
  0
STYLE
  5
5C9
330
3
100
AcDbSymbolTableRecord
100
AcDbTextStyleTableRecord
  2
ROMANS15
 70
     0
 40
0.0
 41
1.0
 50
15.0
 71
     0
 42
2.5
  3
romans
  4

  0
ENDTAB
  0
TABLE
  2
VIEW
  5
6
330
0
100
AcDbSymbolTable
 70
     1
  0
VIEW
  5
54D
330
6
100
AcDbSymbolTableRecord
100
AcDbViewTableRecord
  2
ALL
 70
     0
 40
594.0
 10
420.5
 20
297.0
 41
865.125
 11
0.0
 21
0.0
 31
1.0
 12
0.0
 22
0.0
 32
0.0
 42
50.0
 43
0.0
 44
0.0
 50
0.0
 71
     0
  0
ENDTAB
  0
TABLE
  2
UCS
  5
7
330
0
100
AcDbSymbolTable
 70
     0
  0
ENDTAB
  0
TABLE
  2
APPID
  5
9
330
0
100
AcDbSymbolTable
 70
     4
  0
APPID
  5
12
330
9
100
AcDbSymbolTableRecord
100
AcDbRegAppTableRecord
  2
ACAD
 70
     0
  0
APPID
  5
5CB
330
9
100
AcDbSymbolTableRecord
100
AcDbRegAppTableRecord
  2
ARAIGUMI_YOHEKI
 70
     0
  0
APPID
  5
5CC
330
9
100
AcDbSymbolTableRecord
100
AcDbRegAppTableRecord
  2
CONTENTTABDATA
 70
     0
  0
APPID
  5
5CD
330
9
100
AcDbSymbolTableRecord
100
AcDbRegAppTableRecord
  2
CONTENTCURRENTTAB
 70
     0
  0
ENDTAB
  0
TABLE
  2
DIMSTYLE
  5
A
330
0
100
AcDbSymbolTable
 70
    10
  0
DIMSTYLE
105
27
330
A
100
AcDbSymbolTableRecord
100
AcDbDimStyleTableRecord
  2
ISO-25
 70
     0
  3

  4

  5

  6

  7

 40
1.0
 41
2.5
 42
0.625
 43
3.75
 44
1.25
 45
0.0
 46
0.0
 47
0.0
 48
0.0
140
2.5
141
2.5
142
0.0
143
0.03937007874016
144
1.0
145
0.0
146
1.0
147
0.625
 71
     0
 72
     0
 73
     0
 74
     0
 75
     0
 76
     0
 77
     1
 78
     8
170
     0
171
     3
172
     1
173
     0
174
     0
175
     0
176
     0
177
     0
178
     0
270
     2
271
     2
272
     2
273
     2
274
     3
340
11
275
     0
280
     0
281
     0
282
     0
283
     0
284
     8
285
     0
286
     0
287
     3
288
     0
  0
DIMSTYLE
105
197
330
A
100
AcDbSymbolTableRecord
100
AcDbDimStyleTableRecord
  2
ADD
 70
     0
  3

  4

  5

  6

  7

 40
1.0
 41
2.5
 42
1.0
 43
7.0
 44
0.5
 45
0.0
 46
0.0
 47
0.0
 48
0.0
140
2.5
141
2.5
142
0.0
143
0.03937007874016
144
1.0
145
0.7
146
1.0
147
0.625
 71
     0
 72
     0
 73
     0
 74
     0
 75
     0
 76
     0
 77
     1
 78
     8
170
     0
171
     3
172
     1
173
     0
174
     1
175
     0
176
   144
177
   144
178
     7
270
     2
271
     1
272
     1
273
     2
274
     3
340
18E
275
     0
280
     0
281
     0
282
     0
283
     2
284
     8
285
     0
286
     0
287
     3
288
     0
  0
DIMSTYLE
105
3E6
330
A
100
AcDbSymbolTableRecord
100
AcDbDimStyleTableRecord
  2
ADD$2
 70
     0
  3

  4

  5

  6

  7

 40
1.0
 41
2.5
 42
1.0
 43
7.0
 44
0.5
 45
0.0
 46
0.0
 47
0.0
 48
0.0
140
2.5
141
2.5
142
0.0
143
0.03937007874016
144
1.0
145
0.7
146
1.0
147
0.625
 71
     0
 72
     0
 73
     0
 74
     0
 75
     0
 76
     0
 77
     1
 78
     8
170
     0
171
     3
172
     1
173
     0
174
     1
175
     0
176
   144
177
   144
178
     7
270
     2
271
     1
272
     1
273
     2
274
     3
340
18E
275
     0
280
     0
281
     0
282
     0
283
     2
284
     8
285
     0
286
     0
287
     3
288
     0
  0
DIMSTYLE
105
3E7
330
A
100
AcDbSymbolTableRecord
100
AcDbDimStyleTableRecord
  2
ADD$4
 70
     0
  3

  4

  5

  6

  7

 40
1.0
 41
2.5
 42
1.0
 43
7.0
 44
0.5
 45
0.0
 46
0.0
 47
0.0
 48
0.0
140
2.5
141
2.5
142
0.0
143
0.03937007874016
144
1.0
145
0.0
146
1.0
147
0.625
 71
     0
 72
     0
 73
     0
 74
     0
 75
     0
 76
     0
 77
     1
 78
     8
170
     0
171
     3
172
     1
173
     0
174
     1
175
     0
176
   144
177
   144
178
     7
270
     2
271
     1
272
     1
273
     2
274
     3
340
18E
275
     0
280
     0
281
     0
282
     0
283
     2
284
     8
285
     0
286
     0
287
     3
288
     0
  0
DIMSTYLE
105
3E8
330
A
100
AcDbSymbolTableRecord
100
AcDbDimStyleTableRecord
  2
ADD$3
 70
     0
  3

  4

  5

  6

  7

 40
1.0
 41
2.5
 42
1.0
 43
7.0
 44
0.5
 45
0.0
 46
0.0
 47
0.0
 48
0.0
140
2.5
141
2.5
142
0.0
143
0.03937007874016
144
1.0
145
0.0
146
1.0
147
0.625
 71
     0
 72
     0
 73
     0
 74
     0
 75
     0
 76
     0
 77
     1
 78
     8
170
     0
171
     3
172
     1
173
     0
174
     1
175
     0
176
   144
177
   144
178
     7
270
     2
271
     1
272
     1
273
     2
274
     3
340
18E
275
     0
280
     0
281
     0
282
     0
283
     2
284
     8
285
     0
286
     0
287
     3
288
     0
  0
DIMSTYLE
105
3E9
330
A
100
AcDbSymbolTableRecord
100
AcDbDimStyleTableRecord
  2
ADD$6
 70
     0
  3

  4

  5

  6

  7

 40
1.0
 41
2.5
 42
1.0
 43
7.0
 44
0.5
 45
0.0
 46
0.0
 47
0.0
 48
0.0
140
2.5
141
2.5
142
0.0
143
0.03937007874016
144
1.0
145
0.0
146
1.0
147
0.625
 71
     0
 72
     0
 73
     0
 74
     0
 75
     0
 76
     0
 77
     1
 78
     8
170
     0
171
     3
172
     1
173
     0
174
     1
175
     0
176
   144
177
   144
178
     7
270
     2
271
     1
272
     1
273
     2
274
     3
340
18E
275
     0
280
     0
281
     0
282
     0
283
     2
284
     8
285
     0
286
     0
287
     3
288
     0
  0
DIMSTYLE
105
3EA
330
A
100
AcDbSymbolTableRecord
100
AcDbDimStyleTableRecord
  2
ADD$7
 70
     0
  3

  4

  5

  6

  7

 40
1.0
 41
2.5
 42
1.0
 43
7.0
 44
0.5
 45
0.0
 46
0.0
 47
0.0
 48
0.0
140
2.5
141
2.5
142
0.0
143
0.03937007874016
144
1.0
145
0.0
146
1.0
147
0.625
 71
     0
 72
     0
 73
     0
 74
     0
 75
     0
 76
     0
 77
     0
 78
     8
170
     0
171
     3
172
     1
173
     0
174
     1
175
     0
176
   144
177
   144
178
     7
270
     2
271
     1
272
     1
273
     2
274
     3
340
18E
275
     0
280
     0
281
     0
282
     0
283
     2
284
     8
285
     0
286
     0
287
     3
288
     0
  0
DIMSTYLE
105
518
330
A
100
AcDbSymbolTableRecord
100
AcDbDimStyleTableRecord
  2
STANDARD
 70
     0
  3

  4

  5

  6

  7

 40
1.0
 41
0.18
 42
0.0625
 43
0.38
 44
0.18
 45
0.0
 46
0.0
 47
0.0
 48
0.0
140
0.18
141
0.09
142
0.0
143
25.4
144
1.0
145
0.0
146
1.0
147
0.09
 71
     0
 72
     0
 73
     1
 74
     1
 75
     0
 76
     0
 77
     0
 78
     0
170
     0
171
     2
172
     0
173
     0
174
     0
175
     0
176
     0
177
     0
178
     0
270
     2
271
     4
272
     4
273
     2
274
     2
340
11
275
     0
280
     0
281
     0
282
     0
283
     1
284
     0
285
     0
286
     0
287
     3
288
     0
  0
DIMSTYLE
105
550
330
A
100
AcDbSymbolTableRecord
100
AcDbDimStyleTableRecord
  2
ADD$0
 70
     0
  3

  4

  5

  6

  7

 40
1.0
 41
2.5
 42
1.0
 43
7.0
 44
0.5
 45
0.0
 46
0.0
 47
0.0
 48
0.0
140
2.5
141
2.5
142
0.0
143
0.03937007874016
144
1.0
145
0.7
146
1.0
147
0.625
 71
     0
 72
     0
 73
     0
 74
     0
 75
     0
 76
     0
 77
     1
 78
     8
170
     0
171
     3
172
     1
173
     0
174
     1
175
     0
176
   144
177
   144
178
     7
270
     2
271
     1
272
     1
273
     2
274
     3
340
18E
275
     0
280
     0
281
     0
282
     0
283
     2
284
     8
285
     0
286
     0
287
     3
288
     0
  0
DIMSTYLE
105
59B
330
A
100
AcDbSymbolTableRecord
100
AcDbDimStyleTableRecord
  2
ADD_M
 70
     0
  3

  4

  5

  6

  7

 40
1.0
 41
2.5
 42
1.0
 43
7.0
 44
0.5
 45
0.0
 46
0.0
 47
0.0
 48
0.0
140
2.5
141
2.5
142
0.0
143
0.03937007874016
144
1.0
145
0.7
146
1.0
147
0.625
 71
     0
 72
     0
 73
     0
 74
     0
 75
     0
 76
     0
 77
     1
 78
     8
170
     0
171
     3
172
     1
173
     0
174
     1
175
     0
176
   144
177
   144
178
     7
270
     2
271
     1
272
     1
273
     2
274
     3
340
18E
275
     0
280
     0
281
     0
282
     0
283
     2
284
     8
285
     0
286
     0
287
     3
288
     0
  0
ENDTAB
  0
TABLE
  2
BLOCK_RECORD
  5
1
330
0
100
AcDbSymbolTable
 70
    11
  0
BLOCK_RECORD
  5
1F
102
{ACAD_XDICTIONARY
360
65D
102
}
330
1
100
AcDbSymbolTableRecord
100
AcDbBlockTableRecord
  2
*MODEL_SPACE
  0
BLOCK_RECORD
  5
1B
102
{ACAD_XDICTIONARY
360
65F
102
}
330
1
100
AcDbSymbolTableRecord
100
AcDbBlockTableRecord
  2
*PAPER_SPACE
  0
BLOCK_RECORD
  5
192
330
1
100
AcDbSymbolTableRecord
100
AcDbBlockTableRecord
  2
_DOT
  0
BLOCK_RECORD
  5
5CE
330
1
100
AcDbSymbolTableRecord
100
AcDbBlockTableRecord
  2
A4
  0
BLOCK_RECORD
  5
CE0
330
1
100
AcDbSymbolTableRecord
100
AcDbBlockTableRecord
  2
*D2
  0
BLOCK_RECORD
  5
CED
330
1
100
AcDbSymbolTableRecord
100
AcDbBlockTableRecord
  2
*D3
  0
BLOCK_RECORD
  5
CFC
330
1
100
AcDbSymbolTableRecord
100
AcDbBlockTableRecord
  2
*D4
  0
BLOCK_RECORD
  5
D09
330
1
100
AcDbSymbolTableRecord
100
AcDbBlockTableRecord
  2
*D5
  0
BLOCK_RECORD
  5
D92
330
1
100
AcDbSymbolTableRecord
100
AcDbBlockTableRecord
  2
*D6
  0
BLOCK_RECORD
  5
DA7
330
1
100
AcDbSymbolTableRecord
100
AcDbBlockTableRecord
  2
*D7
  0
BLOCK_RECORD
  5
E49
330
1
100
AcDbSymbolTableRecord
100
AcDbBlockTableRecord
  2
*D8
  0
BLOCK_RECORD
  5
E5E
330
1
100
AcDbSymbolTableRecord
100
AcDbBlockTableRecord
  2
*D9
  0
BLOCK_RECORD
  5
E6A
330
1
100
AcDbSymbolTableRecord
100
AcDbBlockTableRecord
  2
*D10
  0
ENDTAB
  0
ENDSEC
  0
SECTION
  2
BLOCKS
  0
BLOCK
  5
20
330
1F
100
AcDbEntity
  8
0
100
AcDbBlockBegin
  2
*MODEL_SPACE
 70
     0
 10
0.0
 20
0.0
 30
0.0
  3
*MODEL_SPACE
  1

  0
ENDBLK
  5
21
330
1F
100
AcDbEntity
  8
0
100
AcDbBlockEnd
  0
BLOCK
  5
1C
330
1B
100
AcDbEntity
 67
     1
  8
0
100
AcDbBlockBegin
  2
*PAPER_SPACE
 70
     0
 10
0.0
 20
0.0
 30
0.0
  3
*PAPER_SPACE
  1

  0
ENDBLK
  5
1D
330
1B
100
AcDbEntity
 67
     1
  8
0
100
AcDbBlockEnd
  0
BLOCK
  5
195
330
192
100
AcDbEntity
  8
0
100
AcDbBlockBegin
  2
_DOT
 70
     0
 10
0.0
 20
0.0
 30
0.0
  3
_DOT
  1

  0
POLYLINE
  5
193
330
192
100
AcDbEntity
  8
0
 62
     0
100
AcDb2dPolyline
 66
     1
 10
0.0
 20
0.0
 30
0.0
 70
     1
 40
0.5
 41
0.5
  0
VERTEX
  5
FC3
330
193
100
AcDbEntity
  8
0
 62
     0
100
AcDbVertex
100
AcDb2dVertex
 10
-0.25
 20
0.0
 30
0.0
 42
1.0
  0
VERTEX
  5
FC4
330
193
100
AcDbEntity
  8
0
 62
     0
100
AcDbVertex
100
AcDb2dVertex
 10
0.25
 20
0.0
 30
0.0
 42
1.0
  0
SEQEND
  5
FC5
330
193
100
AcDbEntity
  8
0
 62
     0
  0
LINE
  5
194
330
192
100
AcDbEntity
  8
0
 62
     0
100
AcDbLine
 10
-0.5
 20
0.0
 30
0.0
 11
-1.0
 21
0.0
 31
0.0
  0
ENDBLK
  5
196
330
192
100
AcDbEntity
  8
0
100
AcDbBlockEnd
  0
BLOCK
  5
5D1
330
5CE
100
AcDbEntity
  8
0
100
AcDbBlockBegin
  2
A4
 70
     0
 10
0.0
 20
0.0
 30
0.0
  3
A4
  1

  0
POLYLINE
  5
5CF
330
5CE
100
AcDbEntity
  8
HOJO
100
AcDb2dPolyline
 66
     1
 10
0.0
 20
0.0
 30
0.0
 70
     1
  0
VERTEX
  5
FC6
330
5CF
100
AcDbEntity
  8
HOJO
100
AcDbVertex
100
AcDb2dVertex
 10
0.0
 20
0.0
 30
0.0
  0
VERTEX
  5
FC7
330
5CF
100
AcDbEntity
  8
HOJO
100
AcDbVertex
100
AcDb2dVertex
 10
297.0
 20
0.0
 30
0.0
  0
VERTEX
  5
FC8
330
5CF
100
AcDbEntity
  8
HOJO
100
AcDbVertex
100
AcDb2dVertex
 10
297.0
 20
210.0
 30
0.0
  0
VERTEX
  5
FC9
330
5CF
100
AcDbEntity
  8
HOJO
100
AcDbVertex
100
AcDb2dVertex
 10
0.0
 20
210.0
 30
0.0
  0
SEQEND
  5
FCA
330
5CF
100
AcDbEntity
  8
HOJO
  0
POLYLINE
  5
5D0
330
5CE
100
AcDbEntity
  8
HOJO
100
AcDb2dPolyline
 66
     1
 10
0.0
 20
0.0
 30
0.0
 70
     1
  0
VERTEX
  5
FCB
330
5D0
100
AcDbEntity
  8
HOJO
100
AcDbVertex
100
AcDb2dVertex
 10
18.0
 20
13.0
 30
0.0
  0
VERTEX
  5
FCC
330
5D0
100
AcDbEntity
  8
HOJO
100
AcDbVertex
100
AcDb2dVertex
 10
279.0
 20
13.0
 30
0.0
  0
VERTEX
  5
FCD
330
5D0
100
AcDbEntity
  8
HOJO
100
AcDbVertex
100
AcDb2dVertex
 10
279.0
 20
197.0
 30
0.0
  0
VERTEX
  5
FCE
330
5D0
100
AcDbEntity
  8
HOJO
100
AcDbVertex
100
AcDb2dVertex
 10
18.0
 20
197.0
 30
0.0
  0
SEQEND
  5
FCF
330
5D0
100
AcDbEntity
  8
HOJO
  0
ENDBLK
  5
5D2
330
5CE
100
AcDbEntity
  8
0
100
AcDbBlockEnd
  0
BLOCK
  5
CEA
330
CE0
100
AcDbEntity
  8
0
100
AcDbBlockBegin
  2
*D2
 70
     1
 10
0.0
 20
0.0
 30
0.0
  3
*D2
  1

  0
LINE
  5
EF3
330
CE0
100
AcDbEntity
  8
SUNPO
 62
   144
100
AcDbLine
 10
1752.838411294046
 20
2218.604794642788
 30
0.0
 11
1752.838411294046
 21
2434.227935929102
 31
0.0
  0
LINE
  5
EF4
330
CE0
100
AcDbEntity
  8
SUNPO
 62
   144
100
AcDbLine
 10
2012.838411294047
 20
2218.604794642787
 30
0.0
 11
2012.838411294047
 21
2434.227935929102
 31
0.0
  0
LINE
  5
EF5
330
CE0
100
AcDbEntity
  8
SUNPO
 62
   144
100
AcDbLine
 10
1802.838411294047
 20
2424.227935929101
 30
0.0
 11
1962.838411294047
 21
2424.227935929101
 31
0.0
  0
SOLID
  5
EF6
330
CE0
100
AcDbEntity
  8
SUNPO
 62
   144
100
AcDbTrace
 10
1802.838411294047
 20
2432.561269262436
 30
0.0
 11
1802.838411294047
 21
2415.894602595769
 31
0.0
 12
1752.838411294046
 22
2424.227935929101
 32
0.0
 13
1752.838411294046
 23
2424.227935929101
 33
0.0
  0
SOLID
  5
EF7
330
CE0
100
AcDbEntity
  8
SUNPO
 62
   144
100
AcDbTrace
 10
1962.838411294047
 20
2432.561269262436
 30
0.0
 11
1962.838411294047
 21
2415.894602595769
 31
0.0
 12
2012.838411294047
 22
2424.227935929101
 32
0.0
 13
2012.838411294047
 23
2424.227935929101
 33
0.0
  0
MTEXT
  5
EF8
330
CE0
100
AcDbEntity
  8
SUNPO
 62
     7
100
AcDbMText
 10
1882.838411294047
 20
2461.727935929101
 30
0.0
 40
50.0
 41
0.0
 71
     5
 72
     1
  1
\A2;260
  7
ADD
1001
ACAD
1000
MTEXTBEGIN
1070
    73
1070
     1
1070
    44
1040
1.0
1070
    74
1070
     0
1000
MTEXTEND
1000
MTEXTBEGIN
1070
    73
1070
     1
1070
    44
1040
1.0
1070
    74
1070
     0
1000
MTEXTEND
  0
POINT
  5
EF9
330
CE0
100
AcDbEntity
  8
DEFPOINTS
 62
     0
100
AcDbPoint
 10
1752.838411294046
 20
2198.604794642788
 30
0.0
  0
POINT
  5
EFA
330
CE0
100
AcDbEntity
  8
DEFPOINTS
 62
     0
100
AcDbPoint
 10
2012.838411294047
 20
2198.604794642787
 30
0.0
  0
POINT
  5
EFB
330
CE0
100
AcDbEntity
  8
DEFPOINTS
 62
     0
100
AcDbPoint
 10
2012.838411294047
 20
2424.227935929101
 30
0.0
  0
ENDBLK
  5
CEB
330
CE0
100
AcDbEntity
  8
0
100
AcDbBlockEnd
  0
BLOCK
  5
CF9
330
CED
100
AcDbEntity
  8
0
100
AcDbBlockBegin
  2
*D3
 70
     1
 10
0.0
 20
0.0
 30
0.0
  3
*D3
  1

  0
LINE
  5
EFC
330
CED
100
AcDbEntity
  8
SUNPO
 62
   144
100
AcDbLine
 10
2012.838411294047
 20
2218.604794642787
 30
0.0
 11
2012.838411294047
 21
2434.227935929102
 31
0.0
  0
LINE
  5
EFD
330
CED
100
AcDbEntity
  8
SUNPO
 62
   144
100
AcDbLine
 10
2072.838411294047
 20
2218.604794642788
 30
0.0
 11
2072.838411294047
 21
2434.227935929102
 31
0.0
  0
LINE
  5
EFE
330
CED
100
AcDbEntity
  8
SUNPO
 62
   144
100
AcDbLine
 10
1962.838411294047
 20
2424.227935929101
 30
0.0
 11
1912.838411294046
 21
2424.227935929101
 31
0.0
  0
LINE
  5
EFF
330
CED
100
AcDbEntity
  8
SUNPO
 62
   144
100
AcDbLine
 10
2122.838411294047
 20
2424.227935929101
 30
0.0
 11
2172.838411294047
 21
2424.227935929101
 31
0.0
  0
MTEXT
  5
F00
330
CED
100
AcDbEntity
  8
SUNPO
 62
     7
100
AcDbMText
 10
2147.838411294047
 20
2461.727935929101
 30
0.0
 40
50.0
 41
0.0
 71
     5
 72
     1
  1
\A2;60
  7
ADD
1001
ACAD
1000
MTEXTBEGIN
1070
    73
1070
     1
1070
    44
1040
1.0
1070
    74
1070
     0
1000
MTEXTEND
1000
MTEXTBEGIN
1070
    73
1070
     1
1070
    44
1040
1.0
1070
    74
1070
     0
1000
MTEXTEND
  0
LINE
  5
F01
330
CED
100
AcDbEntity
  8
SUNPO
 62
   144
100
AcDbLine
 10
2012.838411294047
 20
2424.227935929101
 30
0.0
 11
2072.838411294047
 21
2424.227935929101
 31
0.0
  0
SOLID
  5
F02
330
CED
100
AcDbEntity
  8
SUNPO
 62
   144
100
AcDbTrace
 10
1962.838411294047
 20
2432.561269262436
 30
0.0
 11
1962.838411294047
 21
2415.894602595769
 31
0.0
 12
2012.838411294047
 22
2424.227935929101
 32
0.0
 13
2012.838411294047
 23
2424.227935929101
 33
0.0
  0
SOLID
  5
F03
330
CED
100
AcDbEntity
  8
SUNPO
 62
   144
100
AcDbTrace
 10
2122.838411294047
 20
2432.561269262436
 30
0.0
 11
2122.838411294047
 21
2415.894602595769
 31
0.0
 12
2072.838411294047
 22
2424.227935929101
 32
0.0
 13
2072.838411294047
 23
2424.227935929101
 33
0.0
  0
POINT
  5
F04
330
CED
100
AcDbEntity
  8
DEFPOINTS
 62
     0
100
AcDbPoint
 10
2012.838411294047
 20
2198.604794642787
 30
0.0
  0
POINT
  5
F05
330
CED
100
AcDbEntity
  8
DEFPOINTS
 62
     0
100
AcDbPoint
 10
2072.838411294047
 20
2198.604794642788
 30
0.0
  0
POINT
  5
F06
330
CED
100
AcDbEntity
  8
DEFPOINTS
 62
     0
100
AcDbPoint
 10
2072.838411294047
 20
2424.227935929101
 30
0.0
  0
ENDBLK
  5
CFA
330
CED
100
AcDbEntity
  8
0
100
AcDbBlockEnd
  0
BLOCK
  5
D06
330
CFC
100
AcDbEntity
  8
0
100
AcDbBlockBegin
  2
*D4
 70
     1
 10
0.0
 20
0.0
 30
0.0
  3
*D4
  1

  0
LINE
  5
F07
330
CFC
100
AcDbEntity
  8
SUNPO
 62
   144
100
AcDbLine
 10
1732.838411294046
 20
2400.912869772829
 30
0.0
 11
1732.838411294046
 21
2535.929125142591
 31
0.0
  0
LINE
  5
F08
330
CFC
100
AcDbEntity
  8
SUNPO
 62
   144
100
AcDbLine
 10
2032.838411294047
 20
2400.912869772826
 30
0.0
 11
2032.838411294047
 21
2535.929125142591
 31
0.0
  0
LINE
  5
F09
330
CFC
100
AcDbEntity
  8
SUNPO
 62
   144
100
AcDbLine
 10
1782.838411294046
 20
2525.929125142591
 30
0.0
 11
1982.838411294046
 21
2525.929125142591
 31
0.0
  0
SOLID
  5
F0A
330
CFC
100
AcDbEntity
  8
SUNPO
 62
   144
100
AcDbTrace
 10
1782.838411294046
 20
2534.262458475924
 30
0.0
 11
1782.838411294046
 21
2517.595791809258
 31
0.0
 12
1732.838411294046
 22
2525.929125142591
 32
0.0
 13
1732.838411294046
 23
2525.929125142591
 33
0.0
  0
SOLID
  5
F0B
330
CFC
100
AcDbEntity
  8
SUNPO
 62
   144
100
AcDbTrace
 10
1982.838411294046
 20
2534.262458475924
 30
0.0
 11
1982.838411294046
 21
2517.595791809258
 31
0.0
 12
2032.838411294047
 22
2525.929125142591
 32
0.0
 13
2032.838411294047
 23
2525.929125142591
 33
0.0
  0
MTEXT
  5
F0C
330
CFC
100
AcDbEntity
  8
SUNPO
 62
     7
100
AcDbMText
 10
1882.838411294047
 20
2563.429125142591
 30
0.0
 40
50.0
 41
0.0
 71
     5
 72
     1
  1
\A2;300
  7
ADD
1001
ACAD
1000
MTEXTBEGIN
1070
    73
1070
     1
1070
    44
1040
1.0
1070
    74
1070
     0
1000
MTEXTEND
1000
MTEXTBEGIN
1070
    73
1070
     1
1070
    44
1040
1.0
1070
    74
1070
     0
1000
MTEXTEND
  0
POINT
  5
F0D
330
CFC
100
AcDbEntity
  8
DEFPOINTS
 62
     0
100
AcDbPoint
 10
1732.838411294046
 20
2380.912869772828
 30
0.0
  0
POINT
  5
F0E
330
CFC
100
AcDbEntity
  8
DEFPOINTS
 62
     0
100
AcDbPoint
 10
2032.838411294047
 20
2380.912869772826
 30
0.0
  0
POINT
  5
F0F
330
CFC
100
AcDbEntity
  8
DEFPOINTS
 62
     0
100
AcDbPoint
 10
2032.838411294047
 20
2525.929125142591
 30
0.0
  0
ENDBLK
  5
D07
330
CFC
100
AcDbEntity
  8
0
100
AcDbBlockEnd
  0
BLOCK
  5
D15
330
D09
100
AcDbEntity
  8
0
100
AcDbBlockBegin
  2
*D5
 70
     1
 10
0.0
 20
0.0
 30
0.0
  3
*D5
  1

  0
LINE
  5
F10
330
D09
100
AcDbEntity
  8
SUNPO
 62
   144
100
AcDbLine
 10
2032.838411294047
 20
2400.912869772826
 30
0.0
 11
2032.838411294047
 21
2535.929125142591
 31
0.0
  0
LINE
  5
F11
330
D09
100
AcDbEntity
  8
SUNPO
 62
   144
100
AcDbLine
 10
2082.838411294047
 20
2400.912869772826
 30
0.0
 11
2082.838411294047
 21
2535.929125142591
 31
0.0
  0
LINE
  5
F12
330
D09
100
AcDbEntity
  8
SUNPO
 62
   144
100
AcDbLine
 10
1982.838411294046
 20
2525.929125142591
 30
0.0
 11
1932.838411294047
 21
2525.929125142591
 31
0.0
  0
LINE
  5
F13
330
D09
100
AcDbEntity
  8
SUNPO
 62
   144
100
AcDbLine
 10
2132.838411294047
 20
2525.929125142591
 30
0.0
 11
2182.838411294047
 21
2525.929125142591
 31
0.0
  0
MTEXT
  5
F14
330
D09
100
AcDbEntity
  8
SUNPO
 62
     7
100
AcDbMText
 10
2157.838411294047
 20
2563.429125142591
 30
0.0
 40
50.0
 41
0.0
 71
     5
 72
     1
  1
\A2;50
  7
ADD
1001
ACAD
1000
MTEXTBEGIN
1070
    73
1070
     1
1070
    44
1040
1.0
1070
    74
1070
     0
1000
MTEXTEND
1000
MTEXTBEGIN
1070
    73
1070
     1
1070
    44
1040
1.0
1070
    74
1070
     0
1000
MTEXTEND
  0
LINE
  5
F15
330
D09
100
AcDbEntity
  8
SUNPO
 62
   144
100
AcDbLine
 10
2032.838411294047
 20
2525.929125142591
 30
0.0
 11
2082.838411294047
 21
2525.929125142591
 31
0.0
  0
SOLID
  5
F16
330
D09
100
AcDbEntity
  8
SUNPO
 62
   144
100
AcDbTrace
 10
1982.838411294046
 20
2534.262458475924
 30
0.0
 11
1982.838411294046
 21
2517.595791809258
 31
0.0
 12
2032.838411294047
 22
2525.929125142591
 32
0.0
 13
2032.838411294047
 23
2525.929125142591
 33
0.0
  0
SOLID
  5
F17
330
D09
100
AcDbEntity
  8
SUNPO
 62
   144
100
AcDbTrace
 10
2132.838411294047
 20
2534.262458475924
 30
0.0
 11
2132.838411294047
 21
2517.595791809258
 31
0.0
 12
2082.838411294047
 22
2525.929125142591
 32
0.0
 13
2082.838411294047
 23
2525.929125142591
 33
0.0
  0
POINT
  5
F18
330
D09
100
AcDbEntity
  8
DEFPOINTS
 62
     0
100
AcDbPoint
 10
2032.838411294047
 20
2380.912869772826
 30
0.0
  0
POINT
  5
F19
330
D09
100
AcDbEntity
  8
DEFPOINTS
 62
     0
100
AcDbPoint
 10
2082.838411294047
 20
2380.912869772826
 30
0.0
  0
POINT
  5
F1A
330
D09
100
AcDbEntity
  8
DEFPOINTS
 62
     0
100
AcDbPoint
 10
2082.838411294047
 20
2525.929125142591
 30
0.0
  0
ENDBLK
  5
D16
330
D09
100
AcDbEntity
  8
0
100
AcDbBlockEnd
  0
BLOCK
  5
D9C
330
D92
100
AcDbEntity
  8
0
100
AcDbBlockBegin
  2
*D6
 70
     1
 10
0.0
 20
0.0
 30
0.0
  3
*D6
  1

  0
LINE
  5
F1B
330
D92
100
AcDbEntity
  8
SUNPO
 62
   144
100
AcDbLine
 10
2032.624477627221
 20
2060.912869772826
 30
0.0
 11
2032.624477627221
 21
1900.150044805284
 31
0.0
  0
LINE
  5
F1C
330
D92
100
AcDbEntity
  8
SUNPO
 62
   144
100
AcDbLine
 10
1732.624477627221
 20
2060.912869772826
 30
0.0
 11
1732.624477627221
 21
1900.150044805284
 31
0.0
  0
LINE
  5
F1D
330
D92
100
AcDbEntity
  8
SUNPO
 62
   144
100
AcDbLine
 10
1982.624477627221
 20
1910.150044805284
 30
0.0
 11
1782.624477627221
 21
1910.150044805284
 31
0.0
  0
SOLID
  5
F1E
330
D92
100
AcDbEntity
  8
SUNPO
 62
   144
100
AcDbTrace
 10
1982.624477627221
 20
1918.483378138617
 30
0.0
 11
1982.624477627221
 21
1901.816711471951
 31
0.0
 12
2032.624477627221
 22
1910.150044805284
 32
0.0
 13
2032.624477627221
 23
1910.150044805284
 33
0.0
  0
SOLID
  5
F1F
330
D92
100
AcDbEntity
  8
SUNPO
 62
   144
100
AcDbTrace
 10
1782.624477627221
 20
1918.483378138617
 30
0.0
 11
1782.624477627221
 21
1901.816711471951
 31
0.0
 12
1732.624477627221
 22
1910.150044805284
 32
0.0
 13
1732.624477627221
 23
1910.150044805284
 33
0.0
  0
MTEXT
  5
F20
330
D92
100
AcDbEntity
  8
SUNPO
 62
     7
100
AcDbMText
 10
1882.624477627221
 20
1947.650044805285
 30
0.0
 40
50.0
 41
0.0
 71
     5
 72
     1
  1
\A2;300
  7
ADD
1001
ACAD
1000
MTEXTBEGIN
1070
    73
1070
     1
1070
    44
1040
1.0
1070
    74
1070
     0
1000
MTEXTEND
1000
MTEXTBEGIN
1070
    73
1070
     1
1070
    44
1040
1.0
1070
    74
1070
     0
1000
MTEXTEND
  0
POINT
  5
F21
330
D92
100
AcDbEntity
  8
DEFPOINTS
 62
     0
100
AcDbPoint
 10
2032.624477627221
 20
2080.912869772826
 30
0.0
  0
POINT
  5
F22
330
D92
100
AcDbEntity
  8
DEFPOINTS
 62
     0
100
AcDbPoint
 10
1732.624477627221
 20
2080.912869772826
 30
0.0
  0
POINT
  5
F23
330
D92
100
AcDbEntity
  8
DEFPOINTS
 62
     0
100
AcDbPoint
 10
1732.624477627221
 20
1910.150044805284
 30
0.0
  0
ENDBLK
  5
D9D
330
D92
100
AcDbEntity
  8
0
100
AcDbBlockEnd
  0
BLOCK
  5
DB1
330
DA7
100
AcDbEntity
  8
0
100
AcDbBlockBegin
  2
*D7
 70
     1
 10
0.0
 20
0.0
 30
0.0
  3
*D7
  1

  0
LINE
  5
F24
330
DA7
100
AcDbEntity
  8
SUNPO
 62
   144
100
AcDbLine
 10
2012.838411294047
 20
2380.912869772826
 30
0.0
 11
1907.618313356105
 21
2380.912869772826
 31
0.0
  0
LINE
  5
F25
330
DA7
100
AcDbEntity
  8
SUNPO
 62
   144
100
AcDbLine
 10
1946.831767215746
 20
2140.912869772825
 30
0.0
 11
1907.618313356105
 21
2140.912869772825
 31
0.0
  0
LINE
  5
F26
330
DA7
100
AcDbEntity
  8
SUNPO
 62
   144
100
AcDbLine
 10
1917.618313356106
 20
2330.912869772826
 30
0.0
 11
1917.618313356106
 21
2190.912869772826
 31
0.0
  0
SOLID
  5
F27
330
DA7
100
AcDbEntity
  8
SUNPO
 62
   144
100
AcDbTrace
 10
1909.284980022771
 20
2330.912869772826
 30
0.0
 11
1925.951646689439
 21
2330.912869772826
 31
0.0
 12
1917.618313356106
 22
2380.912869772826
 32
0.0
 13
1917.618313356106
 23
2380.912869772826
 33
0.0
  0
SOLID
  5
F28
330
DA7
100
AcDbEntity
  8
SUNPO
 62
   144
100
AcDbTrace
 10
1909.284980022771
 20
2190.912869772826
 30
0.0
 11
1925.951646689439
 21
2190.912869772826
 31
0.0
 12
1917.618313356106
 22
2140.912869772825
 32
0.0
 13
1917.618313356106
 23
2140.912869772825
 33
0.0
  0
MTEXT
  5
F29
330
DA7
100
AcDbEntity
  8
SUNPO
 62
     7
100
AcDbMText
 10
1880.118313356106
 20
2260.912869772826
 30
0.0
 40
50.0
 41
0.0
 71
     5
 72
     1
  1
\A2;240
  7
ADD
 11
0.0000000000000001
 21
1.0
 31
0.0
1001
ACAD
1000
MTEXTBEGIN
1070
    73
1070
     1
1070
    44
1040
1.0
1070
    74
1070
     0
1000
MTEXTEND
1000
MTEXTBEGIN
1070
    73
1070
     1
1070
    44
1040
1.0
1070
    74
1070
     0
1000
MTEXTEND
  0
POINT
  5
F2A
330
DA7
100
AcDbEntity
  8
DEFPOINTS
 62
     0
100
AcDbPoint
 10
2032.838411294047
 20
2380.912869772826
 30
0.0
  0
POINT
  5
F2B
330
DA7
100
AcDbEntity
  8
DEFPOINTS
 62
     0
100
AcDbPoint
 10
1966.831767215746
 20
2140.912869772825
 30
0.0
  0
POINT
  5
F2C
330
DA7
100
AcDbEntity
  8
DEFPOINTS
 62
     0
100
AcDbPoint
 10
1917.618313356106
 20
2140.912869772825
 30
0.0
  0
ENDBLK
  5
DB2
330
DA7
100
AcDbEntity
  8
0
100
AcDbBlockEnd
  0
BLOCK
  5
E53
330
E49
100
AcDbEntity
  8
0
100
AcDbBlockBegin
  2
*D8
 70
     1
 10
0.0
 20
0.0
 30
0.0
  3
*D8
  1

  0
LINE
  5
F2D
330
E49
100
AcDbEntity
  8
SUNPO
 62
   144
100
AcDbLine
 10
3970.0
 20
2080.0
 30
0.0
 11
3970.0
 21
1912.172531860038
 31
0.0
  0
LINE
  5
F2E
330
E49
100
AcDbEntity
  8
SUNPO
 62
   144
100
AcDbLine
 10
4570.0
 20
2080.0
 30
0.0
 11
4570.0
 21
1912.172531860038
 31
0.0
  0
LINE
  5
F2F
330
E49
100
AcDbEntity
  8
SUNPO
 62
   144
100
AcDbLine
 10
4020.0
 20
1922.172531860038
 30
0.0
 11
4520.0
 21
1922.172531860038
 31
0.0
  0
SOLID
  5
F30
330
E49
100
AcDbEntity
  8
SUNPO
 62
   144
100
AcDbTrace
 10
4020.0
 20
1930.505865193371
 30
0.0
 11
4020.0
 21
1913.839198526705
 31
0.0
 12
3970.0
 22
1922.172531860038
 32
0.0
 13
3970.0
 23
1922.172531860038
 33
0.0
  0
SOLID
  5
F31
330
E49
100
AcDbEntity
  8
SUNPO
 62
   144
100
AcDbTrace
 10
4520.0
 20
1930.505865193371
 30
0.0
 11
4520.0
 21
1913.839198526705
 31
0.0
 12
4570.0
 22
1922.172531860038
 32
0.0
 13
4570.0
 23
1922.172531860038
 33
0.0
  0
MTEXT
  5
F32
330
E49
100
AcDbEntity
  8
SUNPO
 62
     7
100
AcDbMText
 10
4270.0
 20
1959.672531860038
 30
0.0
 40
50.0
 41
0.0
 71
     5
 72
     1
  1
\A2;600
  7
ADD
1001
ACAD
1000
MTEXTBEGIN
1070
    73
1070
     1
1070
    44
1040
1.0
1070
    74
1070
     0
1000
MTEXTEND
1000
MTEXTBEGIN
1070
    73
1070
     1
1070
    44
1040
1.0
1070
    74
1070
     0
1000
MTEXTEND
  0
POINT
  5
F33
330
E49
100
AcDbEntity
  8
DEFPOINTS
 62
     0
100
AcDbPoint
 10
3970.0
 20
2100.0
 30
0.0
  0
POINT
  5
F34
330
E49
100
AcDbEntity
  8
DEFPOINTS
 62
     0
100
AcDbPoint
 10
4570.0
 20
2100.0
 30
0.0
  0
POINT
  5
F35
330
E49
100
AcDbEntity
  8
DEFPOINTS
 62
     0
100
AcDbPoint
 10
4570.0
 20
1922.172531860038
 30
0.0
  0
ENDBLK
  5
E54
330
E49
100
AcDbEntity
  8
0
100
AcDbBlockEnd
  0
BLOCK
  5
E65
330
E5E
100
AcDbEntity
  8
0
100
AcDbBlockBegin
  2
*D9
 70
     1
 10
0.0
 20
0.0
 30
0.0
  3
*D9
  1

  0
LINE
  5
F36
330
E5E
100
AcDbEntity
  8
SUNPO
 62
   144
100
AcDbLine
 10
1593.246212828514
 20
1967.56397635821
 30
0.0
 11
1731.118377828497
 21
2117.339116648011
 31
0.0
  0
MTEXT
  5
F37
330
E5E
100
AcDbEntity
  8
SUNPO
 62
     7
100
AcDbMText
 10
1617.660468520738
 20
2049.455612300851
 30
0.0
 40
50.0
 41
0.0
 71
     5
 72
     1
  1
\A2;R50
  7
ADD
 11
0.6772667754385139
 21
0.7357375312481467
 31
0.0
1001
ACAD
1000
MTEXTBEGIN
1070
    73
1070
     1
1070
    44
1040
1.0
1070
    74
1070
     0
1000
MTEXTEND
1000
MTEXTBEGIN
1070
    73
1070
     1
1070
    44
1040
1.0
1070
    74
1070
     0
1000
MTEXTEND
  0
LINE
  5
F38
330
E5E
100
AcDbEntity
  8
SUNPO
 62
   144
100
AcDbLine
 10
1798.845055372348
 20
2190.912869772825
 30
0.0
 11
1764.981716600423
 21
2154.125993210418
 31
0.0
  0
SOLID
  5
F39
330
E5E
100
AcDbEntity
  8
SUNPO
 62
   144
100
AcDbTrace
 10
1724.987231734763
 20
2122.983006443332
 30
0.0
 11
1737.249523922232
 21
2111.69522685269
 31
0.0
 12
1764.981716600423
 22
2154.125993210418
 32
0.0
 13
1764.981716600423
 23
2154.125993210418
 33
0.0
  0
POINT
  5
F3A
330
E5E
100
AcDbEntity
  8
DEFPOINTS
 62
     0
100
AcDbPoint
 10
1764.981716600423
 20
2154.125993210418
 30
0.0
  0
POINT
  5
F3B
330
E5E
100
AcDbEntity
  8
DEFPOINTS
 62
     0
100
AcDbPoint
 10
1798.845055372348
 20
2190.912869772825
 30
0.0
  0
ENDBLK
  5
E66
330
E5E
100
AcDbEntity
  8
0
100
AcDbBlockEnd
  0
BLOCK
  5
E77
330
E6A
100
AcDbEntity
  8
0
100
AcDbBlockBegin
  2
*D10
 70
     1
 10
0.0
 20
0.0
 30
0.0
  3
*D10
  1

  0
LINE
  5
F3C
330
E6A
100
AcDbEntity
  8
SUNPO
 62
   144
100
AcDbLine
 10
2052.624477627221
 20
2080.912869772826
 30
0.0
 11
2174.446707951834
 21
2080.912869772825
 31
0.0
  0
LINE
  5
F3D
330
E6A
100
AcDbEntity
  8
SUNPO
 62
   144
100
AcDbLine
 10
2086.040908821749
 20
2135.124416400409
 30
0.0
 11
2132.164365278068
 21
2181.934430742276
 31
0.0
  0
LINE
  5
F3E
330
E6A
100
AcDbEntity
  8
SUNPO
 62
   144
100
AcDbLine
 10
2154.225172333992
 20
2131.80856167878
 30
0.0
 11
2246.471142082287
 21
2170.417900771756
 31
0.0
  0
ARC
  5
F3F
330
E6A
100
AcDbEntity
  8
SUNPO
 62
   144
100
AcDbCircle
 10
2032.624477627221
 20
2080.912869772826
 30
0.0
 40
131.8222303246122
100
AcDbArc
 50
21.86464249493214
 51
23.55862969418095
  0
SOLID
  5
F40
330
E6A
100
AcDbEntity
  8
SUNPO
 62
   144
100
AcDbTrace
 10
2163.146339609486
 20
2131.585875274953
 30
0.0
 11
2146.782141519192
 21
2128.425052812454
 31
0.0
 12
2164.446707951833
 22
2080.912869772825
 32
0.0
 13
2164.446707951833
 23
2080.912869772825
 33
0.0
  0
SOLID
  5
F41
330
E6A
100
AcDbEntity
  8
SUNPO
 62
   144
100
AcDbTrace
 10
2146.591067329163
 20
2128.881569923783
 30
0.0
 11
2160.327994565844
 21
2138.319504436799
 31
0.0
 12
2125.145727408461
 22
2174.811318890331
 32
0.0
 13
2125.145727408461
 23
2174.811318890331
 33
0.0
  0
MTEXT
  5
F42
330
E6A
100
AcDbEntity
  8
SUNPO
 62
     7
100
AcDbMText
 10
2281.063380737899
 20
2184.896402931622
 30
0.0
 40
50.0
 41
0.0
 71
     5
 72
     1
  1
\A2;45°
  7
ADD
 11
0.3860933909297634
 21
-0.9224596974829614
 31
0.0
1001
ACAD
1000
MTEXTBEGIN
1070
    73
1070
     1
1070
    44
1040
1.0
1070
    74
1070
     0
1000
MTEXTEND
1000
MTEXTBEGIN
1070
    73
1070
     1
1070
    44
1040
1.0
1070
    74
1070
     0
1000
MTEXTEND
  0
POINT
  5
F43
330
E6A
100
AcDbEntity
  8
DEFPOINTS
 62
     0
100
AcDbPoint
 10
2159.870572647779
 20
2115.344420852823
 30
0.0
  0
POINT
  5
F44
330
E6A
100
AcDbEntity
  8
DEFPOINTS
 62
     0
100
AcDbPoint
 10
2012.838411294047
 20
2080.912869772826
 30
0.0
  0
POINT
  5
F45
330
E6A
100
AcDbEntity
  8
DEFPOINTS
 62
     0
100
AcDbPoint
 10
2072.003633082533
 20
2120.878192696521
 30
0.0
  0
POINT
  5
F46
330
E6A
100
AcDbEntity
  8
DEFPOINTS
 62
     0
100
AcDbPoint
 10
2032.624477627221
 20
2080.912869772826
 30
0.0
  0
POINT
  5
F47
330
E6A
100
AcDbEntity
  8
DEFPOINTS
 62
     0
100
AcDbPoint
 10
2032.624477627221
 20
2080.912869772826
 30
0.0
  0
ENDBLK
  5
E78
330
E6A
100
AcDbEntity
  8
0
100
AcDbBlockEnd
  0
ENDSEC
  0
SECTION
  2
ENTITIES
  0
LINE
  5
60A
330
1F
100
AcDbEntity
  8
HOJO
100
AcDbLine
 10
360.0
 20
260.0
 30
0.0
 11
5580.0
 21
260.0
 31
0.0
  0
LINE
  5
60B
330
1F
100
AcDbEntity
  8
HOJO
100
AcDbLine
 10
360.0
 20
560.0
 30
0.0
 11
5580.0
 21
560.0
 31
0.0
  0
LINE
  5
60C
330
1F
100
AcDbEntity
  8
HOJO
100
AcDbLine
 10
360.0
 20
260.0
 30
0.0
 11
360.0
 21
560.0
 31
0.0
  0
LINE
  5
60D
330
1F
100
AcDbEntity
  8
HOJO
100
AcDbLine
 10
2360.0
 20
260.0
 30
0.0
 11
2360.0
 21
560.0
 31
0.0
  0
LINE
  5
60F
330
1F
100
AcDbEntity
  8
HOJO
100
AcDbLine
 10
3160.0
 20
260.0
 30
0.0
 11
3160.0
 21
560.0
 31
0.0
  0
LINE
  5
610
330
1F
100
AcDbEntity
  8
HOJO
100
AcDbLine
 10
3660.0
 20
260.0
 30
0.0
 11
3660.0
 21
560.0
 31
0.0
  0
LINE
  5
CC6
330
1F
100
AcDbEntity
  8
3C1
100
AcDbLine
 10
1735.338411294048
 20
2080.912869772826
 30
0.0
 11
2030.338411294047
 21
2080.912869772826
 31
0.0
  0
LINE
  5
CC8
330
1F
100
AcDbEntity
  8
3C1
100
AcDbLine
 10
1682.838411294047
 20
2380.912869772826
 30
0.0
 11
1732.838411294046
 21
2380.912869772826
 31
0.0
  0
LINE
  5
CD1
330
1F
100
AcDbEntity
  8
3C1
100
AcDbLine
 10
1798.845055372348
 20
2140.912869772825
 30
0.0
 11
1966.831767215746
 21
2140.912869772825
 31
0.0
  0
LINE
  5
CD6
330
1F
100
AcDbEntity
  8
3C1
100
AcDbLine
 10
2032.838411294047
 20
2380.912869772826
 30
0.0
 11
2082.838411294047
 21
2380.912869772826
 31
0.0
  0
LINE
  5
CD7
330
1F
100
AcDbEntity
  8
3C1
100
AcDbLine
 10
1732.838411294046
 20
2380.912869772826
 30
0.0
 11
1749.017767460105
 21
2186.760595780139
 31
0.0
  0
LINE
  5
CD8
330
1F
100
AcDbEntity
  8
3C1
100
AcDbLine
 10
1682.838411294047
 20
2380.912869772826
 30
0.0
 11
1693.673189505561
 21
2120.878192696519
 31
0.0
  0
LINE
  5
CD9
330
1F
100
AcDbEntity
  8
3C1
100
AcDbLine
 10
2032.838411294047
 20
2380.912869772826
 30
0.0
 11
2016.659055127989
 21
2186.760595780139
 31
0.0
  0
LINE
  5
CDA
330
1F
100
AcDbEntity
  8
3C1
100
AcDbLine
 10
2082.838411294047
 20
2380.912869772826
 30
0.0
 11
2072.003633082533
 21
2120.878192696519
 31
0.0
  0
ARC
  5
CDB
330
1F
100
AcDbEntity
  8
3C1
100
AcDbCircle
 10
1966.831767215746
 20
2190.912869772826
 30
0.0
 40
50.0
100
AcDbArc
 50
270.0
 51
355.2363583092739
  0
ARC
  5
CDC
330
1F
100
AcDbEntity
  8
3C1
100
AcDbCircle
 10
1798.845055372348
 20
2190.912869772826
 30
0.0
 40
50.0
100
AcDbArc
 50
184.7636416907261
 51
270.0
  0
LINE
  5
D48
330
1F
100
AcDbEntity
  8
3C1
100
AcDbLine
 10
1735.338411294048
 20
2080.912869772826
 30
0.0
 11
1693.673189505561
 21
2120.878192696519
 31
0.0
  0
LINE
  5
D9E
330
1F
100
AcDbEntity
  8
SUNPO
 62
   144
100
AcDbLine
 10
1992.838411294047
 20
2080.912869772826
 30
0.0
 11
1936.831767215744
 21
2080.912869772826
 31
0.0
  0
LINE
  5
D9F
330
1F
100
AcDbEntity
  8
SUNPO
 62
   144
100
AcDbLine
 10
1926.831767215746
 20
2140.912869772825
 30
0.0
 11
1936.831767215744
 21
2140.912869772825
 31
0.0
  0
LINE
  5
DC2
330
1F
100
AcDbEntity
  8
SUNPO
 62
   144
100
AcDbLine
 10
1946.831767215746
 20
2140.912869772825
 30
0.0
 11
1907.618313356105
 21
2140.912869772825
 31
0.0
  0
LINE
  5
DC3
330
1F
100
AcDbEntity
  8
SUNPO
 62
   144
100
AcDbLine
 10
1937.618313356106
 20
2080.912869772826
 30
0.0
 11
1927.618313356106
 21
2080.912869772826
 31
0.0
  0
LINE
  5
DC4
330
1F
100
AcDbEntity
  8
SUNPO
 62
   144
100
AcDbLine
 10
1917.618313356106
 20
2190.912869772826
 30
0.0
 11
1917.618313356106
 21
2240.912869772825
 31
0.0
  0
LINE
  5
DC5
330
1F
100
AcDbEntity
  8
SUNPO
 62
   144
100
AcDbLine
 10
1917.618313356106
 20
2030.912869772826
 30
0.0
 11
1917.618313356106
 21
1980.912869772826
 31
0.0
  0
LINE
  5
DC7
330
1F
100
AcDbEntity
  8
SUNPO
 62
   144
100
AcDbLine
 10
1917.618313356106
 20
2140.912869772825
 30
0.0
 11
1917.618313356106
 21
2080.912869772826
 31
0.0
  0
SOLID
  5
DC8
330
1F
100
AcDbEntity
  8
SUNPO
 62
   144
100
AcDbTrace
 10
1909.284980022771
 20
2190.912869772826
 30
0.0
 11
1925.951646689439
 21
2190.912869772826
 31
0.0
 12
1917.618313356106
 22
2140.912869772825
 32
0.0
 13
1917.618313356106
 23
2140.912869772825
 33
0.0
  0
SOLID
  5
DC9
330
1F
100
AcDbEntity
  8
SUNPO
 62
   144
100
AcDbTrace
 10
1909.284980022771
 20
2030.912869772826
 30
0.0
 11
1925.951646689439
 21
2030.912869772826
 31
0.0
 12
1917.618313356106
 22
2080.912869772826
 32
0.0
 13
1917.618313356106
 23
2080.912869772826
 33
0.0
  0
LINE
  5
E43
330
1F
100
AcDbEntity
  8
3C1
100
AcDbLine
 10
3970.0
 20
2100.0
 30
0.0
 11
4570.0
 21
2100.0
 31
0.0
  0
LINE
  5
E44
330
1F
100
AcDbEntity
  8
3C1
100
AcDbLine
 10
4570.0
 20
2100.0
 30
0.0
 11
4570.0
 21
2400.0
 31
0.0
  0
LINE
  5
E45
330
1F
100
AcDbEntity
  8
3C1
100
AcDbLine
 10
4570.0
 20
2400.0
 30
0.0
 11
3970.0
 21
2400.0
 31
0.0
  0
LINE
  5
E46
330
1F
100
AcDbEntity
  8
3C1
100
AcDbLine
 10
3970.0
 20
2400.0
 30
0.0
 11
3970.0
 21
2100.0
 31
0.0
  0
LINE
  5
E47
330
1F
100
AcDbEntity
  8
3C1
100
AcDbLine
 10
3970.0
 20
2160.0
 30
0.0
 11
4570.0
 21
2160.0
 31
0.0
  0
LINE
  5
E67
330
1F
100
AcDbEntity
  8
3C1
100
AcDbLine
 10
2072.003633082533
 20
2120.878192696519
 30
0.0
 11
2032.624477627221
 21
2080.912869772826
 31
0.0
  0
LINE
  5
E68
330
1F
100
AcDbEntity
  8
3C1
100
AcDbLine
 10
2012.838411294047
 20
2080.912869772826
 30
0.0
 11
2032.624477627221
 21
2080.912869772826
 31
0.0
  0
LINE
  5
F4F
330
1F
100
AcDbEntity
  8
SUNPO
 62
   144
100
AcDbLine
 10
2052.624477627221
 20
2080.912869772826
 30
0.0
 11
2174.446707951834
 21
2080.912869772825
 31
0.0
  0
LINE
  5
F50
330
1F
100
AcDbEntity
  8
SUNPO
 62
   144
100
AcDbLine
 10
2086.040908821749
 20
2135.124416400409
 30
0.0
 11
2132.164365278068
 21
2181.934430742276
 31
0.0
  0
LINE
  5
F51
330
1F
100
AcDbEntity
  8
SUNPO
 62
   144
100
AcDbLine
 10
2154.225172333992
 20
2131.80856167878
 30
0.0
 11
2246.471142082287
 21
2170.417900771756
 31
0.0
  0
ARC
  5
F52
330
1F
100
AcDbEntity
  8
SUNPO
 62
   144
100
AcDbCircle
 10
2032.624477627221
 20
2080.912869772826
 30
0.0
 40
131.8222303246122
100
AcDbArc
 50
21.86464249493214
 51
23.55862969418095
  0
SOLID
  5
F53
330
1F
100
AcDbEntity
  8
SUNPO
 62
   144
100
AcDbTrace
 10
2163.146339609486
 20
2131.585875274953
 30
0.0
 11
2146.782141519192
 21
2128.425052812454
 31
0.0
 12
2164.446707951833
 22
2080.912869772825
 32
0.0
 13
2164.446707951833
 23
2080.912869772825
 33
0.0
  0
SOLID
  5
F54
330
1F
100
AcDbEntity
  8
SUNPO
 62
   144
100
AcDbTrace
 10
2146.591067329163
 20
2128.881569923783
 30
0.0
 11
2160.327994565844
 21
2138.319504436799
 31
0.0
 12
2125.145727408461
 22
2174.811318890331
 32
0.0
 13
2125.145727408461
 23
2174.811318890331
 33
0.0
  0
LINE
  5
F56
330
1F
100
AcDbEntity
  8
SUNPO
 62
   144
100
AcDbLine
 10
1593.246212828514
 20
1967.56397635821
 30
0.0
 11
1731.118377828497
 21
2117.339116648011
 31
0.0
  0
LINE
  5
F58
330
1F
100
AcDbEntity
  8
SUNPO
 62
   144
100
AcDbLine
 10
1798.845055372348
 20
2190.912869772825
 30
0.0
 11
1764.981716600423
 21
2154.125993210418
 31
0.0
  0
SOLID
  5
F59
330
1F
100
AcDbEntity
  8
SUNPO
 62
   144
100
AcDbTrace
 10
1724.987231734763
 20
2122.983006443332
 30
0.0
 11
1737.249523922232
 21
2111.69522685269
 31
0.0
 12
1764.981716600423
 22
2154.125993210418
 32
0.0
 13
1764.981716600423
 23
2154.125993210418
 33
0.0
  0
LINE
  5
F5A
330
1F
100
AcDbEntity
  8
SUNPO
 62
   144
100
AcDbLine
 10
3970.0
 20
2080.0
 30
0.0
 11
3970.0
 21
1912.172531860038
 31
0.0
  0
LINE
  5
F5B
330
1F
100
AcDbEntity
  8
SUNPO
 62
   144
100
AcDbLine
 10
4570.0
 20
2080.0
 30
0.0
 11
4570.0
 21
1912.172531860038
 31
0.0
  0
LINE
  5
F5C
330
1F
100
AcDbEntity
  8
SUNPO
 62
   144
100
AcDbLine
 10
4020.0
 20
1922.172531860038
 30
0.0
 11
4520.0
 21
1922.172531860038
 31
0.0
  0
SOLID
  5
F5D
330
1F
100
AcDbEntity
  8
SUNPO
 62
   144
100
AcDbTrace
 10
4020.0
 20
1930.505865193371
 30
0.0
 11
4020.0
 21
1913.839198526705
 31
0.0
 12
3970.0
 22
1922.172531860038
 32
0.0
 13
3970.0
 23
1922.172531860038
 33
0.0
  0
SOLID
  5
F5E
330
1F
100
AcDbEntity
  8
SUNPO
 62
   144
100
AcDbTrace
 10
4520.0
 20
1930.505865193371
 30
0.0
 11
4520.0
 21
1913.839198526705
 31
0.0
 12
4570.0
 22
1922.172531860038
 32
0.0
 13
4570.0
 23
1922.172531860038
 33
0.0
  0
TEXT
  5
F60
330
1F
100
AcDbEntity
  8
3C1
 62
     7
100
AcDbText
 10
1905.76587362572
 20
1969.626651320357
 30
0.0
 40
50.0
  1
60
 50
90.0
  7
ADD
100
AcDbText
1001
ACAD
1000
MTEXTBEGIN
1070
    73
1070
     1
1070
    44
1040
1.0
1070
    74
1070
     0
1000
MTEXTEND
  0
LINE
  5
F61
330
1F
100
AcDbEntity
  8
SUNPO
 62
   144
100
AcDbLine
 10
2012.838411294047
 20
2380.912869772826
 30
0.0
 11
1907.618313356105
 21
2380.912869772826
 31
0.0
  0
LINE
  5
F62
330
1F
100
AcDbEntity
  8
SUNPO
 62
   144
100
AcDbLine
 10
1946.831767215746
 20
2140.912869772825
 30
0.0
 11
1907.618313356105
 21
2140.912869772825
 31
0.0
  0
LINE
  5
F63
330
1F
100
AcDbEntity
  8
SUNPO
 62
   144
100
AcDbLine
 10
1917.618313356106
 20
2330.912869772826
 30
0.0
 11
1917.618313356106
 21
2190.912869772826
 31
0.0
  0
SOLID
  5
F64
330
1F
100
AcDbEntity
  8
SUNPO
 62
   144
100
AcDbTrace
 10
1909.284980022771
 20
2330.912869772826
 30
0.0
 11
1925.951646689439
 21
2330.912869772826
 31
0.0
 12
1917.618313356106
 22
2380.912869772826
 32
0.0
 13
1917.618313356106
 23
2380.912869772826
 33
0.0
  0
SOLID
  5
F65
330
1F
100
AcDbEntity
  8
SUNPO
 62
   144
100
AcDbTrace
 10
1909.284980022771
 20
2190.912869772826
 30
0.0
 11
1925.951646689439
 21
2190.912869772826
 31
0.0
 12
1917.618313356106
 22
2140.912869772825
 32
0.0
 13
1917.618313356106
 23
2140.912869772825
 33
0.0
  0
LINE
  5
F67
330
1F
100
AcDbEntity
  8
SUNPO
 62
   144
100
AcDbLine
 10
2032.624477627221
 20
2060.912869772826
 30
0.0
 11
2032.624477627221
 21
1900.150044805284
 31
0.0
  0
LINE
  5
F68
330
1F
100
AcDbEntity
  8
SUNPO
 62
   144
100
AcDbLine
 10
1732.624477627221
 20
2060.912869772826
 30
0.0
 11
1732.624477627221
 21
1900.150044805284
 31
0.0
  0
LINE
  5
F69
330
1F
100
AcDbEntity
  8
SUNPO
 62
   144
100
AcDbLine
 10
1982.624477627221
 20
1910.150044805284
 30
0.0
 11
1782.624477627221
 21
1910.150044805284
 31
0.0
  0
SOLID
  5
F6A
330
1F
100
AcDbEntity
  8
SUNPO
 62
   144
100
AcDbTrace
 10
1982.624477627221
 20
1918.483378138617
 30
0.0
 11
1982.624477627221
 21
1901.816711471951
 31
0.0
 12
2032.624477627221
 22
1910.150044805284
 32
0.0
 13
2032.624477627221
 23
1910.150044805284
 33
0.0
  0
SOLID
  5
F6B
330
1F
100
AcDbEntity
  8
SUNPO
 62
   144
100
AcDbTrace
 10
1782.624477627221
 20
1918.483378138617
 30
0.0
 11
1782.624477627221
 21
1901.816711471951
 31
0.0
 12
1732.624477627221
 22
1910.150044805284
 32
0.0
 13
1732.624477627221
 23
1910.150044805284
 33
0.0
  0
LINE
  5
F6D
330
1F
100
AcDbEntity
  8
SUNPO
 62
   144
100
AcDbLine
 10
2032.838411294047
 20
2400.912869772826
 30
0.0
 11
2032.838411294047
 21
2535.929125142591
 31
0.0
  0
LINE
  5
F6E
330
1F
100
AcDbEntity
  8
SUNPO
 62
   144
100
AcDbLine
 10
2082.838411294047
 20
2400.912869772826
 30
0.0
 11
2082.838411294047
 21
2535.929125142591
 31
0.0
  0
LINE
  5
F6F
330
1F
100
AcDbEntity
  8
SUNPO
 62
   144
100
AcDbLine
 10
1982.838411294046
 20
2525.929125142591
 30
0.0
 11
1932.838411294047
 21
2525.929125142591
 31
0.0
  0
LINE
  5
F70
330
1F
100
AcDbEntity
  8
SUNPO
 62
   144
100
AcDbLine
 10
2132.838411294047
 20
2525.929125142591
 30
0.0
 11
2182.838411294047
 21
2525.929125142591
 31
0.0
  0
LINE
  5
F72
330
1F
100
AcDbEntity
  8
SUNPO
 62
   144
100
AcDbLine
 10
2032.838411294047
 20
2525.929125142591
 30
0.0
 11
2082.838411294047
 21
2525.929125142591
 31
0.0
  0
SOLID
  5
F73
330
1F
100
AcDbEntity
  8
SUNPO
 62
   144
100
AcDbTrace
 10
1982.838411294046
 20
2534.262458475924
 30
0.0
 11
1982.838411294046
 21
2517.595791809258
 31
0.0
 12
2032.838411294047
 22
2525.929125142591
 32
0.0
 13
2032.838411294047
 23
2525.929125142591
 33
0.0
  0
SOLID
  5
F74
330
1F
100
AcDbEntity
  8
SUNPO
 62
   144
100
AcDbTrace
 10
2132.838411294047
 20
2534.262458475924
 30
0.0
 11
2132.838411294047
 21
2517.595791809258
 31
0.0
 12
2082.838411294047
 22
2525.929125142591
 32
0.0
 13
2082.838411294047
 23
2525.929125142591
 33
0.0
  0
LINE
  5
F75
330
1F
100
AcDbEntity
  8
SUNPO
 62
   144
100
AcDbLine
 10
1732.838411294046
 20
2400.912869772829
 30
0.0
 11
1732.838411294046
 21
2535.929125142591
 31
0.0
  0
LINE
  5
F76
330
1F
100
AcDbEntity
  8
SUNPO
 62
   144
100
AcDbLine
 10
2032.838411294047
 20
2400.912869772826
 30
0.0
 11
2032.838411294047
 21
2535.929125142591
 31
0.0
  0
LINE
  5
F77
330
1F
100
AcDbEntity
  8
SUNPO
 62
   144
100
AcDbLine
 10
1782.838411294046
 20
2525.929125142591
 30
0.0
 11
1982.838411294046
 21
2525.929125142591
 31
0.0
  0
SOLID
  5
F78
330
1F
100
AcDbEntity
  8
SUNPO
 62
   144
100
AcDbTrace
 10
1782.838411294046
 20
2534.262458475924
 30
0.0
 11
1782.838411294046
 21
2517.595791809258
 31
0.0
 12
1732.838411294046
 22
2525.929125142591
 32
0.0
 13
1732.838411294046
 23
2525.929125142591
 33
0.0
  0
SOLID
  5
F79
330
1F
100
AcDbEntity
  8
SUNPO
 62
   144
100
AcDbTrace
 10
1982.838411294046
 20
2534.262458475924
 30
0.0
 11
1982.838411294046
 21
2517.595791809258
 31
0.0
 12
2032.838411294047
 22
2525.929125142591
 32
0.0
 13
2032.838411294047
 23
2525.929125142591
 33
0.0
  0
LINE
  5
F7B
330
1F
100
AcDbEntity
  8
SUNPO
 62
   144
100
AcDbLine
 10
2012.838411294047
 20
2218.604794642787
 30
0.0
 11
2012.838411294047
 21
2434.227935929102
 31
0.0
  0
LINE
  5
F7C
330
1F
100
AcDbEntity
  8
SUNPO
 62
   144
100
AcDbLine
 10
2072.838411294047
 20
2218.604794642788
 30
0.0
 11
2072.838411294047
 21
2434.227935929102
 31
0.0
  0
LINE
  5
F7D
330
1F
100
AcDbEntity
  8
SUNPO
 62
   144
100
AcDbLine
 10
1962.838411294047
 20
2424.227935929101
 30
0.0
 11
1912.838411294046
 21
2424.227935929101
 31
0.0
  0
LINE
  5
F7E
330
1F
100
AcDbEntity
  8
SUNPO
 62
   144
100
AcDbLine
 10
2122.838411294047
 20
2424.227935929101
 30
0.0
 11
2172.838411294047
 21
2424.227935929101
 31
0.0
  0
LINE
  5
F80
330
1F
100
AcDbEntity
  8
SUNPO
 62
   144
100
AcDbLine
 10
2012.838411294047
 20
2424.227935929101
 30
0.0
 11
2072.838411294047
 21
2424.227935929101
 31
0.0
  0
SOLID
  5
F81
330
1F
100
AcDbEntity
  8
SUNPO
 62
   144
100
AcDbTrace
 10
1962.838411294047
 20
2432.561269262436
 30
0.0
 11
1962.838411294047
 21
2415.894602595769
 31
0.0
 12
2012.838411294047
 22
2424.227935929101
 32
0.0
 13
2012.838411294047
 23
2424.227935929101
 33
0.0
  0
SOLID
  5
F82
330
1F
100
AcDbEntity
  8
SUNPO
 62
   144
100
AcDbTrace
 10
2122.838411294047
 20
2432.561269262436
 30
0.0
 11
2122.838411294047
 21
2415.894602595769
 31
0.0
 12
2072.838411294047
 22
2424.227935929101
 32
0.0
 13
2072.838411294047
 23
2424.227935929101
 33
0.0
  0
LINE
  5
F83
330
1F
100
AcDbEntity
  8
SUNPO
 62
   144
100
AcDbLine
 10
1752.838411294046
 20
2218.604794642788
 30
0.0
 11
1752.838411294046
 21
2434.227935929102
 31
0.0
  0
LINE
  5
F84
330
1F
100
AcDbEntity
  8
SUNPO
 62
   144
100
AcDbLine
 10
2012.838411294047
 20
2218.604794642787
 30
0.0
 11
2012.838411294047
 21
2434.227935929102
 31
0.0
  0
LINE
  5
F85
330
1F
100
AcDbEntity
  8
SUNPO
 62
   144
100
AcDbLine
 10
1802.838411294047
 20
2424.227935929101
 30
0.0
 11
1962.838411294047
 21
2424.227935929101
 31
0.0
  0
SOLID
  5
F86
330
1F
100
AcDbEntity
  8
SUNPO
 62
   144
100
AcDbTrace
 10
1802.838411294047
 20
2432.561269262436
 30
0.0
 11
1802.838411294047
 21
2415.894602595769
 31
0.0
 12
1752.838411294046
 22
2424.227935929101
 32
0.0
 13
1752.838411294046
 23
2424.227935929101
 33
0.0
  0
SOLID
  5
F87
330
1F
100
AcDbEntity
  8
SUNPO
 62
   144
100
AcDbTrace
 10
1962.838411294047
 20
2432.561269262436
 30
0.0
 11
1962.838411294047
 21
2415.894602595769
 31
0.0
 12
2012.838411294047
 22
2424.227935929101
 32
0.0
 13
2012.838411294047
 23
2424.227935929101
 33
0.0
  0
TEXT
  5
F89
330
1F
100
AcDbEntity
  8
3C1
100
AcDbText
 10
2474.612738260886
 20
334.2082387347982
 30
0.0
 40
100.0
  1
Ｕ_300A
  7
ADD
100
AcDbText
1001
ACAD
1000
MTEXTBEGIN
1070
    73
1070
     1
1070
    44
1040
1.0
1070
    74
1070
     0
1000
MTEXTEND
  0
TEXT
  5
F8A
330
1F
100
AcDbEntity
  8
3C1
100
AcDbText
 10
615.8709773606532
 20
347.6182270735043
 30
0.0
 40
100.0
  1
道路用上ぶた式Ｕ形側溝
  7
ADD
100
AcDbText
1001
ACAD
1000
MTEXTBEGIN
1070
    73
1070
     1
1070
    44
1040
1.0
1070
    74
1070
     0
1000
MTEXTEND
1000
MTEXTBEGIN
1070
    73
1070
     1
1070
    44
1040
1.0
1070
    74
1070
     0
1000
MTEXTEND
  0
TEXT
  5
F8B
330
1F
100
AcDbEntity
  8
3C1
100
AcDbText
 10
3246.680311730542
 20
359.2274732162223
 30
0.0
 40
70.0
  1
１／２０
  7
ADD
100
AcDbText
1001
ACAD
1000
MTEXTBEGIN
1070
    73
1070
     1
1070
    44
1040
1.0
1070
    74
1070
     0
1000
MTEXTEND
1000
MTEXTBEGIN
1070
    73
1070
     1
1070
    44
1040
1.0
1070
    74
1070
     0
1000
MTEXTEND
1000
MTEXTBEGIN
1070
    73
1070
     1
1070
    44
1040
1.0
1070
    74
1070
     0
1000
MTEXTEND
1000
MTEXTBEGIN
1070
    73
1070
     1
1070
    44
1040
1.0
1070
    74
1070
     0
1000
MTEXTEND
1000
MTEXTBEGIN
1070
    73
1070
     1
1070
    44
1040
1.0
1070
    74
1070
     0
1000
MTEXTEND
1000
MTEXTBEGIN
1070
    73
1070
     1
1070
    44
1040
1.0
1070
    74
1070
     0
1000
MTEXTEND
1000
MTEXTBEGIN
1070
    73
1070
     1
1070
    44
1040
1.0
1070
    74
1070
     0
1000
MTEXTEND
  0
TEXT
  5
F8C
330
1F
100
AcDbEntity
  8
3C1
100
AcDbText
 10
381.8862574011546
 20
488.6918916770627
 30
0.0
 40
50.0
  1
製品名
  7
ADD
100
AcDbText
1001
ACAD
1000
MTEXTBEGIN
1070
    73
1070
     1
1070
    44
1040
1.0
1070
    74
1070
     0
1000
MTEXTEND
1000
MTEXTBEGIN
1070
    73
1070
     1
1070
    44
1040
1.0
1070
    74
1070
     0
1000
MTEXTEND
1000
MTEXTBEGIN
1070
    73
1070
     1
1070
    44
1040
1.0
1070
    74
1070
     0
1000
MTEXTEND
1000
MTEXTBEGIN
1070
    73
1070
     1
1070
    44
1040
1.0
1070
    74
1070
     0
1000
MTEXTEND
1000
MTEXTBEGIN
1070
    73
1070
     1
1070
    44
1040
1.0
1070
    74
1070
     0
1000
MTEXTEND
1000
MTEXTBEGIN
1070
    73
1070
     1
1070
    44
1040
1.0
1070
    74
1070
     0
1000
MTEXTEND
1000
MTEXTBEGIN
1070
    73
1070
     1
1070
    44
1040
1.0
1070
    74
1070
     0
1000
MTEXTEND
  0
TEXT
  5
F8D
330
1F
100
AcDbEntity
  8
3C1
100
AcDbText
 10
2376.290169028722
 20
494.4531736811823
 30
0.0
 40
50.0
  1
型式
  7
ADD
100
AcDbText
1001
ACAD
1000
MTEXTBEGIN
1070
    73
1070
     1
1070
    44
1040
1.0
1070
    74
1070
     0
1000
MTEXTEND
1000
MTEXTBEGIN
1070
    73
1070
     1
1070
    44
1040
1.0
1070
    74
1070
     0
1000
MTEXTEND
1000
MTEXTBEGIN
1070
    73
1070
     1
1070
    44
1040
1.0
1070
    74
1070
     0
1000
MTEXTEND
1000
MTEXTBEGIN
1070
    73
1070
     1
1070
    44
1040
1.0
1070
    74
1070
     0
1000
MTEXTEND
1000
MTEXTBEGIN
1070
    73
1070
     1
1070
    44
1040
1.0
1070
    74
1070
     0
1000
MTEXTEND
1000
MTEXTBEGIN
1070
    73
1070
     1
1070
    44
1040
1.0
1070
    74
1070
     0
1000
MTEXTEND
1000
MTEXTBEGIN
1070
    73
1070
     1
1070
    44
1040
1.0
1070
    74
1070
     0
1000
MTEXTEND
  0
TEXT
  5
F8E
330
1F
100
AcDbEntity
  8
3C1
100
AcDbText
 10
3177.510249231657
 20
488.6918916770627
 30
0.0
 40
50.0
  1
縮尺
  7
ADD
100
AcDbText
1001
ACAD
1000
MTEXTBEGIN
1070
    73
1070
     1
1070
    44
1040
1.0
1070
    74
1070
     0
1000
MTEXTEND
1000
MTEXTBEGIN
1070
    73
1070
     1
1070
    44
1040
1.0
1070
    74
1070
     0
1000
MTEXTEND
1000
MTEXTBEGIN
1070
    73
1070
     1
1070
    44
1040
1.0
1070
    74
1070
     0
1000
MTEXTEND
1000
MTEXTBEGIN
1070
    73
1070
     1
1070
    44
1040
1.0
1070
    74
1070
     0
1000
MTEXTEND
1000
MTEXTBEGIN
1070
    73
1070
     1
1070
    44
1040
1.0
1070
    74
1070
     0
1000
MTEXTEND
1000
MTEXTBEGIN
1070
    73
1070
     1
1070
    44
1040
1.0
1070
    74
1070
     0
1000
MTEXTEND
1000
MTEXTBEGIN
1070
    73
1070
     1
1070
    44
1040
1.0
1070
    74
1070
     0
1000
MTEXTEND
  0
TEXT
  5
F8F
330
1F
100
AcDbEntity
  8
3C1
100
AcDbText
 10
3730.870883051572
 20
352.2726133092144
 30
0.0
 40
100.0
  1
千葉県コンクリート製品協同組合
  7
ADD
100
AcDbText
1001
ACAD
1000
MTEXTBEGIN
1070
    73
1070
     1
1070
    44
1040
1.0
1070
    74
1070
     0
1000
MTEXTEND
1000
MTEXTBEGIN
1070
    73
1070
     1
1070
    44
1040
1.0
1070
    74
1070
     0
1000
MTEXTEND
1000
MTEXTBEGIN
1070
    73
1070
     1
1070
    44
1040
1.0
1070
    74
1070
     0
1000
MTEXTEND
1000
MTEXTBEGIN
1070
    73
1070
     1
1070
    44
1040
1.0
1070
    74
1070
     0
1000
MTEXTEND
1000
MTEXTBEGIN
1070
    73
1070
     1
1070
    44
1040
1.0
1070
    74
1070
     0
1000
MTEXTEND
1000
MTEXTBEGIN
1070
    73
1070
     1
1070
    44
1040
1.0
1070
    74
1070
     0
1000
MTEXTEND
1000
MTEXTBEGIN
1070
    73
1070
     1
1070
    44
1040
1.0
1070
    74
1070
     0
1000
MTEXTEND
  0
LINE
  5
F90
330
1F
100
AcDbEntity
  8
HOJO
100
AcDbLine
 10
360.0
 20
260.0
 30
0.0
 11
5580.0
 21
260.0
 31
0.0
  0
LINE
  5
F91
330
1F
100
AcDbEntity
  8
HOJO
100
AcDbLine
 10
5580.0
 20
260.0
 30
0.0
 11
5580.0
 21
3940.0
 31
0.0
  0
LINE
  5
F92
330
1F
100
AcDbEntity
  8
HOJO
100
AcDbLine
 10
5580.0
 20
3940.0
 30
0.0
 11
360.0
 21
3940.0
 31
0.0
  0
LINE
  5
F93
330
1F
100
AcDbEntity
  8
HOJO
100
AcDbLine
 10
360.0
 20
3940.0
 30
0.0
 11
360.0
 21
260.0
 31
0.0
  0
LINE
  5
F94
330
1F
100
AcDbEntity
  8
HOJO
100
AcDbLine
 10
0.0
 20
0.0
 30
0.0
 11
5940.0
 21
0.0
 31
0.0
  0
LINE
  5
F95
330
1F
100
AcDbEntity
  8
HOJO
100
AcDbLine
 10
5940.0
 20
0.0
 30
0.0
 11
5940.0
 21
4200.0
 31
0.0
  0
LINE
  5
F96
330
1F
100
AcDbEntity
  8
HOJO
100
AcDbLine
 10
5940.0
 20
4200.0
 30
0.0
 11
0.0
 21
4200.0
 31
0.0
  0
LINE
  5
F97
330
1F
100
AcDbEntity
  8
HOJO
100
AcDbLine
 10
0.0
 20
4200.0
 30
0.0
 11
0.0
 21
0.0
 31
0.0
  0
TEXT
  5
F98
330
1F
100
AcDbEntity
  8
3C1
 62
     7
100
AcDbText
 10
1811.409839865476
 20
2436.727935929102
 30
0.0
 40
50.0
  1
260
  7
ADD
100
AcDbText
  0
TEXT
  5
F99
330
1F
100
AcDbEntity
  8
3C1
 62
     7
100
AcDbText
 10
2099.028887484522
 20
2436.727935929102
 30
0.0
 40
50.0
  1
60
  7
ADD
100
AcDbText
  0
TEXT
  5
F9A
330
1F
100
AcDbEntity
  8
3C1
 62
     7
100
AcDbText
 10
1811.409839865476
 20
2538.429125142591
 30
0.0
 40
50.0
  1
300
  7
ADD
100
AcDbText
  0
TEXT
  5
F9B
330
1F
100
AcDbEntity
  8
3C1
 62
     7
100
AcDbText
 10
2110.219363674999
 20
2538.429125142591
 30
0.0
 40
50.0
  1
50
  7
ADD
100
AcDbText
  0
TEXT
  5
F9C
330
1F
100
AcDbEntity
  8
3C1
 62
     7
100
AcDbText
 10
1811.19590619865
 20
1922.650044805284
 30
0.0
 40
50.0
  1
300
  7
ADD
100
AcDbText
  0
TEXT
  5
F9D
330
1F
100
AcDbEntity
  8
3C1
 62
     7
100
AcDbText
 10
1905.118313356106
 20
2189.484298344255
 30
0.0
 40
50.0
  1
240
 50
90.0
  7
ADD
100
AcDbText
  0
TEXT
  5
F9E
330
1F
100
AcDbEntity
  8
3C1
 62
     7
100
AcDbText
 10
4197.380952380952
 20
1934.672531860038
 30
0.0
 40
50.0
  1
600
  7
ADD
100
AcDbText
  0
TEXT
  5
F9F
330
1F
100
AcDbEntity
  8
3C1
 62
     7
100
AcDbText
 10
1586.065168614813
 20
1978.219506084667
 30
0.0
 40
50.0
  1
R50
 50
47.36957332078732
  7
ADD
100
AcDbText
  0
TEXT
  5
FA0
330
1F
100
AcDbEntity
  8
3C1
 62
     7
100
AcDbText
 10
2226.654782037243
 20
2250.139010263541
 30
0.0
 40
50.0
  1
45°
 50
292.7116360945565
  7
ADD
100
AcDbText
  0
VIEWPORT
  5
72
330
1B
100
AcDbEntity
 67
     1
  8
0
100
AcDbViewport
 10
578.8914265011195
 20
308.2351889773414
 30
0.0
 40
1287.06613890523
 41
690.9223776620393
 68
     1
 69
     1
1001
ACAD
1000
MVIEW
1002
{
1070
    16
1010
0.0
1020
0.0
1030
0.0
1010
0.0
1020
0.0
1030
1.0
1040
0.0
1040
690.9223776620393
1040
578.8914265011195
1040
308.2351889773414
1040
50.0
1040
0.0
1040
0.0
1070
     0
1070
   100
1070
     1
1070
     1
1070
     0
1070
     0
1070
     0
1070
     0
1040
0.0
1040
0.0
1040
0.0
1040
10.0
1040
10.0
1040
10.0
1040
10.0
1070
     0
1002
{
1002
}
1002
}
  0
VIEWPORT
  5
74
330
1B
100
AcDbEntity
 67
     1
  8
VIEWPORT
100
AcDbViewport
 10
414.3779638919212
 20
277.3177265058034
 30
0.0
 40
840.0353682728887
 41
567.2285469943826
 68
     2
 69
     2
1001
ACAD
1000
MVIEW
1002
{
1070
    16
1010
0.0
1020
0.0
1030
0.0
1010
0.0
1020
0.0
1030
1.0
1040
0.0
1040
579.5583043546322
1040
424.4938908624541
1040
286.1973242720074
1040
50.0
1040
0.0
1040
0.0
1070
     0
1070
   100
1070
     1
1070
     1
1070
     0
1070
     0
1070
     0
1070
     0
1040
0.0
1040
0.0
1040
0.0
1040
10.0
1040
10.0
1040
10.0
1040
10.0
1070
     0
1002
{
1002
}
1002
}
  0
ENDSEC
  0
SECTION
  2
OBJECTS
  0
DICTIONARY
  5
C
330
0
100
AcDbDictionary
  3
ACAD_GROUP
350
D
  3
ACAD_LAYOUT
350
1A
  3
ACAD_MLINESTYLE
350
17
  3
ACAD_PLOTSETTINGS
350
19
  3
DWGPROPS
350
4C7
1001
ACAD
1000
TREAT_AS_HARD
1070
     0
1000
TREAT_AS_HARD
1070
     0
  0
DICTIONARY
  5
65D
330
1F
100
AcDbDictionary
  3
ACAD_LAYOUTSELFREF
350
FC2
1001
ACAD
1000
TREAT_AS_HARD
1070
     1
1000
TREAT_AS_HARD
1070
     0
  0
DICTIONARY
  5
65F
330
1B
100
AcDbDictionary
  3
ACAD_LAYOUTSELFREF
350
FC1
1001
ACAD
1000
TREAT_AS_HARD
1070
     1
1000
TREAT_AS_HARD
1070
     0
  0
DICTIONARY
  5
D
102
{ACAD_REACTORS
330
C
102
}
330
C
100
AcDbDictionary
1001
ACAD
1000
TREAT_AS_HARD
1070
     0
1000
TREAT_AS_HARD
1070
     0
  0
DICTIONARY
  5
1A
102
{ACAD_REACTORS
330
C
102
}
330
C
100
AcDbDictionary
1001
ACAD
1000
TREAT_AS_HARD
1070
     0
1000
TREAT_AS_HARD
1070
     0
  0
DICTIONARY
  5
17
102
{ACAD_REACTORS
330
C
102
}
330
C
100
AcDbDictionary
  3
STANDARD
350
18
1001
ACAD
1000
TREAT_AS_HARD
1070
     0
1000
TREAT_AS_HARD
1070
     0
  0
DICTIONARY
  5
19
102
{ACAD_REACTORS
330
C
102
}
330
C
100
AcDbDictionary
1001
ACAD
1000
TREAT_AS_HARD
1070
     0
1000
TREAT_AS_HARD
1070
     0
  0
XRECORD
  5
4C7
102
{ACAD_REACTORS
330
C
102
}
330
C
100
AcDbXrecord
  1
DWGPROPS COOKIE
  2
印刷用テスト
  3
AutoCAD2000による建築設計
  4
鈴木 裕二
  6

  7

  8
U2
  9

300
=
301
=
302
=
303
=
304
=
305
=
306
=
307
=
308
=
309
=
 40
0.7653446875
 41
2451285.4846114
 42
2451333.689743032
  1

 90
        0
  0
XRECORD
  5
FC2
102
{ACAD_REACTORS
330
65D
102
}
330
65D
100
AcDbXrecord
340
1F
  0
XRECORD
  5
FC1
102
{ACAD_REACTORS
330
65F
102
}
330
65F
100
AcDbXrecord
340
1B
  0
MLINESTYLE
  5
18
102
{ACAD_REACTORS
330
17
102
}
330
17
100
AcDbMlineStyle
  2
STANDARD
 70
     0
  3

 62
   256
 51
90.0
 52
90.0
 71
     2
 49
0.5
 62
   256
  6
BYLAYER
 49
-0.5
 62
   256
  6
BYLAYER
  0
ENDSEC
  0
EOF
