  0
SECTION
  2
HEADER
  9
$ACADVER
  1
AC1012
  9
$DWGCODEPAGE
  3
dos932
  9
$INSBASE
 10
0.0
 20
0.0
 30
0.0
  9
$EXTMIN
 10
-0.1812605841350887
 20
-0.1281640493871237
 30
-0.0015258207003583
  9
$EXTMAX
 10
5940.181288244414
 20
4200.128183607161
 30
0.0000000349246037
  9
$LIMMIN
 10
0.0
 20
0.0
  9
$LIMMAX
 10
5940.0
 20
4200.0
  9
$ORTHOMODE
 70
     0
  9
$REGENMODE
 70
     1
  9
$FILLMODE
 70
     1
  9
$QTEXTMODE
 70
     0
  9
$MIRRTEXT
 70
     0
  9
$DRAGMODE
 70
     2
  9
$LTSCALE
 40
10.0
  9
$OSMODE
 70
  3071
  9
$ATTMODE
 70
     1
  9
$TEXTSIZE
 40
50.0
  9
$TRACEWID
 40
300.0
  9
$TEXTSTYLE
  7
ADD
  9
$CLAYER
  8
SUNPO
  9
$CELTYPE
  6
BYLAYER
  9
$CECOLOR
 62
   256
  9
$CELTSCALE
 40
1.0
  9
$DELOBJ
 70
     1
  9
$DISPSILH
 70
     0
  9
$DIMSCALE
 40
20.0
  9
$DIMASZ
 40
2.5
  9
$DIMEXO
 40
1.0
  9
$DIMDLI
 40
7.0
  9
$DIMRND
 40
0.0
  9
$DIMDLE
 40
0.0
  9
$DIMEXE
 40
0.5
  9
$DIMTP
 40
0.0
  9
$DIMTM
 40
0.0
  9
$DIMTXT
 40
2.5
  9
$DIMCEN
 40
2.5
  9
$DIMTSZ
 40
0.0
  9
$DIMTOL
 70
     0
  9
$DIMLIM
 70
     0
  9
$DIMTIH
 70
     0
  9
$DIMTOH
 70
     0
  9
$DIMSE1
 70
     0
  9
$DIMSE2
 70
     0
  9
$DIMTAD
 70
     1
  9
$DIMZIN
 70
     8
  9
$DIMBLK
  1

  9
$DIMASO
 70
     1
  9
$DIMSHO
 70
     1
  9
$DIMPOST
  1

  9
$DIMAPOST
  1

  9
$DIMALT
 70
     0
  9
$DIMALTD
 70
     3
  9
$DIMALTF
 40
0.03937007874016
  9
$DIMLFAC
 40
1.0
  9
$DIMTOFL
 70
     1
  9
$DIMTVP
 40
0.7
  9
$DIMTIX
 70
     0
  9
$DIMSOXD
 70
     0
  9
$DIMSAH
 70
     0
  9
$DIMBLK1
  1

  9
$DIMBLK2
  1

  9
$DIMSTYLE
  2
ADD
  9
$DIMCLRD
 70
   144
  9
$DIMCLRE
 70
   144
  9
$DIMCLRT
 70
     7
  9
$DIMTFAC
 40
1.0
  9
$DIMGAP
 40
0.625
  9
$DIMJUST
 70
     0
  9
$DIMSD1
 70
     0
  9
$DIMSD2
 70
     0
  9
$DIMTOLJ
 70
     2
  9
$DIMTZIN
 70
     8
  9
$DIMALTZ
 70
     0
  9
$DIMALTTZ
 70
     0
  9
$DIMFIT
 70
     3
  9
$DIMUPT
 70
     0
  9
$DIMUNIT
 70
     2
  9
$DIMDEC
 70
     0
  9
$DIMTDEC
 70
     0
  9
$DIMALTU
 70
     2
  9
$DIMALTTD
 70
     3
  9
$DIMTXSTY
  7
ADD
  9
$DIMAUNIT
 70
     0
  9
$LUNITS
 70
     2
  9
$LUPREC
 70
     4
  9
$SKETCHINC
 40
1.0
  9
$FILLETRAD
 40
0.0
  9
$AUNITS
 70
     0
  9
$AUPREC
 70
     1
  9
$MENU
  1
.
  9
$ELEVATION
 40
0.0
  9
$PELEVATION
 40
0.0
  9
$THICKNESS
 40
0.0
  9
$LIMCHECK
 70
     0
  9
$BLIPMODE
 70
     0
  9
$CHAMFERA
 40
0.0
  9
$CHAMFERB
 40
0.0
  9
$CHAMFERC
 40
50.0
  9
$CHAMFERD
 40
0.7853981633974483
  9
$SKPOLY
 70
     0
  9
$TDCREATE
 40
2451801.142532870
  9
$TDUPDATE
 40
2452207.590727801
  9
$TDINDWG
 40
0.3385517824
  9
$TDUSRTIMER
 40
0.3385515509
  9
$USRTIMER
 70
     1
  9
$ANGBASE
 50
0.0
  9
$ANGDIR
 70
     0
  9
$PDMODE
 70
    34
  9
$PDSIZE
 40
0.0
  9
$PLINEWID
 40
0.0
  9
$COORDS
 70
     1
  9
$SPLFRAME
 70
     0
  9
$SPLINETYPE
 70
     6
  9
$SPLINESEGS
 70
     8
  9
$ATTDIA
 70
     0
  9
$ATTREQ
 70
     1
  9
$HANDLING
 70
-16383
  9
$HANDSEED
  5
1267
  9
$SURFTAB1
 70
     6
  9
$SURFTAB2
 70
     6
  9
$SURFTYPE
 70
     6
  9
$SURFU
 70
     6
  9
$SURFV
 70
     6
  9
$UCSNAME
  2

  9
$UCSORG
 10
0.0
 20
0.0
 30
0.0
  9
$UCSXDIR
 10
1.0
 20
0.0
 30
0.0
  9
$UCSYDIR
 10
0.0
 20
1.0
 30
0.0
  9
$PUCSNAME
  2

  9
$PUCSORG
 10
0.0
 20
0.0
 30
0.0
  9
$PUCSXDIR
 10
1.0
 20
0.0
 30
0.0
  9
$PUCSYDIR
 10
0.0
 20
1.0
 30
0.0
  9
$USERI1
 70
     0
  9
$USERI2
 70
     0
  9
$USERI3
 70
     0
  9
$USERI4
 70
     0
  9
$USERI5
 70
     0
  9
$USERR1
 40
841.0
  9
$USERR2
 40
594.0
  9
$USERR3
 40
1.0
  9
$USERR4
 40
0.0
  9
$USERR5
 40
0.0
  9
$WORLDVIEW
 70
     1
  9
$SHADEDGE
 70
     3
  9
$SHADEDIF
 70
    70
  9
$TILEMODE
 70
     1
  9
$MAXACTVP
 70
    48
  9
$PINSBASE
 10
0.0
 20
0.0
 30
0.0
  9
$PLIMCHECK
 70
     0
  9
$PEXTMIN
 10
-5.639720244523232
 20
-6.296546991387912
 30
0.0
  9
$PEXTMAX
 10
834.3956480283653
 20
560.9320000029946
 30
0.0
  9
$PLIMMIN
 10
-7.5
 20
-20.0
  9
$PLIMMAX
 10
833.5000000000004
 20
574.0000000000001
  9
$UNITMODE
 70
     0
  9
$VISRETAIN
 70
     1
  9
$PLINEGEN
 70
     0
  9
$PSLTSCALE
 70
     1
  9
$TREEDEPTH
 70
  3020
  9
$PICKSTYLE
 70
     1
  9
$CMLSTYLE
  2
STANDARD
  9
$CMLJUST
 70
     0
  9
$CMLSCALE
 40
20.0
  9
$SAVEIMAGES
 70
     1
  0
ENDSEC
  0
SECTION
  2
CLASSES
  0
CLASS
  1
ACDBDICTIONARYWDFLT
  2
AcDbDictionaryWithDefault
  3
AutoCAD 2000
 90
    32768
280
     0
281
     0
  0
CLASS
  1
ACDBPLACEHOLDER
  2
AcDbPlaceHolder
  3
AutoCAD 2000
 90
    32768
280
     0
281
     0
  0
CLASS
  1
LAYOUT
  2
AcDbLayout
  3
AutoCAD 2000
 90
    32768
280
     0
281
     0
  0
CLASS
  1
RTEXT
  2
RText
  3
RText|AutoCAD Express Tool|expresstools@autodesk.com
 90
    32768
280
     0
281
     1
  0
CLASS
  1
DICTIONARYVAR
  2
AcDbDictionaryVar
  3
AutoCAD 2000
 90
    32768
280
     0
281
     0
  0
CLASS
  1
LONG_TRANSACTION
  2
AcDbLongTransaction
  3
AutoCAD 2000
 90
    32768
280
     0
281
     0
  0
CLASS
  1
LWPOLYLINE
  2
AcDbPolyline
  3
AutoCAD 2000
 90
    32768
280
     0
281
     1
  0
CLASS
  1
HATCH
  2
AcDbHatch
  3
AutoCAD 2000
 90
    32768
280
     0
281
     1
  0
CLASS
  1
XRECORD
  2
AcDbXrecord
  3
AutoCAD 2000
 90
    32768
280
     0
281
     0
  0
CLASS
  1
LONG_TRANSACTION
  2
AcDbLongTransaction
  3
AutoCAD 2000
 90
    32768
280
     0
281
     0
  0
CLASS
  1
LWPOLYLINE
  2
AcDbPolyline
  3
AutoCAD 2000
 90
    32768
280
     0
281
     1
  0
CLASS
  1
HATCH
  2
AcDbHatch
  3
AutoCAD 2000
 90
    32768
280
     0
281
     1
  0
CLASS
  1
XRECORD
  2
AcDbXrecord
  3
AutoCAD 2000
 90
    32768
280
     0
281
     0
  0
CLASS
  1
LONG_TRANSACTION
  2
AcDbLongTransaction
  3
AutoCAD 2000
 90
    32768
280
     0
281
     0
  0
CLASS
  1
LWPOLYLINE
  2
AcDbPolyline
  3
AutoCAD 2000
 90
    32768
280
     0
281
     1
  0
CLASS
  1
HATCH
  2
AcDbHatch
  3
AutoCAD 2000
 90
    32768
280
     0
281
     1
  0
CLASS
  1
XRECORD
  2
AcDbXrecord
  3
AutoCAD 2000
 90
    32768
280
     0
281
     0
  0
CLASS
  1
LONG_TRANSACTION
  2
AcDbLongTransaction
  3
AutoCAD 2000
 90
    32768
280
     0
281
     0
  0
CLASS
  1
LWPOLYLINE
  2
AcDbPolyline
  3
AutoCAD 2000
 90
    32768
280
     0
281
     1
  0
CLASS
  1
HATCH
  2
AcDbHatch
  3
AutoCAD 2000
 90
    32768
280
     0
281
     1
  0
CLASS
  1
XRECORD
  2
AcDbXrecord
  3
AutoCAD 2000
 90
    32768
280
     0
281
     0
  0
CLASS
  1
LONG_TRANSACTION
  2
AcDbLongTransaction
  3
AutoCAD 2000
 90
    32768
280
     0
281
     0
  0
CLASS
  1
LWPOLYLINE
  2
AcDbPolyline
  3
AutoCAD 2000
 90
    32768
280
     0
281
     1
  0
CLASS
  1
HATCH
  2
AcDbHatch
  3
AutoCAD 2000
 90
    32768
280
     0
281
     1
  0
CLASS
  1
XRECORD
  2
AcDbXrecord
  3
AutoCAD 2000
 90
    32768
280
     0
281
     0
  0
CLASS
  1
LONG_TRANSACTION
  2
AcDbLongTransaction
  3
AutoCAD 2000
 90
    32768
280
     0
281
     0
  0
CLASS
  1
LWPOLYLINE
  2
AcDbPolyline
  3
AutoCAD 2000
 90
    32768
280
     0
281
     1
  0
CLASS
  1
HATCH
  2
AcDbHatch
  3
AutoCAD 2000
 90
    32768
280
     0
281
     1
  0
CLASS
  1
XRECORD
  2
AcDbXrecord
  3
AutoCAD 2000
 90
    32768
280
     0
281
     0
  0
CLASS
  1
LONG_TRANSACTION
  2
AcDbLongTransaction
  3
AutoCAD 2000
 90
    32768
280
     0
281
     0
  0
CLASS
  1
LWPOLYLINE
  2
AcDbPolyline
  3
AutoCAD 2000
 90
    32768
280
     0
281
     1
  0
CLASS
  1
HATCH
  2
AcDbHatch
  3
AutoCAD 2000
 90
    32768
280
     0
281
     1
  0
CLASS
  1
XRECORD
  2
AcDbXrecord
  3
AutoCAD 2000
 90
    32768
280
     0
281
     0
  0
CLASS
  1
LONG_TRANSACTION
  2
AcDbLongTransaction
  3
AutoCAD 2000
 90
    32768
280
     0
281
     0
  0
CLASS
  1
LWPOLYLINE
  2
AcDbPolyline
  3
AutoCAD 2000
 90
    32768
280
     0
281
     1
  0
CLASS
  1
HATCH
  2
AcDbHatch
  3
AutoCAD 2000
 90
    32768
280
     0
281
     1
  0
CLASS
  1
XRECORD
  2
AcDbXrecord
  3
AutoCAD 2000
 90
    32768
280
     0
281
     0
  0
CLASS
  1
LONG_TRANSACTION
  2
AcDbLongTransaction
  3
AutoCAD 2000
 90
    32768
280
     0
281
     0
  0
CLASS
  1
LWPOLYLINE
  2
AcDbPolyline
  3
AutoCAD 2000
 90
    32768
280
     0
281
     1
  0
CLASS
  1
HATCH
  2
AcDbHatch
  3
AutoCAD 2000
 90
    32768
280
     0
281
     1
  0
CLASS
  1
XRECORD
  2
AcDbXrecord
  3
AutoCAD 2000
 90
    32768
280
     0
281
     0
  0
CLASS
  1
LONG_TRANSACTION
  2
AcDbLongTransaction
  3
AutoCAD 2000
 90
    32768
280
     0
281
     0
  0
CLASS
  1
LWPOLYLINE
  2
AcDbPolyline
  3
AutoCAD 2000
 90
    32768
280
     0
281
     1
  0
CLASS
  1
HATCH
  2
AcDbHatch
  3
AutoCAD 2000
 90
    32768
280
     0
281
     1
  0
CLASS
  1
XRECORD
  2
AcDbXrecord
  3
AutoCAD 2000
 90
    32768
280
     0
281
     0
  0
ENDSEC
  0
SECTION
  2
TABLES
  0
TABLE
  2
VPORT
  5
8
330
0
100
AcDbSymbolTable
 70
     2
  0
VPORT
  5
1257
330
8
100
AcDbSymbolTableRecord
100
AcDbViewportTableRecord
  2
*ACTIVE
 70
     0
 10
0.0
 20
0.0
 11
1.0
 21
1.0
 12
2970.000013830138
 22
2100.000009778886
 13
0.0
 23
0.0
 14
10.0
 24
10.0
 15
10.0
 25
10.0
 16
0.0
 26
0.0
 36
1.0
 17
0.0
 27
0.0
 37
0.0
 40
4249.286577395729
 41
1.84990253411306
 42
50.0
 43
0.0
 44
0.0
 50
0.0
 51
0.0
 71
     0
 72
   100
 73
     1
 74
     1
 75
     0
 76
     0
 77
     0
 78
     0
  0
ENDTAB
  0
TABLE
  2
LTYPE
  5
5
330
0
100
AcDbSymbolTable
 70
     5
  0
LTYPE
  5
14
330
5
100
AcDbSymbolTableRecord
100
AcDbLinetypeTableRecord
  2
BYBLOCK
 70
     0
  3

 72
    65
 73
     0
 40
0.0
  0
LTYPE
  5
15
330
5
100
AcDbSymbolTableRecord
100
AcDbLinetypeTableRecord
  2
BYLAYER
 70
     0
  3

 72
    65
 73
     0
 40
0.0
  0
LTYPE
  5
16
330
5
100
AcDbSymbolTableRecord
100
AcDbLinetypeTableRecord
  2
CONTINUOUS
 70
     0
  3
Solid line
 72
    65
 73
     0
 40
0.0
  0
LTYPE
  5
555
330
5
100
AcDbSymbolTableRecord
100
AcDbLinetypeTableRecord
  2
CENTER
 70
     0
  3
Center ____ _ ____ _ ____ _ ____ _ ____ _ ____
 72
    65
 73
     4
 40
50.8
 49
31.75
 74
     0
 49
-6.349999999999998
 74
     0
 49
6.349999999999998
 74
     0
 49
-6.349999999999998
 74
     0
  0
LTYPE
  5
556
330
5
100
AcDbSymbolTableRecord
100
AcDbLinetypeTableRecord
  2
HIDDEN
 70
     0
  3
Hidden __ __ __ __ __ __ __ __ __ __ __ __ __ _
 72
    65
 73
     2
 40
9.524999999999996
 49
6.349999999999998
 74
     0
 49
-3.174999999999998
 74
     0
  0
LTYPE
  5
557
330
5
100
AcDbSymbolTableRecord
100
AcDbLinetypeTableRecord
  2
HIDDEN2
 70
     0
  3
Hidden (.5x) _ _ _ _ _ _ _ _ _ _ _ _ _ _ _ _ _
 72
    65
 73
     2
 40
4.762499999999998
 49
3.174999999999998
 74
     0
 49
-1.587499999999999
 74
     0
  0
LTYPE
  5
558
330
5
100
AcDbSymbolTableRecord
100
AcDbLinetypeTableRecord
  2
PHANTOM
 70
     0
  3
Phantom ______  __  __  ______  __  __  ______
 72
    65
 73
     6
 40
63.5
 49
31.75
 74
     0
 49
-6.349999999999998
 74
     0
 49
6.349999999999998
 74
     0
 49
-6.349999999999998
 74
     0
 49
6.349999999999998
 74
     0
 49
-6.349999999999998
 74
     0
  0
ENDTAB
  0
TABLE
  2
LAYER
  5
2
330
0
100
AcDbSymbolTable
 70
    22
  0
LAYER
  5
10
330
2
100
AcDbSymbolTableRecord
100
AcDbLayerTableRecord
  2
0
 70
     0
 62
     7
  6
CONTINUOUS
  0
LAYER
  5
75
330
2
100
AcDbSymbolTableRecord
100
AcDbLayerTableRecord
  2
VIEWPORT
 70
     0
 62
     1
  6
CONTINUOUS
  0
LAYER
  5
504
330
2
100
AcDbSymbolTableRecord
100
AcDbLayerTableRecord
  2
DEFPOINTS
 70
     0
 62
     6
  6
CONTINUOUS
  0
LAYER
  5
505
330
2
100
AcDbSymbolTableRecord
100
AcDbLayerTableRecord
  2
1C1
 70
     0
 62
   254
  6
CONTINUOUS
  0
LAYER
  5
506
330
2
100
AcDbSymbolTableRecord
100
AcDbLayerTableRecord
  2
1C2
 70
     0
 62
   254
  6
CONTINUOUS
  0
LAYER
  5
507
330
2
100
AcDbSymbolTableRecord
100
AcDbLayerTableRecord
  2
2C1
 70
     0
 62
   144
  6
CONTINUOUS
  0
LAYER
  5
508
330
2
100
AcDbSymbolTableRecord
100
AcDbLayerTableRecord
  2
2C2
 70
     0
 62
   144
  6
CONTINUOUS
  0
LAYER
  5
509
330
2
100
AcDbSymbolTableRecord
100
AcDbLayerTableRecord
  2
2H1
 70
     0
 62
   144
  6
HIDDEN
  0
LAYER
  5
50A
330
2
100
AcDbSymbolTableRecord
100
AcDbLayerTableRecord
  2
2H2
 70
     0
 62
   144
  6
HIDDEN2
  0
LAYER
  5
50B
330
2
100
AcDbSymbolTableRecord
100
AcDbLayerTableRecord
  2
2P1
 70
     0
 62
   144
  6
PHANTOM
  0
LAYER
  5
50C
330
2
100
AcDbSymbolTableRecord
100
AcDbLayerTableRecord
  2
3C1
 70
     0
 62
     7
  6
CONTINUOUS
  0
LAYER
  5
50D
330
2
100
AcDbSymbolTableRecord
100
AcDbLayerTableRecord
  2
3C2
 70
     0
 62
     7
  6
CONTINUOUS
  0
LAYER
  5
50E
330
2
100
AcDbSymbolTableRecord
100
AcDbLayerTableRecord
  2
3C3
 70
     0
 62
     7
  6
CONTINUOUS
  0
LAYER
  5
50F
330
2
100
AcDbSymbolTableRecord
100
AcDbLayerTableRecord
  2
4H1
 70
     0
 62
     6
  6
HIDDEN
  0
LAYER
  5
510
330
2
100
AcDbSymbolTableRecord
100
AcDbLayerTableRecord
  2
4H2
 70
     0
 62
     6
  6
HIDDEN2
  0
LAYER
  5
511
330
2
100
AcDbSymbolTableRecord
100
AcDbLayerTableRecord
  2
5C1
 70
     0
 62
    55
  6
CONTINUOUS
  0
LAYER
  5
512
330
2
100
AcDbSymbolTableRecord
100
AcDbLayerTableRecord
  2
5C2
 70
     0
 62
    55
  6
CONTINUOUS
  0
LAYER
  5
513
330
2
100
AcDbSymbolTableRecord
100
AcDbLayerTableRecord
  2
8C1
 70
     0
 62
    92
  6
CONTINUOUS
  0
LAYER
  5
514
330
2
100
AcDbSymbolTableRecord
100
AcDbLayerTableRecord
  2
HOJO
 70
     0
 62
     5
  6
CONTINUOUS
  0
LAYER
  5
515
330
2
100
AcDbSymbolTableRecord
100
AcDbLayerTableRecord
  2
KIJUN
 70
     0
 62
     1
  6
CENTER
  0
LAYER
  5
516
330
2
100
AcDbSymbolTableRecord
100
AcDbLayerTableRecord
  2
MOJI
 70
     0
 62
     7
  6
CONTINUOUS
  0
LAYER
  5
517
330
2
100
AcDbSymbolTableRecord
100
AcDbLayerTableRecord
  2
SUNPO
 70
     0
 62
   144
  6
CONTINUOUS
  0
ENDTAB
  0
TABLE
  2
STYLE
  5
3
330
0
100
AcDbSymbolTable
 70
     6
  0
STYLE
  5
11
330
3
100
AcDbSymbolTableRecord
100
AcDbTextStyleTableRecord
  2
STANDARD
 70
     0
 40
0.0
 41
1.0
 50
0.0
 71
     0
 42
2.5
  3
txt
  4

  0
STYLE
  5
2C
330
3
100
AcDbSymbolTableRecord
100
AcDbTextStyleTableRecord
  2

 70
     1
 40
0.0
 41
1.0
 50
0.0
 71
     0
 42
2.5
  3
ltypeshp.shx
  4

  0
STYLE
  5
18E
330
3
100
AcDbSymbolTableRecord
100
AcDbTextStyleTableRecord
  2
ADD
 70
     0
 40
0.0
 41
1.0
 50
0.0
 71
     0
 42
50.0
  3
romans.shx
  4
bigfont.shx
  0
STYLE
  5
191
330
3
100
AcDbSymbolTableRecord
100
AcDbTextStyleTableRecord
  2
MSG
 70
     0
 40
0.0
 41
1.0
 50
0.0
 71
     0
 42
2.5
  3
MS Gothic.ttf
  4

1001
ACAD
1000
MS Gothic
1071
    32817
  0
STYLE
  5
5C8
330
3
100
AcDbSymbolTableRecord
100
AcDbTextStyleTableRecord
  2
STANDARD15
 70
     0
 40
0.0
 41
1.0
 50
15.0
 71
     0
 42
2.5
  3
ROMANS
  4
bigfont
  0
STYLE
  5
5C9
330
3
100
AcDbSymbolTableRecord
100
AcDbTextStyleTableRecord
  2
ROMANS15
 70
     0
 40
0.0
 41
1.0
 50
15.0
 71
     0
 42
2.5
  3
romans
  4

  0
ENDTAB
  0
TABLE
  2
VIEW
  5
6
330
0
100
AcDbSymbolTable
 70
     1
  0
VIEW
  5
54D
330
6
100
AcDbSymbolTableRecord
100
AcDbViewTableRecord
  2
ALL
 70
     0
 40
594.0
 10
420.5
 20
297.0
 41
865.125
 11
0.0
 21
0.0
 31
1.0
 12
0.0
 22
0.0
 32
0.0
 42
50.0
 43
0.0
 44
0.0
 50
0.0
 71
     0
  0
ENDTAB
  0
TABLE
  2
UCS
  5
7
330
0
100
AcDbSymbolTable
 70
     0
  0
ENDTAB
  0
TABLE
  2
APPID
  5
9
330
0
100
AcDbSymbolTable
 70
     4
  0
APPID
  5
12
330
9
100
AcDbSymbolTableRecord
100
AcDbRegAppTableRecord
  2
ACAD
 70
     0
  0
APPID
  5
5CB
330
9
100
AcDbSymbolTableRecord
100
AcDbRegAppTableRecord
  2
ARAIGUMI_YOHEKI
 70
     0
  0
APPID
  5
5CC
330
9
100
AcDbSymbolTableRecord
100
AcDbRegAppTableRecord
  2
CONTENTTABDATA
 70
     0
  0
APPID
  5
5CD
330
9
100
AcDbSymbolTableRecord
100
AcDbRegAppTableRecord
  2
CONTENTCURRENTTAB
 70
     0
  0
ENDTAB
  0
TABLE
  2
DIMSTYLE
  5
A
330
0
100
AcDbSymbolTable
 70
    10
  0
DIMSTYLE
105
27
330
A
100
AcDbSymbolTableRecord
100
AcDbDimStyleTableRecord
  2
ISO-25
 70
     0
  3

  4

  5

  6

  7

 40
1.0
 41
2.5
 42
0.625
 43
3.75
 44
1.25
 45
0.0
 46
0.0
 47
0.0
 48
0.0
140
2.5
141
2.5
142
0.0
143
0.03937007874016
144
1.0
145
0.0
146
1.0
147
0.625
 71
     0
 72
     0
 73
     0
 74
     0
 75
     0
 76
     0
 77
     1
 78
     8
170
     0
171
     3
172
     1
173
     0
174
     0
175
     0
176
     0
177
     0
178
     0
270
     2
271
     2
272
     2
273
     2
274
     3
340
11
275
     0
280
     0
281
     0
282
     0
283
     0
284
     8
285
     0
286
     0
287
     3
288
     0
  0
DIMSTYLE
105
197
330
A
100
AcDbSymbolTableRecord
100
AcDbDimStyleTableRecord
  2
ADD
 70
     0
  3

  4

  5

  6

  7

 40
1.0
 41
2.5
 42
1.0
 43
7.0
 44
0.5
 45
0.0
 46
0.0
 47
0.0
 48
0.0
140
2.5
141
2.5
142
0.0
143
0.03937007874016
144
1.0
145
0.7
146
1.0
147
0.625
 71
     0
 72
     0
 73
     0
 74
     0
 75
     0
 76
     0
 77
     1
 78
     8
170
     0
171
     3
172
     1
173
     0
174
     1
175
     0
176
   144
177
   144
178
     7
270
     2
271
     1
272
     1
273
     2
274
     3
340
18E
275
     0
280
     0
281
     0
282
     0
283
     2
284
     8
285
     0
286
     0
287
     3
288
     0
  0
DIMSTYLE
105
3E6
330
A
100
AcDbSymbolTableRecord
100
AcDbDimStyleTableRecord
  2
ADD$2
 70
     0
  3

  4

  5

  6

  7

 40
1.0
 41
2.5
 42
1.0
 43
7.0
 44
0.5
 45
0.0
 46
0.0
 47
0.0
 48
0.0
140
2.5
141
2.5
142
0.0
143
0.03937007874016
144
1.0
145
0.7
146
1.0
147
0.625
 71
     0
 72
     0
 73
     0
 74
     0
 75
     0
 76
     0
 77
     1
 78
     8
170
     0
171
     3
172
     1
173
     0
174
     1
175
     0
176
   144
177
   144
178
     7
270
     2
271
     1
272
     1
273
     2
274
     3
340
18E
275
     0
280
     0
281
     0
282
     0
283
     2
284
     8
285
     0
286
     0
287
     3
288
     0
  0
DIMSTYLE
105
3E7
330
A
100
AcDbSymbolTableRecord
100
AcDbDimStyleTableRecord
  2
ADD$4
 70
     0
  3

  4

  5

  6

  7

 40
1.0
 41
2.5
 42
1.0
 43
7.0
 44
0.5
 45
0.0
 46
0.0
 47
0.0
 48
0.0
140
2.5
141
2.5
142
0.0
143
0.03937007874016
144
1.0
145
0.0
146
1.0
147
0.625
 71
     0
 72
     0
 73
     0
 74
     0
 75
     0
 76
     0
 77
     1
 78
     8
170
     0
171
     3
172
     1
173
     0
174
     1
175
     0
176
   144
177
   144
178
     7
270
     2
271
     1
272
     1
273
     2
274
     3
340
18E
275
     0
280
     0
281
     0
282
     0
283
     2
284
     8
285
     0
286
     0
287
     3
288
     0
  0
DIMSTYLE
105
3E8
330
A
100
AcDbSymbolTableRecord
100
AcDbDimStyleTableRecord
  2
ADD$3
 70
     0
  3

  4

  5

  6

  7

 40
1.0
 41
2.5
 42
1.0
 43
7.0
 44
0.5
 45
0.0
 46
0.0
 47
0.0
 48
0.0
140
2.5
141
2.5
142
0.0
143
0.03937007874016
144
1.0
145
0.0
146
1.0
147
0.625
 71
     0
 72
     0
 73
     0
 74
     0
 75
     0
 76
     0
 77
     1
 78
     8
170
     0
171
     3
172
     1
173
     0
174
     1
175
     0
176
   144
177
   144
178
     7
270
     2
271
     1
272
     1
273
     2
274
     3
340
18E
275
     0
280
     0
281
     0
282
     0
283
     2
284
     8
285
     0
286
     0
287
     3
288
     0
  0
DIMSTYLE
105
3E9
330
A
100
AcDbSymbolTableRecord
100
AcDbDimStyleTableRecord
  2
ADD$6
 70
     0
  3

  4

  5

  6

  7

 40
1.0
 41
2.5
 42
1.0
 43
7.0
 44
0.5
 45
0.0
 46
0.0
 47
0.0
 48
0.0
140
2.5
141
2.5
142
0.0
143
0.03937007874016
144
1.0
145
0.0
146
1.0
147
0.625
 71
     0
 72
     0
 73
     0
 74
     0
 75
     0
 76
     0
 77
     1
 78
     8
170
     0
171
     3
172
     1
173
     0
174
     1
175
     0
176
   144
177
   144
178
     7
270
     2
271
     1
272
     1
273
     2
274
     3
340
18E
275
     0
280
     0
281
     0
282
     0
283
     2
284
     8
285
     0
286
     0
287
     3
288
     0
  0
DIMSTYLE
105
3EA
330
A
100
AcDbSymbolTableRecord
100
AcDbDimStyleTableRecord
  2
ADD$7
 70
     0
  3

  4

  5

  6

  7

 40
1.0
 41
2.5
 42
1.0
 43
7.0
 44
0.5
 45
0.0
 46
0.0
 47
0.0
 48
0.0
140
2.5
141
2.5
142
0.0
143
0.03937007874016
144
1.0
145
0.0
146
1.0
147
0.625
 71
     0
 72
     0
 73
     0
 74
     0
 75
     0
 76
     0
 77
     0
 78
     8
170
     0
171
     3
172
     1
173
     0
174
     1
175
     0
176
   144
177
   144
178
     7
270
     2
271
     1
272
     1
273
     2
274
     3
340
18E
275
     0
280
     0
281
     0
282
     0
283
     2
284
     8
285
     0
286
     0
287
     3
288
     0
  0
DIMSTYLE
105
518
330
A
100
AcDbSymbolTableRecord
100
AcDbDimStyleTableRecord
  2
STANDARD
 70
     0
  3

  4

  5

  6

  7

 40
1.0
 41
0.18
 42
0.0625
 43
0.38
 44
0.18
 45
0.0
 46
0.0
 47
0.0
 48
0.0
140
0.18
141
0.09
142
0.0
143
25.4
144
1.0
145
0.0
146
1.0
147
0.09
 71
     0
 72
     0
 73
     1
 74
     1
 75
     0
 76
     0
 77
     0
 78
     0
170
     0
171
     2
172
     0
173
     0
174
     0
175
     0
176
     0
177
     0
178
     0
270
     2
271
     4
272
     4
273
     2
274
     2
340
11
275
     0
280
     0
281
     0
282
     0
283
     1
284
     0
285
     0
286
     0
287
     3
288
     0
  0
DIMSTYLE
105
550
330
A
100
AcDbSymbolTableRecord
100
AcDbDimStyleTableRecord
  2
ADD$0
 70
     0
  3

  4

  5

  6

  7

 40
1.0
 41
2.5
 42
1.0
 43
7.0
 44
0.5
 45
0.0
 46
0.0
 47
0.0
 48
0.0
140
2.5
141
2.5
142
0.0
143
0.03937007874016
144
1.0
145
0.7
146
1.0
147
0.625
 71
     0
 72
     0
 73
     0
 74
     0
 75
     0
 76
     0
 77
     1
 78
     8
170
     0
171
     3
172
     1
173
     0
174
     1
175
     0
176
   144
177
   144
178
     7
270
     2
271
     1
272
     1
273
     2
274
     3
340
18E
275
     0
280
     0
281
     0
282
     0
283
     2
284
     8
285
     0
286
     0
287
     3
288
     0
  0
DIMSTYLE
105
59B
330
A
100
AcDbSymbolTableRecord
100
AcDbDimStyleTableRecord
  2
ADD_M
 70
     0
  3

  4

  5

  6

  7

 40
1.0
 41
2.5
 42
1.0
 43
7.0
 44
0.5
 45
0.0
 46
0.0
 47
0.0
 48
0.0
140
2.5
141
2.5
142
0.0
143
0.03937007874016
144
1.0
145
0.7
146
1.0
147
0.625
 71
     0
 72
     0
 73
     0
 74
     0
 75
     0
 76
     0
 77
     1
 78
     8
170
     0
171
     3
172
     1
173
     0
174
     1
175
     0
176
   144
177
   144
178
     7
270
     2
271
     1
272
     1
273
     2
274
     3
340
18E
275
     0
280
     0
281
     0
282
     0
283
     2
284
     8
285
     0
286
     0
287
     3
288
     0
  0
ENDTAB
  0
TABLE
  2
BLOCK_RECORD
  5
1
330
0
100
AcDbSymbolTable
 70
    12
  0
BLOCK_RECORD
  5
1F
102
{ACAD_XDICTIONARY
360
65D
102
}
330
1
100
AcDbSymbolTableRecord
100
AcDbBlockTableRecord
  2
*MODEL_SPACE
  0
BLOCK_RECORD
  5
1B
102
{ACAD_XDICTIONARY
360
65F
102
}
330
1
100
AcDbSymbolTableRecord
100
AcDbBlockTableRecord
  2
*PAPER_SPACE
  0
BLOCK_RECORD
  5
192
330
1
100
AcDbSymbolTableRecord
100
AcDbBlockTableRecord
  2
_DOT
  0
BLOCK_RECORD
  5
5CE
330
1
100
AcDbSymbolTableRecord
100
AcDbBlockTableRecord
  2
A4
  0
BLOCK_RECORD
  5
F60
330
1
100
AcDbSymbolTableRecord
100
AcDbBlockTableRecord
  2
*D2
  0
BLOCK_RECORD
  5
F85
330
1
100
AcDbSymbolTableRecord
100
AcDbBlockTableRecord
  2
*D3
  0
BLOCK_RECORD
  5
F92
330
1
100
AcDbSymbolTableRecord
100
AcDbBlockTableRecord
  2
*D4
  0
BLOCK_RECORD
  5
FAC
330
1
100
AcDbSymbolTableRecord
100
AcDbBlockTableRecord
  2
*D5
  0
BLOCK_RECORD
  5
FB9
330
1
100
AcDbSymbolTableRecord
100
AcDbBlockTableRecord
  2
*D6
  0
BLOCK_RECORD
  5
FE0
330
1
100
AcDbSymbolTableRecord
100
AcDbBlockTableRecord
  2
*D7
  0
BLOCK_RECORD
  5
FED
330
1
100
AcDbSymbolTableRecord
100
AcDbBlockTableRecord
  2
*D8
  0
BLOCK_RECORD
  5
1007
330
1
100
AcDbSymbolTableRecord
100
AcDbBlockTableRecord
  2
*D9
  0
BLOCK_RECORD
  5
1014
330
1
100
AcDbSymbolTableRecord
100
AcDbBlockTableRecord
  2
*D10
  0
BLOCK_RECORD
  5
101F
330
1
100
AcDbSymbolTableRecord
100
AcDbBlockTableRecord
  2
*D11
  0
ENDTAB
  0
ENDSEC
  0
SECTION
  2
BLOCKS
  0
BLOCK
  5
20
330
1F
100
AcDbEntity
  8
0
100
AcDbBlockBegin
  2
*MODEL_SPACE
 70
     0
 10
0.0
 20
0.0
 30
0.0
  3
*MODEL_SPACE
  1

  0
ENDBLK
  5
21
330
1F
100
AcDbEntity
  8
0
100
AcDbBlockEnd
  0
BLOCK
  5
1C
330
1B
100
AcDbEntity
 67
     1
  8
0
100
AcDbBlockBegin
  2
*PAPER_SPACE
 70
     0
 10
0.0
 20
0.0
 30
0.0
  3
*PAPER_SPACE
  1

  0
ENDBLK
  5
1D
330
1B
100
AcDbEntity
 67
     1
  8
0
100
AcDbBlockEnd
  0
BLOCK
  5
195
330
192
100
AcDbEntity
  8
0
100
AcDbBlockBegin
  2
_DOT
 70
     0
 10
0.0
 20
0.0
 30
0.0
  3
_DOT
  1

  0
POLYLINE
  5
193
330
192
100
AcDbEntity
  8
0
 62
     0
100
AcDb2dPolyline
 66
     1
 10
0.0
 20
0.0
 30
0.0
 70
     1
 40
0.5
 41
0.5
  0
VERTEX
  5
125A
330
193
100
AcDbEntity
  8
0
 62
     0
100
AcDbVertex
100
AcDb2dVertex
 10
-0.25
 20
0.0
 30
0.0
 42
1.0
  0
VERTEX
  5
125B
330
193
100
AcDbEntity
  8
0
 62
     0
100
AcDbVertex
100
AcDb2dVertex
 10
0.25
 20
0.0
 30
0.0
 42
1.0
  0
SEQEND
  5
125C
330
193
100
AcDbEntity
  8
0
 62
     0
  0
LINE
  5
194
330
192
100
AcDbEntity
  8
0
 62
     0
100
AcDbLine
 10
-0.5
 20
0.0
 30
0.0
 11
-1.0
 21
0.0
 31
0.0
  0
ENDBLK
  5
196
330
192
100
AcDbEntity
  8
0
100
AcDbBlockEnd
  0
BLOCK
  5
5D1
330
5CE
100
AcDbEntity
  8
0
100
AcDbBlockBegin
  2
A4
 70
     0
 10
0.0
 20
0.0
 30
0.0
  3
A4
  1

  0
POLYLINE
  5
5CF
330
5CE
100
AcDbEntity
  8
HOJO
100
AcDb2dPolyline
 66
     1
 10
0.0
 20
0.0
 30
0.0
 70
     1
  0
VERTEX
  5
125D
330
5CF
100
AcDbEntity
  8
HOJO
100
AcDbVertex
100
AcDb2dVertex
 10
0.0
 20
0.0
 30
0.0
  0
VERTEX
  5
125E
330
5CF
100
AcDbEntity
  8
HOJO
100
AcDbVertex
100
AcDb2dVertex
 10
297.0
 20
0.0
 30
0.0
  0
VERTEX
  5
125F
330
5CF
100
AcDbEntity
  8
HOJO
100
AcDbVertex
100
AcDb2dVertex
 10
297.0
 20
210.0
 30
0.0
  0
VERTEX
  5
1260
330
5CF
100
AcDbEntity
  8
HOJO
100
AcDbVertex
100
AcDb2dVertex
 10
0.0
 20
210.0
 30
0.0
  0
SEQEND
  5
1261
330
5CF
100
AcDbEntity
  8
HOJO
  0
POLYLINE
  5
5D0
330
5CE
100
AcDbEntity
  8
HOJO
100
AcDb2dPolyline
 66
     1
 10
0.0
 20
0.0
 30
0.0
 70
     1
  0
VERTEX
  5
1262
330
5D0
100
AcDbEntity
  8
HOJO
100
AcDbVertex
100
AcDb2dVertex
 10
18.0
 20
13.0
 30
0.0
  0
VERTEX
  5
1263
330
5D0
100
AcDbEntity
  8
HOJO
100
AcDbVertex
100
AcDb2dVertex
 10
279.0
 20
13.0
 30
0.0
  0
VERTEX
  5
1264
330
5D0
100
AcDbEntity
  8
HOJO
100
AcDbVertex
100
AcDb2dVertex
 10
279.0
 20
197.0
 30
0.0
  0
VERTEX
  5
1265
330
5D0
100
AcDbEntity
  8
HOJO
100
AcDbVertex
100
AcDb2dVertex
 10
18.0
 20
197.0
 30
0.0
  0
SEQEND
  5
1266
330
5D0
100
AcDbEntity
  8
HOJO
  0
ENDBLK
  5
5D2
330
5CE
100
AcDbEntity
  8
0
100
AcDbBlockEnd
  0
BLOCK
  5
F6A
330
F60
100
AcDbEntity
  8
0
100
AcDbBlockBegin
  2
*D2
 70
     1
 10
0.0
 20
0.0
 30
0.0
  3
*D2
  1

  0
LINE
  5
1177
330
F60
100
AcDbEntity
  8
SUNPO
 62
   144
100
AcDbLine
 10
3720.0
 20
2080.0
 30
0.0
 11
3720.0
 21
1890.678770251243
 31
0.0
  0
LINE
  5
1178
330
F60
100
AcDbEntity
  8
SUNPO
 62
   144
100
AcDbLine
 10
4320.0
 20
2080.0
 30
0.0
 11
4320.0
 21
1890.678770251243
 31
0.0
  0
LINE
  5
1179
330
F60
100
AcDbEntity
  8
SUNPO
 62
   144
100
AcDbLine
 10
3770.0
 20
1900.678770251243
 30
0.0
 11
4270.0
 21
1900.678770251243
 31
0.0
  0
SOLID
  5
117A
330
F60
100
AcDbEntity
  8
SUNPO
 62
   144
100
AcDbTrace
 10
3770.0
 20
1909.012103584577
 30
0.0
 11
3770.0
 21
1892.345436917911
 31
0.0
 12
3720.0
 22
1900.678770251243
 32
0.0
 13
3720.0
 23
1900.678770251243
 33
0.0
  0
SOLID
  5
117B
330
F60
100
AcDbEntity
  8
SUNPO
 62
   144
100
AcDbTrace
 10
4270.0
 20
1909.012103584577
 30
0.0
 11
4270.0
 21
1892.345436917911
 31
0.0
 12
4320.0
 22
1900.678770251243
 32
0.0
 13
4320.0
 23
1900.678770251243
 33
0.0
  0
MTEXT
  5
117C
330
F60
100
AcDbEntity
  8
SUNPO
 62
     7
100
AcDbMText
 10
4020.0
 20
1938.178770251243
 30
0.0
 40
50.0
 41
0.0
 71
     5
 72
     1
  1
\A2;600
  7
ADD
1001
ACAD
1000
MTEXTBEGIN
1070
    73
1070
     1
1070
    44
1040
1.0
1070
    74
1070
     0
1000
MTEXTEND
1000
MTEXTBEGIN
1070
    73
1070
     1
1070
    44
1040
1.0
1070
    74
1070
     0
1000
MTEXTEND
  0
POINT
  5
117D
330
F60
100
AcDbEntity
  8
DEFPOINTS
 62
     0
100
AcDbPoint
 10
3720.0
 20
2100.0
 30
0.0
  0
POINT
  5
117E
330
F60
100
AcDbEntity
  8
DEFPOINTS
 62
     0
100
AcDbPoint
 10
4320.0
 20
2100.0
 30
0.0
  0
POINT
  5
117F
330
F60
100
AcDbEntity
  8
DEFPOINTS
 62
     0
100
AcDbPoint
 10
4320.0
 20
1900.678770251243
 30
0.0
  0
ENDBLK
  5
F6B
330
F60
100
AcDbEntity
  8
0
100
AcDbBlockEnd
  0
BLOCK
  5
F8F
330
F85
100
AcDbEntity
  8
0
100
AcDbBlockBegin
  2
*D3
 70
     1
 10
0.0
 20
0.0
 30
0.0
  3
*D3
  1

  0
LINE
  5
1180
330
F85
100
AcDbEntity
  8
SUNPO
 62
   144
100
AcDbLine
 10
1890.0
 20
2218.789694075418
 30
0.0
 11
1890.0
 21
2573.837811715557
 31
0.0
  0
LINE
  5
1181
330
F85
100
AcDbEntity
  8
SUNPO
 62
   144
100
AcDbLine
 10
2149.999999999999
 20
2218.789694075418
 30
0.0
 11
2149.999999999999
 21
2573.837811715557
 31
0.0
  0
LINE
  5
1182
330
F85
100
AcDbEntity
  8
SUNPO
 62
   144
100
AcDbLine
 10
1940.0
 20
2563.837811715557
 30
0.0
 11
2099.999999999999
 21
2563.837811715557
 31
0.0
  0
SOLID
  5
1183
330
F85
100
AcDbEntity
  8
SUNPO
 62
   144
100
AcDbTrace
 10
1940.0
 20
2572.171145048891
 30
0.0
 11
1940.0
 21
2555.504478382223
 31
0.0
 12
1890.0
 22
2563.837811715557
 32
0.0
 13
1890.0
 23
2563.837811715557
 33
0.0
  0
SOLID
  5
1184
330
F85
100
AcDbEntity
  8
SUNPO
 62
   144
100
AcDbTrace
 10
2099.999999999999
 20
2572.171145048891
 30
0.0
 11
2099.999999999999
 21
2555.504478382223
 31
0.0
 12
2149.999999999999
 22
2563.837811715557
 32
0.0
 13
2149.999999999999
 23
2563.837811715557
 33
0.0
  0
MTEXT
  5
1185
330
F85
100
AcDbEntity
  8
SUNPO
 62
     7
100
AcDbMText
 10
2020.0
 20
2601.337811715557
 30
0.0
 40
50.0
 41
0.0
 71
     5
 72
     1
  1
\A2;260
  7
ADD
1001
ACAD
1000
MTEXTBEGIN
1070
    73
1070
     1
1070
    44
1040
1.0
1070
    74
1070
     0
1000
MTEXTEND
1000
MTEXTBEGIN
1070
    73
1070
     1
1070
    44
1040
1.0
1070
    74
1070
     0
1000
MTEXTEND
  0
POINT
  5
1186
330
F85
100
AcDbEntity
  8
DEFPOINTS
 62
     0
100
AcDbPoint
 10
1890.0
 20
2198.789694075418
 30
0.0
  0
POINT
  5
1187
330
F85
100
AcDbEntity
  8
DEFPOINTS
 62
     0
100
AcDbPoint
 10
2149.999999999999
 20
2198.789694075418
 30
0.0
  0
POINT
  5
1188
330
F85
100
AcDbEntity
  8
DEFPOINTS
 62
     0
100
AcDbPoint
 10
2149.999999999999
 20
2563.837811715557
 30
0.0
  0
ENDBLK
  5
F90
330
F85
100
AcDbEntity
  8
0
100
AcDbBlockEnd
  0
BLOCK
  5
F9E
330
F92
100
AcDbEntity
  8
0
100
AcDbBlockBegin
  2
*D4
 70
     1
 10
0.0
 20
0.0
 30
0.0
  3
*D4
  1

  0
LINE
  5
1189
330
F92
100
AcDbEntity
  8
SUNPO
 62
   144
100
AcDbLine
 10
2149.999999999999
 20
2218.789694075418
 30
0.0
 11
2149.999999999999
 21
2573.837811715557
 31
0.0
  0
LINE
  5
118A
330
F92
100
AcDbEntity
  8
SUNPO
 62
   144
100
AcDbLine
 10
2210.0
 20
2545.0
 30
0.0
 11
2210.0
 21
2573.837811715557
 31
0.0
  0
LINE
  5
118B
330
F92
100
AcDbEntity
  8
SUNPO
 62
   144
100
AcDbLine
 10
2099.999999999999
 20
2563.837811715557
 30
0.0
 11
2049.999999999999
 21
2563.837811715557
 31
0.0
  0
LINE
  5
118C
330
F92
100
AcDbEntity
  8
SUNPO
 62
   144
100
AcDbLine
 10
2260.0
 20
2563.837811715557
 30
0.0
 11
2310.0
 21
2563.837811715557
 31
0.0
  0
MTEXT
  5
118D
330
F92
100
AcDbEntity
  8
SUNPO
 62
     7
100
AcDbMText
 10
2299.875
 20
2601.337811715557
 30
0.0
 40
50.0
 41
0.0
 71
     5
 72
     1
  1
\A2;60
  7
ADD
1001
ACAD
1000
MTEXTBEGIN
1070
    73
1070
     1
1070
    44
1040
1.0
1070
    74
1070
     0
1000
MTEXTEND
1000
MTEXTBEGIN
1070
    73
1070
     1
1070
    44
1040
1.0
1070
    74
1070
     0
1000
MTEXTEND
  0
LINE
  5
118E
330
F92
100
AcDbEntity
  8
SUNPO
 62
   144
100
AcDbLine
 10
2149.999999999999
 20
2563.837811715557
 30
0.0
 11
2210.0
 21
2563.837811715557
 31
0.0
  0
SOLID
  5
118F
330
F92
100
AcDbEntity
  8
SUNPO
 62
   144
100
AcDbTrace
 10
2099.999999999999
 20
2572.171145048891
 30
0.0
 11
2099.999999999999
 21
2555.504478382223
 31
0.0
 12
2149.999999999999
 22
2563.837811715557
 32
0.0
 13
2149.999999999999
 23
2563.837811715557
 33
0.0
  0
SOLID
  5
1190
330
F92
100
AcDbEntity
  8
SUNPO
 62
   144
100
AcDbTrace
 10
2260.0
 20
2572.171145048891
 30
0.0
 11
2260.0
 21
2555.504478382223
 31
0.0
 12
2210.0
 22
2563.837811715557
 32
0.0
 13
2210.0
 23
2563.837811715557
 33
0.0
  0
POINT
  5
1191
330
F92
100
AcDbEntity
  8
DEFPOINTS
 62
     0
100
AcDbPoint
 10
2149.999999999999
 20
2198.789694075418
 30
0.0
  0
POINT
  5
1192
330
F92
100
AcDbEntity
  8
DEFPOINTS
 62
     0
100
AcDbPoint
 10
2210.0
 20
2525.0
 30
0.0
  0
POINT
  5
1193
330
F92
100
AcDbEntity
  8
DEFPOINTS
 62
     0
100
AcDbPoint
 10
2210.0
 20
2563.837811715557
 30
0.0
  0
ENDBLK
  5
F9F
330
F92
100
AcDbEntity
  8
0
100
AcDbBlockEnd
  0
BLOCK
  5
FB6
330
FAC
100
AcDbEntity
  8
0
100
AcDbBlockBegin
  2
*D5
 70
     1
 10
0.0
 20
0.0
 30
0.0
  3
*D5
  1

  0
LINE
  5
1194
330
FAC
100
AcDbEntity
  8
SUNPO
 62
   144
100
AcDbLine
 10
1870.0
 20
2545.0
 30
0.0
 11
1870.0
 21
2677.764512698168
 31
0.0
  0
LINE
  5
1195
330
FAC
100
AcDbEntity
  8
SUNPO
 62
   144
100
AcDbLine
 10
2170.0
 20
2545.0
 30
0.0
 11
2170.0
 21
2677.764512698168
 31
0.0
  0
LINE
  5
1196
330
FAC
100
AcDbEntity
  8
SUNPO
 62
   144
100
AcDbLine
 10
1920.0
 20
2667.764512698168
 30
0.0
 11
2120.0
 21
2667.764512698168
 31
0.0
  0
SOLID
  5
1197
330
FAC
100
AcDbEntity
  8
SUNPO
 62
   144
100
AcDbTrace
 10
1920.0
 20
2676.097846031501
 30
0.0
 11
1920.0
 21
2659.431179364834
 31
0.0
 12
1870.0
 22
2667.764512698168
 32
0.0
 13
1870.0
 23
2667.764512698168
 33
0.0
  0
SOLID
  5
1198
330
FAC
100
AcDbEntity
  8
SUNPO
 62
   144
100
AcDbTrace
 10
2120.0
 20
2676.097846031501
 30
0.0
 11
2120.0
 21
2659.431179364834
 31
0.0
 12
2170.0
 22
2667.764512698168
 32
0.0
 13
2170.0
 23
2667.764512698168
 33
0.0
  0
MTEXT
  5
1199
330
FAC
100
AcDbEntity
  8
SUNPO
 62
     7
100
AcDbMText
 10
2020.0
 20
2705.264512698168
 30
0.0
 40
50.0
 41
0.0
 71
     5
 72
     1
  1
\A2;300
  7
ADD
1001
ACAD
1000
MTEXTBEGIN
1070
    73
1070
     1
1070
    44
1040
1.0
1070
    74
1070
     0
1000
MTEXTEND
1000
MTEXTBEGIN
1070
    73
1070
     1
1070
    44
1040
1.0
1070
    74
1070
     0
1000
MTEXTEND
  0
POINT
  5
119A
330
FAC
100
AcDbEntity
  8
DEFPOINTS
 62
     0
100
AcDbPoint
 10
1870.0
 20
2525.0
 30
0.0
  0
POINT
  5
119B
330
FAC
100
AcDbEntity
  8
DEFPOINTS
 62
     0
100
AcDbPoint
 10
2170.0
 20
2525.0
 30
0.0
  0
POINT
  5
119C
330
FAC
100
AcDbEntity
  8
DEFPOINTS
 62
     0
100
AcDbPoint
 10
2170.0
 20
2667.764512698168
 30
0.0
  0
ENDBLK
  5
FB7
330
FAC
100
AcDbEntity
  8
0
100
AcDbBlockEnd
  0
BLOCK
  5
FC5
330
FB9
100
AcDbEntity
  8
0
100
AcDbBlockBegin
  2
*D6
 70
     1
 10
0.0
 20
0.0
 30
0.0
  3
*D6
  1

  0
LINE
  5
119D
330
FB9
100
AcDbEntity
  8
SUNPO
 62
   144
100
AcDbLine
 10
2170.0
 20
2545.0
 30
0.0
 11
2170.0
 21
2677.764512698168
 31
0.0
  0
LINE
  5
119E
330
FB9
100
AcDbEntity
  8
SUNPO
 62
   144
100
AcDbLine
 10
2220.0
 20
2545.0
 30
0.0
 11
2220.0
 21
2677.764512698168
 31
0.0
  0
LINE
  5
119F
330
FB9
100
AcDbEntity
  8
SUNPO
 62
   144
100
AcDbLine
 10
2120.0
 20
2667.764512698168
 30
0.0
 11
2070.0
 21
2667.764512698168
 31
0.0
  0
LINE
  5
11A0
330
FB9
100
AcDbEntity
  8
SUNPO
 62
   144
100
AcDbLine
 10
2270.0
 20
2667.764512698168
 30
0.0
 11
2320.0
 21
2667.764512698168
 31
0.0
  0
MTEXT
  5
11A1
330
FB9
100
AcDbEntity
  8
SUNPO
 62
     7
100
AcDbMText
 10
2314.875
 20
2705.264512698168
 30
0.0
 40
50.0
 41
0.0
 71
     5
 72
     1
  1
\A2;50
  7
ADD
1001
ACAD
1000
MTEXTBEGIN
1070
    73
1070
     1
1070
    44
1040
1.0
1070
    74
1070
     0
1000
MTEXTEND
1000
MTEXTBEGIN
1070
    73
1070
     1
1070
    44
1040
1.0
1070
    74
1070
     0
1000
MTEXTEND
  0
LINE
  5
11A2
330
FB9
100
AcDbEntity
  8
SUNPO
 62
   144
100
AcDbLine
 10
2170.0
 20
2667.764512698168
 30
0.0
 11
2220.0
 21
2667.764512698168
 31
0.0
  0
SOLID
  5
11A3
330
FB9
100
AcDbEntity
  8
SUNPO
 62
   144
100
AcDbTrace
 10
2120.0
 20
2676.097846031501
 30
0.0
 11
2120.0
 21
2659.431179364834
 31
0.0
 12
2170.0
 22
2667.764512698168
 32
0.0
 13
2170.0
 23
2667.764512698168
 33
0.0
  0
SOLID
  5
11A4
330
FB9
100
AcDbEntity
  8
SUNPO
 62
   144
100
AcDbTrace
 10
2270.0
 20
2676.097846031501
 30
0.0
 11
2270.0
 21
2659.431179364834
 31
0.0
 12
2220.0
 22
2667.764512698168
 32
0.0
 13
2220.0
 23
2667.764512698168
 33
0.0
  0
POINT
  5
11A5
330
FB9
100
AcDbEntity
  8
DEFPOINTS
 62
     0
100
AcDbPoint
 10
2170.0
 20
2525.0
 30
0.0
  0
POINT
  5
11A6
330
FB9
100
AcDbEntity
  8
DEFPOINTS
 62
     0
100
AcDbPoint
 10
2220.0
 20
2525.0
 30
0.0
  0
POINT
  5
11A7
330
FB9
100
AcDbEntity
  8
DEFPOINTS
 62
     0
100
AcDbPoint
 10
2220.0
 20
2667.764512698168
 30
0.0
  0
ENDBLK
  5
FC6
330
FB9
100
AcDbEntity
  8
0
100
AcDbBlockEnd
  0
BLOCK
  5
FEA
330
FE0
100
AcDbEntity
  8
0
100
AcDbBlockBegin
  2
*D7
 70
     1
 10
0.0
 20
0.0
 30
0.0
  3
*D7
  1

  0
LINE
  5
11A8
330
FE0
100
AcDbEntity
  8
SUNPO
 62
   144
100
AcDbLine
 10
2150.0
 20
2525.0
 30
0.0
 11
2010.0
 21
2525.0
 31
0.0
  0
LINE
  5
11A9
330
FE0
100
AcDbEntity
  8
SUNPO
 62
   144
100
AcDbLine
 10
2082.700676729666
 20
2165.0
 30
0.0
 11
2010.0
 21
2165.0
 31
0.0
  0
LINE
  5
11AA
330
FE0
100
AcDbEntity
  8
SUNPO
 62
   144
100
AcDbLine
 10
2020.0
 20
2475.0
 30
0.0
 11
2020.0
 21
2215.0
 31
0.0
  0
SOLID
  5
11AB
330
FE0
100
AcDbEntity
  8
SUNPO
 62
   144
100
AcDbTrace
 10
2011.666666666666
 20
2475.0
 30
0.0
 11
2028.333333333333
 21
2475.0
 31
0.0
 12
2020.0
 22
2525.0
 32
0.0
 13
2020.0
 23
2525.0
 33
0.0
  0
SOLID
  5
11AC
330
FE0
100
AcDbEntity
  8
SUNPO
 62
   144
100
AcDbTrace
 10
2011.666666666666
 20
2215.0
 30
0.0
 11
2028.333333333333
 21
2215.0
 31
0.0
 12
2020.0
 22
2165.0
 32
0.0
 13
2020.0
 23
2165.0
 33
0.0
  0
MTEXT
  5
11AD
330
FE0
100
AcDbEntity
  8
SUNPO
 62
     7
100
AcDbMText
 10
1982.499999999999
 20
2345.0
 30
0.0
 40
50.0
 41
0.0
 71
     5
 72
     1
  1
\A2;360
  7
ADD
 11
0.0000000000000001
 21
1.0
 31
0.0
1001
ACAD
1000
MTEXTBEGIN
1070
    73
1070
     1
1070
    44
1040
1.0
1070
    74
1070
     0
1000
MTEXTEND
1000
MTEXTBEGIN
1070
    73
1070
     1
1070
    44
1040
1.0
1070
    74
1070
     0
1000
MTEXTEND
  0
POINT
  5
11AE
330
FE0
100
AcDbEntity
  8
DEFPOINTS
 62
     0
100
AcDbPoint
 10
2170.0
 20
2525.0
 30
0.0
  0
POINT
  5
11AF
330
FE0
100
AcDbEntity
  8
DEFPOINTS
 62
     0
100
AcDbPoint
 10
2102.700676729666
 20
2165.0
 30
0.0
  0
POINT
  5
11B0
330
FE0
100
AcDbEntity
  8
DEFPOINTS
 62
     0
100
AcDbPoint
 10
2020.0
 20
2165.0
 30
0.0
  0
ENDBLK
  5
FEB
330
FE0
100
AcDbEntity
  8
0
100
AcDbBlockEnd
  0
BLOCK
  5
FF9
330
FED
100
AcDbEntity
  8
0
100
AcDbBlockBegin
  2
*D8
 70
     1
 10
0.0
 20
0.0
 30
0.0
  3
*D8
  1

  0
LINE
  5
11B1
330
FED
100
AcDbEntity
  8
SUNPO
 62
   144
100
AcDbLine
 10
2082.700676729666
 20
2165.0
 30
0.0
 11
2010.0
 21
2165.0
 31
0.0
  0
LINE
  5
11B2
330
FED
100
AcDbEntity
  8
SUNPO
 62
   144
100
AcDbLine
 10
2000.0
 20
2100.0
 30
0.0
 11
2010.0
 21
2100.0
 31
0.0
  0
LINE
  5
11B3
330
FED
100
AcDbEntity
  8
SUNPO
 62
   144
100
AcDbLine
 10
2020.0
 20
2215.0
 30
0.0
 11
2020.0
 21
2265.0
 31
0.0
  0
LINE
  5
11B4
330
FED
100
AcDbEntity
  8
SUNPO
 62
   144
100
AcDbLine
 10
2020.0
 20
2050.0
 30
0.0
 11
2020.0
 21
2000.0
 31
0.0
  0
MTEXT
  5
11B5
330
FED
100
AcDbEntity
  8
SUNPO
 62
     7
100
AcDbMText
 10
1982.499999999999
 20
2025.0
 30
0.0
 40
50.0
 41
0.0
 71
     5
 72
     1
  1
\A2;65
  7
ADD
 11
0.0000000000000001
 21
1.0
 31
0.0
1001
ACAD
1000
MTEXTBEGIN
1070
    73
1070
     1
1070
    44
1040
1.0
1070
    74
1070
     0
1000
MTEXTEND
1000
MTEXTBEGIN
1070
    73
1070
     1
1070
    44
1040
1.0
1070
    74
1070
     0
1000
MTEXTEND
  0
LINE
  5
11B6
330
FED
100
AcDbEntity
  8
SUNPO
 62
   144
100
AcDbLine
 10
2020.0
 20
2165.0
 30
0.0
 11
2020.0
 21
2100.0
 31
0.0
  0
SOLID
  5
11B7
330
FED
100
AcDbEntity
  8
SUNPO
 62
   144
100
AcDbTrace
 10
2011.666666666666
 20
2215.0
 30
0.0
 11
2028.333333333333
 21
2215.0
 31
0.0
 12
2020.0
 22
2165.0
 32
0.0
 13
2020.0
 23
2165.0
 33
0.0
  0
SOLID
  5
11B8
330
FED
100
AcDbEntity
  8
SUNPO
 62
   144
100
AcDbTrace
 10
2011.666666666666
 20
2050.0
 30
0.0
 11
2028.333333333333
 21
2050.0
 31
0.0
 12
2020.0
 22
2100.0
 32
0.0
 13
2020.0
 23
2100.0
 33
0.0
  0
POINT
  5
11B9
330
FED
100
AcDbEntity
  8
DEFPOINTS
 62
     0
100
AcDbPoint
 10
2102.700676729666
 20
2165.0
 30
0.0
  0
POINT
  5
11BA
330
FED
100
AcDbEntity
  8
DEFPOINTS
 62
     0
100
AcDbPoint
 10
2020.0
 20
2100.0
 30
0.0
  0
POINT
  5
11BB
330
FED
100
AcDbEntity
  8
DEFPOINTS
 62
     0
100
AcDbPoint
 10
2020.0
 20
2100.0
 30
0.0
  0
ENDBLK
  5
FFA
330
FED
100
AcDbEntity
  8
0
100
AcDbBlockEnd
  0
BLOCK
  5
1011
330
1007
100
AcDbEntity
  8
0
100
AcDbBlockBegin
  2
*D9
 70
     1
 10
0.0
 20
0.0
 30
0.0
  3
*D9
  1

  0
LINE
  5
11BC
330
1007
100
AcDbEntity
  8
SUNPO
 62
   144
100
AcDbLine
 10
1870.0
 20
2080.0
 30
0.0
 11
1870.0
 21
1875.413953506828
 31
0.0
  0
LINE
  5
11BD
330
1007
100
AcDbEntity
  8
SUNPO
 62
   144
100
AcDbLine
 10
2170.0
 20
2079.999999999999
 30
0.0
 11
2170.0
 21
1875.413953506828
 31
0.0
  0
LINE
  5
11BE
330
1007
100
AcDbEntity
  8
SUNPO
 62
   144
100
AcDbLine
 10
1920.0
 20
1885.413953506828
 30
0.0
 11
2120.0
 21
1885.413953506828
 31
0.0
  0
SOLID
  5
11BF
330
1007
100
AcDbEntity
  8
SUNPO
 62
   144
100
AcDbTrace
 10
1920.0
 20
1893.747286840161
 30
0.0
 11
1920.0
 21
1877.080620173495
 31
0.0
 12
1870.0
 22
1885.413953506828
 32
0.0
 13
1870.0
 23
1885.413953506828
 33
0.0
  0
SOLID
  5
11C0
330
1007
100
AcDbEntity
  8
SUNPO
 62
   144
100
AcDbTrace
 10
2120.0
 20
1893.747286840161
 30
0.0
 11
2120.0
 21
1877.080620173495
 31
0.0
 12
2170.0
 22
1885.413953506828
 32
0.0
 13
2170.0
 23
1885.413953506828
 33
0.0
  0
MTEXT
  5
11C1
330
1007
100
AcDbEntity
  8
SUNPO
 62
     7
100
AcDbMText
 10
2020.0
 20
1922.913953506828
 30
0.0
 40
50.0
 41
0.0
 71
     5
 72
     1
  1
\A2;300
  7
ADD
1001
ACAD
1000
MTEXTBEGIN
1070
    73
1070
     1
1070
    44
1040
1.0
1070
    74
1070
     0
1000
MTEXTEND
1000
MTEXTBEGIN
1070
    73
1070
     1
1070
    44
1040
1.0
1070
    74
1070
     0
1000
MTEXTEND
  0
POINT
  5
11C2
330
1007
100
AcDbEntity
  8
DEFPOINTS
 62
     0
100
AcDbPoint
 10
1870.0
 20
2100.0
 30
0.0
  0
POINT
  5
11C3
330
1007
100
AcDbEntity
  8
DEFPOINTS
 62
     0
100
AcDbPoint
 10
2170.0
 20
2099.999999999999
 30
0.0
  0
POINT
  5
11C4
330
1007
100
AcDbEntity
  8
DEFPOINTS
 62
     0
100
AcDbPoint
 10
2170.0
 20
1885.413953506828
 30
0.0
  0
ENDBLK
  5
1012
330
1007
100
AcDbEntity
  8
0
100
AcDbBlockEnd
  0
BLOCK
  5
101B
330
1014
100
AcDbEntity
  8
0
100
AcDbBlockBegin
  2
*D10
 70
     1
 10
0.0
 20
0.0
 30
0.0
  3
*D10
  1

  0
LINE
  5
11C5
330
1014
100
AcDbEntity
  8
SUNPO
 62
   144
100
AcDbLine
 10
1722.102933756269
 20
2000.882914775563
 30
0.0
 11
1866.411100842171
 21
2144.467313102538
 31
0.0
  0
MTEXT
  5
11C6
330
1014
100
AcDbEntity
  8
SUNPO
 62
     7
100
AcDbMText
 10
1750.085204105631
 20
2081.625025625246
 30
0.0
 40
50.0
 41
0.0
 71
     5
 72
     1
  1
\A2;R50
  7
ADD
 11
0.708882224281625
 21
0.7053268689746167
 31
0.0
1001
ACAD
1000
MTEXTBEGIN
1070
    73
1070
     1
1070
    44
1040
1.0
1070
    74
1070
     0
1000
MTEXTEND
1000
MTEXTBEGIN
1070
    73
1070
     1
1070
    44
1040
1.0
1070
    74
1070
     0
1000
MTEXTEND
  0
LINE
  5
11C7
330
1014
100
AcDbEntity
  8
SUNPO
 62
   144
100
AcDbLine
 10
1937.299323270332
 20
2215.0
 30
0.0
 11
1901.855212056252
 21
2179.733656551268
 31
0.0
  0
SOLID
  5
11C8
330
1014
100
AcDbEntity
  8
SUNPO
 62
   144
100
AcDbTrace
 10
1860.533376934047
 20
2150.374664971552
 30
0.0
 11
1872.288824750293
 21
2138.559961233525
 31
0.0
 12
1901.855212056252
 22
2179.733656551268
 32
0.0
 13
1901.855212056252
 23
2179.733656551268
 33
0.0
  0
POINT
  5
11C9
330
1014
100
AcDbEntity
  8
DEFPOINTS
 62
     0
100
AcDbPoint
 10
1901.855212056252
 20
2179.733656551268
 30
0.0
  0
POINT
  5
11CA
330
1014
100
AcDbEntity
  8
DEFPOINTS
 62
     0
100
AcDbPoint
 10
1937.299323270332
 20
2215.0
 30
0.0
  0
ENDBLK
  5
101C
330
1014
100
AcDbEntity
  8
0
100
AcDbBlockEnd
  0
BLOCK
  5
102C
330
101F
100
AcDbEntity
  8
0
100
AcDbBlockBegin
  2
*D11
 70
     1
 10
0.0
 20
0.0
 30
0.0
  3
*D11
  1

  0
LINE
  5
11CB
330
101F
100
AcDbEntity
  8
SUNPO
 62
   144
100
AcDbLine
 10
2248.249957644242
 20
2100.0
 30
0.0
 11
2361.051657082704
 21
2100.0
 31
0.0
  0
LINE
  5
11CC
330
101F
100
AcDbEntity
  8
SUNPO
 62
   144
100
AcDbLine
 10
2223.427849909444
 20
2153.427849909444
 30
0.0
 11
2305.093922280105
 21
2235.093922280106
 31
0.0
  0
LINE
  5
11CD
330
101F
100
AcDbEntity
  8
SUNPO
 62
   144
100
AcDbLine
 10
2337.269920305962
 20
2169.285469567796
 30
0.0
 11
2429.657873557089
 21
2207.553812804305
 31
0.0
  0
ARC
  5
11CE
330
101F
100
AcDbEntity
  8
SUNPO
 62
   144
100
AcDbCircle
 10
2170.0
 20
2100.0
 30
0.0
 40
181.0516570827036
100
AcDbArc
 50
15.87376606928409
 51
29.12623393071669
  0
SOLID
  5
11CF
330
101F
100
AcDbEntity
  8
SUNPO
 62
   144
100
AcDbTrace
 10
2352.401056661191
 20
2150.67172352725
 30
0.0
 11
2335.894043648111
 21
2148.370354551233
 31
0.0
 12
2351.051657082704
 22
2100.0
 32
0.0
 13
2351.051657082704
 23
2100.0
 33
0.0
  0
SOLID
  5
11D0
330
101F
100
AcDbEntity
  8
SUNPO
 62
   144
100
AcDbTrace
 10
2321.50780893361
 20
2183.101797510463
 30
0.0
 11
2334.807343381247
 21
2193.146704740193
 31
0.0
 12
2298.022854468239
 22
2228.022854468242
 32
0.0
 13
2298.022854468239
 23
2228.022854468242
 33
0.0
  0
MTEXT
  5
11D1
330
101F
100
AcDbEntity
  8
SUNPO
 62
     7
100
AcDbMText
 10
2464.303356026263
 20
2221.904441517997
 30
0.0
 40
50.0
 41
0.0
 71
     5
 72
     1
  1
\A2;45°
  7
ADD
 11
0.3826834323650924
 21
-0.9238795325112858
 31
0.0
1001
ACAD
1000
MTEXTBEGIN
1070
    73
1070
     1
1070
    44
1040
1.0
1070
    74
1070
     0
1000
MTEXTEND
1000
MTEXTBEGIN
1070
    73
1070
     1
1070
    44
1040
1.0
1070
    74
1070
     0
1000
MTEXTEND
  0
POINT
  5
11D2
330
101F
100
AcDbEntity
  8
DEFPOINTS
 62
     0
100
AcDbPoint
 10
2344.882471468615
 20
2146.859617000375
 30
0.0
  0
POINT
  5
11D3
330
101F
100
AcDbEntity
  8
DEFPOINTS
 62
     0
100
AcDbPoint
 10
2170.0
 20
2100.0
 30
0.0
  0
POINT
  5
11D4
330
101F
100
AcDbEntity
  8
DEFPOINTS
 62
     0
100
AcDbPoint
 10
2170.000000000001
 20
2100.0
 30
0.0
  0
POINT
  5
11D5
330
101F
100
AcDbEntity
  8
DEFPOINTS
 62
     0
100
AcDbPoint
 10
2209.285714285714
 20
2139.285714285714
 30
0.0
  0
POINT
  5
11D6
330
101F
100
AcDbEntity
  8
DEFPOINTS
 62
     0
100
AcDbPoint
 10
2228.249957644242
 20
2100.0
 30
0.0
  0
ENDBLK
  5
102D
330
101F
100
AcDbEntity
  8
0
100
AcDbBlockEnd
  0
ENDSEC
  0
SECTION
  2
ENTITIES
  0
LINE
  5
60A
330
1F
100
AcDbEntity
  8
HOJO
100
AcDbLine
 10
360.0
 20
260.0
 30
0.0
 11
5580.0
 21
260.0
 31
0.0
  0
LINE
  5
60B
330
1F
100
AcDbEntity
  8
HOJO
100
AcDbLine
 10
360.0
 20
560.0
 30
0.0
 11
5580.0
 21
560.0
 31
0.0
  0
LINE
  5
60C
330
1F
100
AcDbEntity
  8
HOJO
100
AcDbLine
 10
360.0
 20
260.0
 30
0.0
 11
360.0
 21
560.0
 31
0.0
  0
LINE
  5
60D
330
1F
100
AcDbEntity
  8
HOJO
100
AcDbLine
 10
2360.0
 20
260.0
 30
0.0
 11
2360.0
 21
560.0
 31
0.0
  0
LINE
  5
60F
330
1F
100
AcDbEntity
  8
HOJO
100
AcDbLine
 10
3160.0
 20
260.0
 30
0.0
 11
3160.0
 21
560.0
 31
0.0
  0
LINE
  5
610
330
1F
100
AcDbEntity
  8
HOJO
100
AcDbLine
 10
3660.0
 20
260.0
 30
0.0
 11
3660.0
 21
560.0
 31
0.0
  0
LINE
  5
F5A
330
1F
100
AcDbEntity
  8
3C1
100
AcDbLine
 10
3720.0
 20
2100.0
 30
0.0
 11
4320.0
 21
2100.0
 31
0.0
  0
LINE
  5
F5B
330
1F
100
AcDbEntity
  8
3C1
100
AcDbLine
 10
4320.0
 20
2100.0
 30
0.0
 11
4320.0
 21
2525.0
 31
0.0
  0
LINE
  5
F5C
330
1F
100
AcDbEntity
  8
3C1
100
AcDbLine
 10
4320.0
 20
2525.0
 30
0.0
 11
3720.0
 21
2525.0
 31
0.0
  0
LINE
  5
F5D
330
1F
100
AcDbEntity
  8
3C1
100
AcDbLine
 10
3720.0
 20
2100.0
 30
0.0
 11
3720.0
 21
2525.0
 31
0.0
  0
LINE
  5
F5E
330
1F
100
AcDbEntity
  8
3C1
100
AcDbLine
 10
3720.0
 20
2165.0
 30
0.0
 11
4320.0
 21
2165.0
 31
0.0
  0
LINE
  5
F6F
330
1F
100
AcDbEntity
  8
3C1
100
AcDbLine
 10
2170.000000000001
 20
2100.0
 30
0.0
 11
1870.0
 21
2100.0
 31
0.0
  0
LINE
  5
F71
330
1F
100
AcDbEntity
  8
3C1
100
AcDbLine
 10
1820.0
 20
2525.0
 30
0.0
 11
1870.0
 21
2525.0
 31
0.0
  0
LINE
  5
F72
330
1F
100
AcDbEntity
  8
DEFPOINTS
100
AcDbLine
 10
2020.0
 20
2525.0
 30
0.0
 11
2020.0
 21
2100.0
 31
0.0
  0
LINE
  5
F79
330
1F
100
AcDbEntity
  8
3C1
100
AcDbLine
 10
2102.700676729666
 20
2165.0
 30
0.0
 11
1937.299323270332
 21
2165.0
 31
0.0
  0
LINE
  5
F7A
330
1F
100
AcDbEntity
  8
3C1
100
AcDbLine
 10
2170.0
 20
2525.0
 30
0.0
 11
2220.0
 21
2525.0
 31
0.0
  0
LINE
  5
F7B
330
1F
100
AcDbEntity
  8
3C1
100
AcDbLine
 10
1870.0
 20
2525.0
 30
0.0
 11
1887.376305610062
 21
2212.226499018873
 31
0.0
  0
LINE
  5
F7C
330
1F
100
AcDbEntity
  8
3C1
100
AcDbLine
 10
1820.0
 20
2525.0
 30
0.0
 11
1830.714285714284
 21
2139.285714285714
 31
0.0
  0
LINE
  5
F7D
330
1F
100
AcDbEntity
  8
3C1
100
AcDbLine
 10
2170.0
 20
2525.0
 30
0.0
 11
2152.623694389937
 21
2212.226499018873
 31
0.0
  0
LINE
  5
F7E
330
1F
100
AcDbEntity
  8
3C1
100
AcDbLine
 10
2220.0
 20
2525.0
 30
0.0
 11
2209.285714285714
 21
2139.285714285714
 31
0.0
  0
LINE
  5
F80
330
1F
100
AcDbEntity
  8
3C1
100
AcDbLine
 10
2170.000000000001
 20
2100.0
 30
0.0
 11
2209.285714285714
 21
2139.285714285714
 31
0.0
  0
LINE
  5
F81
330
1F
100
AcDbEntity
  8
3C1
100
AcDbLine
 10
1870.0
 20
2100.0
 30
0.0
 11
1830.714285714284
 21
2139.285714285714
 31
0.0
  0
ARC
  5
F82
330
1F
100
AcDbEntity
  8
3C1
100
AcDbCircle
 10
1937.299323270332
 20
2215.0
 30
0.0
 40
50.0
100
AcDbArc
 50
183.1798301198642
 51
270.0
  0
ARC
  5
F83
330
1F
100
AcDbEntity
  8
3C1
100
AcDbCircle
 10
2102.700676729666
 20
2215.0
 30
0.0
 40
50.0
100
AcDbArc
 50
270.0
 51
356.8201698801356
  0
LINE
  5
11DE
330
1F
100
AcDbEntity
  8
SUNPO
 62
   144
100
AcDbLine
 10
2248.249957644242
 20
2100.0
 30
0.0
 11
2361.051657082704
 21
2100.0
 31
0.0
  0
LINE
  5
11DF
330
1F
100
AcDbEntity
  8
SUNPO
 62
   144
100
AcDbLine
 10
2223.427849909444
 20
2153.427849909444
 30
0.0
 11
2305.093922280105
 21
2235.093922280106
 31
0.0
  0
LINE
  5
11E0
330
1F
100
AcDbEntity
  8
SUNPO
 62
   144
100
AcDbLine
 10
2337.269920305962
 20
2169.285469567796
 30
0.0
 11
2429.657873557089
 21
2207.553812804305
 31
0.0
  0
ARC
  5
11E1
330
1F
100
AcDbEntity
  8
SUNPO
 62
   144
100
AcDbCircle
 10
2170.0
 20
2100.0
 30
0.0
 40
181.0516570827036
100
AcDbArc
 50
15.87376606928409
 51
29.12623393071669
  0
SOLID
  5
11E2
330
1F
100
AcDbEntity
  8
SUNPO
 62
   144
100
AcDbTrace
 10
2352.401056661191
 20
2150.67172352725
 30
0.0
 11
2335.894043648111
 21
2148.370354551233
 31
0.0
 12
2351.051657082704
 22
2100.0
 32
0.0
 13
2351.051657082704
 23
2100.0
 33
0.0
  0
SOLID
  5
11E3
330
1F
100
AcDbEntity
  8
SUNPO
 62
   144
100
AcDbTrace
 10
2321.50780893361
 20
2183.101797510463
 30
0.0
 11
2334.807343381247
 21
2193.146704740193
 31
0.0
 12
2298.022854468239
 22
2228.022854468242
 32
0.0
 13
2298.022854468239
 23
2228.022854468242
 33
0.0
  0
LINE
  5
11E5
330
1F
100
AcDbEntity
  8
SUNPO
 62
   144
100
AcDbLine
 10
1722.102933756269
 20
2000.882914775563
 30
0.0
 11
1866.411100842171
 21
2144.467313102538
 31
0.0
  0
LINE
  5
11E7
330
1F
100
AcDbEntity
  8
SUNPO
 62
   144
100
AcDbLine
 10
1937.299323270332
 20
2215.0
 30
0.0
 11
1901.855212056252
 21
2179.733656551268
 31
0.0
  0
SOLID
  5
11E8
330
1F
100
AcDbEntity
  8
SUNPO
 62
   144
100
AcDbTrace
 10
1860.533376934047
 20
2150.374664971552
 30
0.0
 11
1872.288824750293
 21
2138.559961233525
 31
0.0
 12
1901.855212056252
 22
2179.733656551268
 32
0.0
 13
1901.855212056252
 23
2179.733656551268
 33
0.0
  0
LINE
  5
11E9
330
1F
100
AcDbEntity
  8
SUNPO
 62
   144
100
AcDbLine
 10
1870.0
 20
2080.0
 30
0.0
 11
1870.0
 21
1875.413953506828
 31
0.0
  0
LINE
  5
11EA
330
1F
100
AcDbEntity
  8
SUNPO
 62
   144
100
AcDbLine
 10
2170.0
 20
2079.999999999999
 30
0.0
 11
2170.0
 21
1875.413953506828
 31
0.0
  0
LINE
  5
11EB
330
1F
100
AcDbEntity
  8
SUNPO
 62
   144
100
AcDbLine
 10
1920.0
 20
1885.413953506828
 30
0.0
 11
2120.0
 21
1885.413953506828
 31
0.0
  0
SOLID
  5
11EC
330
1F
100
AcDbEntity
  8
SUNPO
 62
   144
100
AcDbTrace
 10
1920.0
 20
1893.747286840161
 30
0.0
 11
1920.0
 21
1877.080620173495
 31
0.0
 12
1870.0
 22
1885.413953506828
 32
0.0
 13
1870.0
 23
1885.413953506828
 33
0.0
  0
SOLID
  5
11ED
330
1F
100
AcDbEntity
  8
SUNPO
 62
   144
100
AcDbTrace
 10
2120.0
 20
1893.747286840161
 30
0.0
 11
2120.0
 21
1877.080620173495
 31
0.0
 12
2170.0
 22
1885.413953506828
 32
0.0
 13
2170.0
 23
1885.413953506828
 33
0.0
  0
LINE
  5
11EF
330
1F
100
AcDbEntity
  8
SUNPO
 62
   144
100
AcDbLine
 10
2082.700676729666
 20
2165.0
 30
0.0
 11
2010.0
 21
2165.0
 31
0.0
  0
LINE
  5
11F0
330
1F
100
AcDbEntity
  8
SUNPO
 62
   144
100
AcDbLine
 10
2000.0
 20
2100.0
 30
0.0
 11
2010.0
 21
2100.0
 31
0.0
  0
LINE
  5
11F1
330
1F
100
AcDbEntity
  8
SUNPO
 62
   144
100
AcDbLine
 10
2020.0
 20
2215.0
 30
0.0
 11
2020.0
 21
2265.0
 31
0.0
  0
LINE
  5
11F2
330
1F
100
AcDbEntity
  8
SUNPO
 62
   144
100
AcDbLine
 10
2020.0
 20
2050.0
 30
0.0
 11
2020.0
 21
2000.0
 31
0.0
  0
LINE
  5
11F4
330
1F
100
AcDbEntity
  8
SUNPO
 62
   144
100
AcDbLine
 10
2020.0
 20
2165.0
 30
0.0
 11
2020.0
 21
2100.0
 31
0.0
  0
SOLID
  5
11F5
330
1F
100
AcDbEntity
  8
SUNPO
 62
   144
100
AcDbTrace
 10
2011.666666666666
 20
2215.0
 30
0.0
 11
2028.333333333333
 21
2215.0
 31
0.0
 12
2020.0
 22
2165.0
 32
0.0
 13
2020.0
 23
2165.0
 33
0.0
  0
SOLID
  5
11F6
330
1F
100
AcDbEntity
  8
SUNPO
 62
   144
100
AcDbTrace
 10
2011.666666666666
 20
2050.0
 30
0.0
 11
2028.333333333333
 21
2050.0
 31
0.0
 12
2020.0
 22
2100.0
 32
0.0
 13
2020.0
 23
2100.0
 33
0.0
  0
LINE
  5
11F7
330
1F
100
AcDbEntity
  8
SUNPO
 62
   144
100
AcDbLine
 10
2150.0
 20
2525.0
 30
0.0
 11
2010.0
 21
2525.0
 31
0.0
  0
LINE
  5
11F8
330
1F
100
AcDbEntity
  8
SUNPO
 62
   144
100
AcDbLine
 10
2082.700676729666
 20
2165.0
 30
0.0
 11
2010.0
 21
2165.0
 31
0.0
  0
LINE
  5
11F9
330
1F
100
AcDbEntity
  8
SUNPO
 62
   144
100
AcDbLine
 10
2020.0
 20
2475.0
 30
0.0
 11
2020.0
 21
2215.0
 31
0.0
  0
SOLID
  5
11FA
330
1F
100
AcDbEntity
  8
SUNPO
 62
   144
100
AcDbTrace
 10
2011.666666666666
 20
2475.0
 30
0.0
 11
2028.333333333333
 21
2475.0
 31
0.0
 12
2020.0
 22
2525.0
 32
0.0
 13
2020.0
 23
2525.0
 33
0.0
  0
SOLID
  5
11FB
330
1F
100
AcDbEntity
  8
SUNPO
 62
   144
100
AcDbTrace
 10
2011.666666666666
 20
2215.0
 30
0.0
 11
2028.333333333333
 21
2215.0
 31
0.0
 12
2020.0
 22
2165.0
 32
0.0
 13
2020.0
 23
2165.0
 33
0.0
  0
LINE
  5
11FD
330
1F
100
AcDbEntity
  8
SUNPO
 62
   144
100
AcDbLine
 10
2170.0
 20
2545.0
 30
0.0
 11
2170.0
 21
2677.764512698168
 31
0.0
  0
LINE
  5
11FE
330
1F
100
AcDbEntity
  8
SUNPO
 62
   144
100
AcDbLine
 10
2220.0
 20
2545.0
 30
0.0
 11
2220.0
 21
2677.764512698168
 31
0.0
  0
LINE
  5
11FF
330
1F
100
AcDbEntity
  8
SUNPO
 62
   144
100
AcDbLine
 10
2120.0
 20
2667.764512698168
 30
0.0
 11
2070.0
 21
2667.764512698168
 31
0.0
  0
LINE
  5
1200
330
1F
100
AcDbEntity
  8
SUNPO
 62
   144
100
AcDbLine
 10
2270.0
 20
2667.764512698168
 30
0.0
 11
2320.0
 21
2667.764512698168
 31
0.0
  0
LINE
  5
1202
330
1F
100
AcDbEntity
  8
SUNPO
 62
   144
100
AcDbLine
 10
2170.0
 20
2667.764512698168
 30
0.0
 11
2220.0
 21
2667.764512698168
 31
0.0
  0
SOLID
  5
1203
330
1F
100
AcDbEntity
  8
SUNPO
 62
   144
100
AcDbTrace
 10
2120.0
 20
2676.097846031501
 30
0.0
 11
2120.0
 21
2659.431179364834
 31
0.0
 12
2170.0
 22
2667.764512698168
 32
0.0
 13
2170.0
 23
2667.764512698168
 33
0.0
  0
SOLID
  5
1204
330
1F
100
AcDbEntity
  8
SUNPO
 62
   144
100
AcDbTrace
 10
2270.0
 20
2676.097846031501
 30
0.0
 11
2270.0
 21
2659.431179364834
 31
0.0
 12
2220.0
 22
2667.764512698168
 32
0.0
 13
2220.0
 23
2667.764512698168
 33
0.0
  0
LINE
  5
1205
330
1F
100
AcDbEntity
  8
SUNPO
 62
   144
100
AcDbLine
 10
1870.0
 20
2545.0
 30
0.0
 11
1870.0
 21
2677.764512698168
 31
0.0
  0
LINE
  5
1206
330
1F
100
AcDbEntity
  8
SUNPO
 62
   144
100
AcDbLine
 10
2170.0
 20
2545.0
 30
0.0
 11
2170.0
 21
2677.764512698168
 31
0.0
  0
LINE
  5
1207
330
1F
100
AcDbEntity
  8
SUNPO
 62
   144
100
AcDbLine
 10
1920.0
 20
2667.764512698168
 30
0.0
 11
2120.0
 21
2667.764512698168
 31
0.0
  0
SOLID
  5
1208
330
1F
100
AcDbEntity
  8
SUNPO
 62
   144
100
AcDbTrace
 10
1920.0
 20
2676.097846031501
 30
0.0
 11
1920.0
 21
2659.431179364834
 31
0.0
 12
1870.0
 22
2667.764512698168
 32
0.0
 13
1870.0
 23
2667.764512698168
 33
0.0
  0
SOLID
  5
1209
330
1F
100
AcDbEntity
  8
SUNPO
 62
   144
100
AcDbTrace
 10
2120.0
 20
2676.097846031501
 30
0.0
 11
2120.0
 21
2659.431179364834
 31
0.0
 12
2170.0
 22
2667.764512698168
 32
0.0
 13
2170.0
 23
2667.764512698168
 33
0.0
  0
LINE
  5
120B
330
1F
100
AcDbEntity
  8
SUNPO
 62
   144
100
AcDbLine
 10
2149.999999999999
 20
2218.789694075418
 30
0.0
 11
2149.999999999999
 21
2573.837811715557
 31
0.0
  0
LINE
  5
120C
330
1F
100
AcDbEntity
  8
SUNPO
 62
   144
100
AcDbLine
 10
2210.0
 20
2545.0
 30
0.0
 11
2210.0
 21
2573.837811715557
 31
0.0
  0
LINE
  5
120D
330
1F
100
AcDbEntity
  8
SUNPO
 62
   144
100
AcDbLine
 10
2099.999999999999
 20
2563.837811715557
 30
0.0
 11
2049.999999999999
 21
2563.837811715557
 31
0.0
  0
LINE
  5
120E
330
1F
100
AcDbEntity
  8
SUNPO
 62
   144
100
AcDbLine
 10
2260.0
 20
2563.837811715557
 30
0.0
 11
2310.0
 21
2563.837811715557
 31
0.0
  0
LINE
  5
1210
330
1F
100
AcDbEntity
  8
SUNPO
 62
   144
100
AcDbLine
 10
2149.999999999999
 20
2563.837811715557
 30
0.0
 11
2210.0
 21
2563.837811715557
 31
0.0
  0
SOLID
  5
1211
330
1F
100
AcDbEntity
  8
SUNPO
 62
   144
100
AcDbTrace
 10
2099.999999999999
 20
2572.171145048891
 30
0.0
 11
2099.999999999999
 21
2555.504478382223
 31
0.0
 12
2149.999999999999
 22
2563.837811715557
 32
0.0
 13
2149.999999999999
 23
2563.837811715557
 33
0.0
  0
SOLID
  5
1212
330
1F
100
AcDbEntity
  8
SUNPO
 62
   144
100
AcDbTrace
 10
2260.0
 20
2572.171145048891
 30
0.0
 11
2260.0
 21
2555.504478382223
 31
0.0
 12
2210.0
 22
2563.837811715557
 32
0.0
 13
2210.0
 23
2563.837811715557
 33
0.0
  0
LINE
  5
1213
330
1F
100
AcDbEntity
  8
SUNPO
 62
   144
100
AcDbLine
 10
1890.0
 20
2218.789694075418
 30
0.0
 11
1890.0
 21
2573.837811715557
 31
0.0
  0
LINE
  5
1214
330
1F
100
AcDbEntity
  8
SUNPO
 62
   144
100
AcDbLine
 10
2149.999999999999
 20
2218.789694075418
 30
0.0
 11
2149.999999999999
 21
2573.837811715557
 31
0.0
  0
LINE
  5
1215
330
1F
100
AcDbEntity
  8
SUNPO
 62
   144
100
AcDbLine
 10
1940.0
 20
2563.837811715557
 30
0.0
 11
2099.999999999999
 21
2563.837811715557
 31
0.0
  0
SOLID
  5
1216
330
1F
100
AcDbEntity
  8
SUNPO
 62
   144
100
AcDbTrace
 10
1940.0
 20
2572.171145048891
 30
0.0
 11
1940.0
 21
2555.504478382223
 31
0.0
 12
1890.0
 22
2563.837811715557
 32
0.0
 13
1890.0
 23
2563.837811715557
 33
0.0
  0
SOLID
  5
1217
330
1F
100
AcDbEntity
  8
SUNPO
 62
   144
100
AcDbTrace
 10
2099.999999999999
 20
2572.171145048891
 30
0.0
 11
2099.999999999999
 21
2555.504478382223
 31
0.0
 12
2149.999999999999
 22
2563.837811715557
 32
0.0
 13
2149.999999999999
 23
2563.837811715557
 33
0.0
  0
LINE
  5
1219
330
1F
100
AcDbEntity
  8
SUNPO
 62
   144
100
AcDbLine
 10
3720.0
 20
2080.0
 30
0.0
 11
3720.0
 21
1890.678770251243
 31
0.0
  0
LINE
  5
121A
330
1F
100
AcDbEntity
  8
SUNPO
 62
   144
100
AcDbLine
 10
4320.0
 20
2080.0
 30
0.0
 11
4320.0
 21
1890.678770251243
 31
0.0
  0
LINE
  5
121B
330
1F
100
AcDbEntity
  8
SUNPO
 62
   144
100
AcDbLine
 10
3770.0
 20
1900.678770251243
 30
0.0
 11
4270.0
 21
1900.678770251243
 31
0.0
  0
SOLID
  5
121C
330
1F
100
AcDbEntity
  8
SUNPO
 62
   144
100
AcDbTrace
 10
3770.0
 20
1909.012103584577
 30
0.0
 11
3770.0
 21
1892.345436917911
 31
0.0
 12
3720.0
 22
1900.678770251243
 32
0.0
 13
3720.0
 23
1900.678770251243
 33
0.0
  0
SOLID
  5
121D
330
1F
100
AcDbEntity
  8
SUNPO
 62
   144
100
AcDbTrace
 10
4270.0
 20
1909.012103584577
 30
0.0
 11
4270.0
 21
1892.345436917911
 31
0.0
 12
4320.0
 22
1900.678770251243
 32
0.0
 13
4320.0
 23
1900.678770251243
 33
0.0
  0
TEXT
  5
121F
330
1F
100
AcDbEntity
  8
SUNPO
100
AcDbText
 10
2474.612738260886
 20
334.2082387347982
 30
0.0
 40
100.0
  1
Ｕ_300C
  7
ADD
100
AcDbText
1001
ACAD
1000
MTEXTBEGIN
1070
    73
1070
     1
1070
    44
1040
1.0
1070
    74
1070
     0
1000
MTEXTEND
1000
MTEXTBEGIN
1070
    73
1070
     1
1070
    44
1040
1.0
1070
    74
1070
     0
1000
MTEXTEND
  0
TEXT
  5
1220
330
1F
100
AcDbEntity
  8
SUNPO
100
AcDbText
 10
615.8709773606532
 20
347.6182270735043
 30
0.0
 40
100.0
  1
道路用上ぶた式Ｕ形側溝
  7
ADD
100
AcDbText
1001
ACAD
1000
MTEXTBEGIN
1070
    73
1070
     1
1070
    44
1040
1.0
1070
    74
1070
     0
1000
MTEXTEND
1000
MTEXTBEGIN
1070
    73
1070
     1
1070
    44
1040
1.0
1070
    74
1070
     0
1000
MTEXTEND
1000
MTEXTBEGIN
1070
    73
1070
     1
1070
    44
1040
1.0
1070
    74
1070
     0
1000
MTEXTEND
  0
TEXT
  5
1221
330
1F
100
AcDbEntity
  8
SUNPO
100
AcDbText
 10
3246.680311730542
 20
359.2274732162223
 30
0.0
 40
70.0
  1
１／２０
  7
ADD
100
AcDbText
1001
ACAD
1000
MTEXTBEGIN
1070
    73
1070
     1
1070
    44
1040
1.0
1070
    74
1070
     0
1000
MTEXTEND
1000
MTEXTBEGIN
1070
    73
1070
     1
1070
    44
1040
1.0
1070
    74
1070
     0
1000
MTEXTEND
1000
MTEXTBEGIN
1070
    73
1070
     1
1070
    44
1040
1.0
1070
    74
1070
     0
1000
MTEXTEND
1000
MTEXTBEGIN
1070
    73
1070
     1
1070
    44
1040
1.0
1070
    74
1070
     0
1000
MTEXTEND
1000
MTEXTBEGIN
1070
    73
1070
     1
1070
    44
1040
1.0
1070
    74
1070
     0
1000
MTEXTEND
1000
MTEXTBEGIN
1070
    73
1070
     1
1070
    44
1040
1.0
1070
    74
1070
     0
1000
MTEXTEND
1000
MTEXTBEGIN
1070
    73
1070
     1
1070
    44
1040
1.0
1070
    74
1070
     0
1000
MTEXTEND
1000
MTEXTBEGIN
1070
    73
1070
     1
1070
    44
1040
1.0
1070
    74
1070
     0
1000
MTEXTEND
  0
TEXT
  5
1222
330
1F
100
AcDbEntity
  8
SUNPO
100
AcDbText
 10
381.8862574011546
 20
488.6918916770627
 30
0.0
 40
50.0
  1
製品名
  7
ADD
100
AcDbText
1001
ACAD
1000
MTEXTBEGIN
1070
    73
1070
     1
1070
    44
1040
1.0
1070
    74
1070
     0
1000
MTEXTEND
1000
MTEXTBEGIN
1070
    73
1070
     1
1070
    44
1040
1.0
1070
    74
1070
     0
1000
MTEXTEND
1000
MTEXTBEGIN
1070
    73
1070
     1
1070
    44
1040
1.0
1070
    74
1070
     0
1000
MTEXTEND
1000
MTEXTBEGIN
1070
    73
1070
     1
1070
    44
1040
1.0
1070
    74
1070
     0
1000
MTEXTEND
1000
MTEXTBEGIN
1070
    73
1070
     1
1070
    44
1040
1.0
1070
    74
1070
     0
1000
MTEXTEND
1000
MTEXTBEGIN
1070
    73
1070
     1
1070
    44
1040
1.0
1070
    74
1070
     0
1000
MTEXTEND
1000
MTEXTBEGIN
1070
    73
1070
     1
1070
    44
1040
1.0
1070
    74
1070
     0
1000
MTEXTEND
1000
MTEXTBEGIN
1070
    73
1070
     1
1070
    44
1040
1.0
1070
    74
1070
     0
1000
MTEXTEND
  0
TEXT
  5
1223
330
1F
100
AcDbEntity
  8
SUNPO
100
AcDbText
 10
2376.290169028722
 20
494.4531736811823
 30
0.0
 40
50.0
  1
型式
  7
ADD
100
AcDbText
1001
ACAD
1000
MTEXTBEGIN
1070
    73
1070
     1
1070
    44
1040
1.0
1070
    74
1070
     0
1000
MTEXTEND
1000
MTEXTBEGIN
1070
    73
1070
     1
1070
    44
1040
1.0
1070
    74
1070
     0
1000
MTEXTEND
1000
MTEXTBEGIN
1070
    73
1070
     1
1070
    44
1040
1.0
1070
    74
1070
     0
1000
MTEXTEND
1000
MTEXTBEGIN
1070
    73
1070
     1
1070
    44
1040
1.0
1070
    74
1070
     0
1000
MTEXTEND
1000
MTEXTBEGIN
1070
    73
1070
     1
1070
    44
1040
1.0
1070
    74
1070
     0
1000
MTEXTEND
1000
MTEXTBEGIN
1070
    73
1070
     1
1070
    44
1040
1.0
1070
    74
1070
     0
1000
MTEXTEND
1000
MTEXTBEGIN
1070
    73
1070
     1
1070
    44
1040
1.0
1070
    74
1070
     0
1000
MTEXTEND
1000
MTEXTBEGIN
1070
    73
1070
     1
1070
    44
1040
1.0
1070
    74
1070
     0
1000
MTEXTEND
  0
TEXT
  5
1224
330
1F
100
AcDbEntity
  8
SUNPO
100
AcDbText
 10
3177.510249231657
 20
488.6918916770627
 30
0.0
 40
50.0
  1
縮尺
  7
ADD
100
AcDbText
1001
ACAD
1000
MTEXTBEGIN
1070
    73
1070
     1
1070
    44
1040
1.0
1070
    74
1070
     0
1000
MTEXTEND
1000
MTEXTBEGIN
1070
    73
1070
     1
1070
    44
1040
1.0
1070
    74
1070
     0
1000
MTEXTEND
1000
MTEXTBEGIN
1070
    73
1070
     1
1070
    44
1040
1.0
1070
    74
1070
     0
1000
MTEXTEND
1000
MTEXTBEGIN
1070
    73
1070
     1
1070
    44
1040
1.0
1070
    74
1070
     0
1000
MTEXTEND
1000
MTEXTBEGIN
1070
    73
1070
     1
1070
    44
1040
1.0
1070
    74
1070
     0
1000
MTEXTEND
1000
MTEXTBEGIN
1070
    73
1070
     1
1070
    44
1040
1.0
1070
    74
1070
     0
1000
MTEXTEND
1000
MTEXTBEGIN
1070
    73
1070
     1
1070
    44
1040
1.0
1070
    74
1070
     0
1000
MTEXTEND
1000
MTEXTBEGIN
1070
    73
1070
     1
1070
    44
1040
1.0
1070
    74
1070
     0
1000
MTEXTEND
  0
TEXT
  5
1225
330
1F
100
AcDbEntity
  8
SUNPO
100
AcDbText
 10
3730.870883051572
 20
352.2726133092144
 30
0.0
 40
100.0
  1
千葉県コンクリート製品協同組合
  7
ADD
100
AcDbText
1001
ACAD
1000
MTEXTBEGIN
1070
    73
1070
     1
1070
    44
1040
1.0
1070
    74
1070
     0
1000
MTEXTEND
1000
MTEXTBEGIN
1070
    73
1070
     1
1070
    44
1040
1.0
1070
    74
1070
     0
1000
MTEXTEND
1000
MTEXTBEGIN
1070
    73
1070
     1
1070
    44
1040
1.0
1070
    74
1070
     0
1000
MTEXTEND
1000
MTEXTBEGIN
1070
    73
1070
     1
1070
    44
1040
1.0
1070
    74
1070
     0
1000
MTEXTEND
1000
MTEXTBEGIN
1070
    73
1070
     1
1070
    44
1040
1.0
1070
    74
1070
     0
1000
MTEXTEND
1000
MTEXTBEGIN
1070
    73
1070
     1
1070
    44
1040
1.0
1070
    74
1070
     0
1000
MTEXTEND
1000
MTEXTBEGIN
1070
    73
1070
     1
1070
    44
1040
1.0
1070
    74
1070
     0
1000
MTEXTEND
1000
MTEXTBEGIN
1070
    73
1070
     1
1070
    44
1040
1.0
1070
    74
1070
     0
1000
MTEXTEND
  0
LINE
  5
1226
330
1F
100
AcDbEntity
  8
HOJO
100
AcDbLine
 10
360.0
 20
260.0
 30
0.0
 11
5580.0
 21
260.0
 31
0.0
  0
LINE
  5
1227
330
1F
100
AcDbEntity
  8
HOJO
100
AcDbLine
 10
5580.0
 20
260.0
 30
0.0
 11
5580.0
 21
3940.0
 31
0.0
  0
LINE
  5
1228
330
1F
100
AcDbEntity
  8
HOJO
100
AcDbLine
 10
5580.0
 20
3940.0
 30
0.0
 11
360.0
 21
3940.0
 31
0.0
  0
LINE
  5
1229
330
1F
100
AcDbEntity
  8
HOJO
100
AcDbLine
 10
360.0
 20
3940.0
 30
0.0
 11
360.0
 21
260.0
 31
0.0
  0
LINE
  5
122A
330
1F
100
AcDbEntity
  8
HOJO
100
AcDbLine
 10
0.0
 20
0.0
 30
0.0
 11
5940.0
 21
0.0
 31
0.0
  0
LINE
  5
122B
330
1F
100
AcDbEntity
  8
HOJO
100
AcDbLine
 10
5940.0
 20
0.0
 30
0.0
 11
5940.0
 21
4200.0
 31
0.0
  0
LINE
  5
122C
330
1F
100
AcDbEntity
  8
HOJO
100
AcDbLine
 10
5940.0
 20
4200.0
 30
0.0
 11
0.0
 21
4200.0
 31
0.0
  0
LINE
  5
122D
330
1F
100
AcDbEntity
  8
HOJO
100
AcDbLine
 10
0.0
 20
4200.0
 30
0.0
 11
0.0
 21
0.0
 31
0.0
  0
TEXT
  5
122E
330
1F
100
AcDbEntity
  8
SUNPO
 62
     7
100
AcDbText
 10
3947.380952380952
 20
1913.178770251243
 30
0.0
 40
50.0
  1
600
  7
ADD
100
AcDbText
  0
TEXT
  5
122F
330
1F
100
AcDbEntity
  8
SUNPO
 62
     7
100
AcDbText
 10
1948.571428571428
 20
2576.337811715557
 30
0.0
 40
50.0
  1
260
  7
ADD
100
AcDbText
  0
TEXT
  5
1230
330
1F
100
AcDbEntity
  8
SUNPO
 62
     7
100
AcDbText
 10
2251.065476190476
 20
2576.337811715557
 30
0.0
 40
50.0
  1
60
  7
ADD
100
AcDbText
  0
TEXT
  5
1231
330
1F
100
AcDbEntity
  8
SUNPO
 62
     7
100
AcDbText
 10
1948.571428571428
 20
2680.264512698168
 30
0.0
 40
50.0
  1
300
  7
ADD
100
AcDbText
  0
TEXT
  5
1232
330
1F
100
AcDbEntity
  8
SUNPO
 62
     7
100
AcDbText
 10
2267.255952380952
 20
2680.264512698168
 30
0.0
 40
50.0
  1
50
  7
ADD
100
AcDbText
  0
TEXT
  5
1233
330
1F
100
AcDbEntity
  8
SUNPO
 62
     7
100
AcDbText
 10
2007.499999999999
 20
2273.571428571429
 30
0.0
 40
50.0
  1
360
 50
90.0
  7
ADD
100
AcDbText
  0
TEXT
  5
1234
330
1F
100
AcDbEntity
  8
SUNPO
 62
     7
100
AcDbText
 10
2007.499999999999
 20
1976.190476190476
 30
0.0
 40
50.0
  1
65
 50
90.0
  7
ADD
100
AcDbText
  0
TEXT
  5
1235
330
1F
100
AcDbEntity
  8
SUNPO
 62
     7
100
AcDbText
 10
1948.571428571428
 20
1897.913953506828
 30
0.0
 40
50.0
  1
300
  7
ADD
100
AcDbText
  0
TEXT
  5
1236
330
1F
100
AcDbEntity
  8
SUNPO
 62
     7
100
AcDbText
 10
1715.396116418734
 20
2011.843129689125
 30
0.0
 40
50.0
  1
R50
 50
44.8559573505996
  7
ADD
100
AcDbText
  0
TEXT
  5
1237
330
1F
100
AcDbEntity
  8
SUNPO
 62
     7
100
AcDbText
 10
2410.136117609553
 20
2287.347574896096
 30
0.0
 40
50.0
  1
45°
 50
292.5000000000001
  7
ADD
100
AcDbText
  0
VIEWPORT
  5
72
330
1B
100
AcDbEntity
 67
     1
  8
0
100
AcDbViewport
 10
578.8914265011195
 20
308.2351889773414
 30
0.0
 40
1287.06613890523
 41
690.9223776620393
 68
     1
 69
     1
1001
ACAD
1000
MVIEW
1002
{
1070
    16
1010
0.0
1020
0.0
1030
0.0
1010
0.0
1020
0.0
1030
1.0
1040
0.0
1040
690.9223776620393
1040
578.8914265011195
1040
308.2351889773414
1040
50.0
1040
0.0
1040
0.0
1070
     0
1070
   100
1070
     1
1070
     1
1070
     0
1070
     0
1070
     0
1070
     0
1040
0.0
1040
0.0
1040
0.0
1040
10.0
1040
10.0
1040
10.0
1040
10.0
1070
     0
1002
{
1002
}
1002
}
  0
VIEWPORT
  5
74
330
1B
100
AcDbEntity
 67
     1
  8
VIEWPORT
100
AcDbViewport
 10
414.3779638919212
 20
277.3177265058034
 30
0.0
 40
840.0353682728887
 41
567.2285469943826
 68
     2
 69
     2
1001
ACAD
1000
MVIEW
1002
{
1070
    16
1010
0.0
1020
0.0
1030
0.0
1010
0.0
1020
0.0
1030
1.0
1040
0.0
1040
579.5583043546322
1040
424.4938908624541
1040
286.1973242720074
1040
50.0
1040
0.0
1040
0.0
1070
     0
1070
   100
1070
     1
1070
     1
1070
     0
1070
     0
1070
     0
1070
     0
1040
0.0
1040
0.0
1040
0.0
1040
10.0
1040
10.0
1040
10.0
1040
10.0
1070
     0
1002
{
1002
}
1002
}
  0
ENDSEC
  0
SECTION
  2
OBJECTS
  0
DICTIONARY
  5
C
330
0
100
AcDbDictionary
  3
ACAD_GROUP
350
D
  3
ACAD_LAYOUT
350
1A
  3
ACAD_MLINESTYLE
350
17
  3
ACAD_PLOTSETTINGS
350
19
  3
ACADDIM
350
F44
  3
DWGPROPS
350
4C7
1001
ACAD
1000
TREAT_AS_HARD
1070
     0
1000
TREAT_AS_HARD
1070
     0
  0
DICTIONARY
  5
65D
330
1F
100
AcDbDictionary
  3
ACAD_LAYOUTSELFREF
350
1259
1001
ACAD
1000
TREAT_AS_HARD
1070
     1
1000
TREAT_AS_HARD
1070
     0
  0
DICTIONARY
  5
65F
330
1B
100
AcDbDictionary
  3
ACAD_LAYOUTSELFREF
350
1258
1001
ACAD
1000
TREAT_AS_HARD
1070
     1
1000
TREAT_AS_HARD
1070
     0
  0
DICTIONARY
  5
D
102
{ACAD_REACTORS
330
C
102
}
330
C
100
AcDbDictionary
1001
ACAD
1000
TREAT_AS_HARD
1070
     0
1000
TREAT_AS_HARD
1070
     0
  0
DICTIONARY
  5
1A
102
{ACAD_REACTORS
330
C
102
}
330
C
100
AcDbDictionary
1001
ACAD
1000
TREAT_AS_HARD
1070
     0
1000
TREAT_AS_HARD
1070
     0
  0
DICTIONARY
  5
17
102
{ACAD_REACTORS
330
C
102
}
330
C
100
AcDbDictionary
  3
STANDARD
350
18
1001
ACAD
1000
TREAT_AS_HARD
1070
     0
1000
TREAT_AS_HARD
1070
     0
  0
DICTIONARY
  5
19
102
{ACAD_REACTORS
330
C
102
}
330
C
100
AcDbDictionary
1001
ACAD
1000
TREAT_AS_HARD
1070
     0
1000
TREAT_AS_HARD
1070
     0
  0
XRECORD
  5
F44
102
{ACAD_REACTORS
330
C
102
}
330
C
100
AcDbXrecord
 90
   990106
  3

 60
     0
 61
     0
 62
     1
 63
     3
 64
     0
 65
     0
 66
     0
 67
     3
 68
     1
 69
     0
 70
     0
 71
     0
 72
     0
 40
0.0
170
     0
  0
XRECORD
  5
4C7
102
{ACAD_REACTORS
330
C
102
}
330
C
100
AcDbXrecord
  1
DWGPROPS COOKIE
  2
印刷用テスト
  3
AutoCAD2000による建築設計
  4
鈴木 裕二
  6

  7

  8
U2
  9

300
=
301
=
302
=
303
=
304
=
305
=
306
=
307
=
308
=
309
=
 40
0.7653446875
 41
2451285.4846114
 42
2451333.689743032
  1

 90
        0
  0
XRECORD
  5
1259
102
{ACAD_REACTORS
330
65D
102
}
330
65D
100
AcDbXrecord
340
1F
  0
XRECORD
  5
1258
102
{ACAD_REACTORS
330
65F
102
}
330
65F
100
AcDbXrecord
340
1B
  0
MLINESTYLE
  5
18
102
{ACAD_REACTORS
330
17
102
}
330
17
100
AcDbMlineStyle
  2
STANDARD
 70
     0
  3

 62
   256
 51
90.0
 52
90.0
 71
     2
 49
0.5
 62
   256
  6
BYLAYER
 49
-0.5
 62
   256
  6
BYLAYER
  0
ENDSEC
  0
EOF
