  0
SECTION
  2
HEADER
  9
$ACADVER
  1
AC1012
  9
$DWGCODEPAGE
  3
dos932
  9
$INSBASE
 10
0.0
 20
0.0
 30
0.0
  9
$EXTMIN
 10
-0.1812605841350887
 20
-0.1281640493871237
 30
-0.0015258207003583
  9
$EXTMAX
 10
5940.181288244414
 20
4200.128183607161
 30
0.0000000349246037
  9
$LIMMIN
 10
0.0
 20
0.0
  9
$LIMMAX
 10
5940.0
 20
4200.0
  9
$ORTHOMODE
 70
     0
  9
$REGENMODE
 70
     1
  9
$FILLMODE
 70
     1
  9
$QTEXTMODE
 70
     0
  9
$MIRRTEXT
 70
     0
  9
$DRAGMODE
 70
     2
  9
$LTSCALE
 40
10.0
  9
$OSMODE
 70
  3071
  9
$ATTMODE
 70
     1
  9
$TEXTSIZE
 40
50.0
  9
$TRACEWID
 40
2.0
  9
$TEXTSTYLE
  7
ADD
  9
$CLAYER
  8
SUNPO
  9
$CELTYPE
  6
BYLAYER
  9
$CECOLOR
 62
   256
  9
$CELTSCALE
 40
1.0
  9
$DELOBJ
 70
     1
  9
$DISPSILH
 70
     0
  9
$DIMSCALE
 40
20.0
  9
$DIMASZ
 40
2.5
  9
$DIMEXO
 40
1.0
  9
$DIMDLI
 40
7.0
  9
$DIMRND
 40
0.0
  9
$DIMDLE
 40
0.0
  9
$DIMEXE
 40
0.5
  9
$DIMTP
 40
0.0
  9
$DIMTM
 40
0.0
  9
$DIMTXT
 40
2.5
  9
$DIMCEN
 40
2.5
  9
$DIMTSZ
 40
0.0
  9
$DIMTOL
 70
     0
  9
$DIMLIM
 70
     0
  9
$DIMTIH
 70
     0
  9
$DIMTOH
 70
     0
  9
$DIMSE1
 70
     0
  9
$DIMSE2
 70
     0
  9
$DIMTAD
 70
     1
  9
$DIMZIN
 70
     8
  9
$DIMBLK
  1

  9
$DIMASO
 70
     1
  9
$DIMSHO
 70
     1
  9
$DIMPOST
  1

  9
$DIMAPOST
  1

  9
$DIMALT
 70
     0
  9
$DIMALTD
 70
     3
  9
$DIMALTF
 40
0.03937007874016
  9
$DIMLFAC
 40
1.0
  9
$DIMTOFL
 70
     1
  9
$DIMTVP
 40
0.7
  9
$DIMTIX
 70
     0
  9
$DIMSOXD
 70
     0
  9
$DIMSAH
 70
     0
  9
$DIMBLK1
  1

  9
$DIMBLK2
  1

  9
$DIMSTYLE
  2
ADD
  9
$DIMCLRD
 70
   144
  9
$DIMCLRE
 70
   144
  9
$DIMCLRT
 70
     7
  9
$DIMTFAC
 40
1.0
  9
$DIMGAP
 40
0.625
  9
$DIMJUST
 70
     0
  9
$DIMSD1
 70
     0
  9
$DIMSD2
 70
     0
  9
$DIMTOLJ
 70
     2
  9
$DIMTZIN
 70
     8
  9
$DIMALTZ
 70
     0
  9
$DIMALTTZ
 70
     0
  9
$DIMFIT
 70
     3
  9
$DIMUPT
 70
     0
  9
$DIMUNIT
 70
     2
  9
$DIMDEC
 70
     0
  9
$DIMTDEC
 70
     0
  9
$DIMALTU
 70
     2
  9
$DIMALTTD
 70
     3
  9
$DIMTXSTY
  7
ADD
  9
$DIMAUNIT
 70
     0
  9
$LUNITS
 70
     2
  9
$LUPREC
 70
     4
  9
$SKETCHINC
 40
1.0
  9
$FILLETRAD
 40
50.0
  9
$AUNITS
 70
     0
  9
$AUPREC
 70
     1
  9
$MENU
  1
.
  9
$ELEVATION
 40
0.0
  9
$PELEVATION
 40
0.0
  9
$THICKNESS
 40
0.0
  9
$LIMCHECK
 70
     0
  9
$BLIPMODE
 70
     0
  9
$CHAMFERA
 40
0.0
  9
$CHAMFERB
 40
0.0
  9
$CHAMFERC
 40
50.0
  9
$CHAMFERD
 40
0.7853981633974483
  9
$SKPOLY
 70
     0
  9
$TDCREATE
 40
2451801.142532870
  9
$TDUPDATE
 40
2452207.590184780
  9
$TDINDWG
 40
0.3789234606
  9
$TDUSRTIMER
 40
0.3789232292
  9
$USRTIMER
 70
     1
  9
$ANGBASE
 50
0.0
  9
$ANGDIR
 70
     0
  9
$PDMODE
 70
    34
  9
$PDSIZE
 40
0.0
  9
$PLINEWID
 40
0.0
  9
$COORDS
 70
     1
  9
$SPLFRAME
 70
     0
  9
$SPLINETYPE
 70
     6
  9
$SPLINESEGS
 70
     8
  9
$ATTDIA
 70
     0
  9
$ATTREQ
 70
     1
  9
$HANDLING
 70
-16383
  9
$HANDSEED
  5
13C2
  9
$SURFTAB1
 70
     6
  9
$SURFTAB2
 70
     6
  9
$SURFTYPE
 70
     6
  9
$SURFU
 70
     6
  9
$SURFV
 70
     6
  9
$UCSNAME
  2

  9
$UCSORG
 10
0.0
 20
0.0
 30
0.0
  9
$UCSXDIR
 10
1.0
 20
0.0
 30
0.0
  9
$UCSYDIR
 10
0.0
 20
1.0
 30
0.0
  9
$PUCSNAME
  2

  9
$PUCSORG
 10
0.0
 20
0.0
 30
0.0
  9
$PUCSXDIR
 10
1.0
 20
0.0
 30
0.0
  9
$PUCSYDIR
 10
0.0
 20
1.0
 30
0.0
  9
$USERI1
 70
     0
  9
$USERI2
 70
     0
  9
$USERI3
 70
     0
  9
$USERI4
 70
     0
  9
$USERI5
 70
     0
  9
$USERR1
 40
841.0
  9
$USERR2
 40
594.0
  9
$USERR3
 40
1.0
  9
$USERR4
 40
0.0
  9
$USERR5
 40
0.0
  9
$WORLDVIEW
 70
     1
  9
$SHADEDGE
 70
     3
  9
$SHADEDIF
 70
    70
  9
$TILEMODE
 70
     1
  9
$MAXACTVP
 70
    48
  9
$PINSBASE
 10
0.0
 20
0.0
 30
0.0
  9
$PLIMCHECK
 70
     0
  9
$PEXTMIN
 10
-5.639720244523232
 20
-6.296546991387912
 30
0.0
  9
$PEXTMAX
 10
834.3956480283653
 20
560.9320000029946
 30
0.0
  9
$PLIMMIN
 10
-7.5
 20
-20.0
  9
$PLIMMAX
 10
833.5000000000004
 20
574.0000000000001
  9
$UNITMODE
 70
     0
  9
$VISRETAIN
 70
     1
  9
$PLINEGEN
 70
     0
  9
$PSLTSCALE
 70
     1
  9
$TREEDEPTH
 70
  3020
  9
$PICKSTYLE
 70
     1
  9
$CMLSTYLE
  2
STANDARD
  9
$CMLJUST
 70
     0
  9
$CMLSCALE
 40
20.0
  9
$SAVEIMAGES
 70
     1
  0
ENDSEC
  0
SECTION
  2
CLASSES
  0
CLASS
  1
ACDBDICTIONARYWDFLT
  2
AcDbDictionaryWithDefault
  3
AutoCAD 2000
 90
    32768
280
     0
281
     0
  0
CLASS
  1
ACDBPLACEHOLDER
  2
AcDbPlaceHolder
  3
AutoCAD 2000
 90
    32768
280
     0
281
     0
  0
CLASS
  1
LAYOUT
  2
AcDbLayout
  3
AutoCAD 2000
 90
    32768
280
     0
281
     0
  0
CLASS
  1
RTEXT
  2
RText
  3
RText|AutoCAD Express Tool|expresstools@autodesk.com
 90
    32768
280
     0
281
     1
  0
CLASS
  1
DICTIONARYVAR
  2
AcDbDictionaryVar
  3
AutoCAD 2000
 90
    32768
280
     0
281
     0
  0
CLASS
  1
LONG_TRANSACTION
  2
AcDbLongTransaction
  3
AutoCAD 2000
 90
    32768
280
     0
281
     0
  0
CLASS
  1
LWPOLYLINE
  2
AcDbPolyline
  3
AutoCAD 2000
 90
    32768
280
     0
281
     1
  0
CLASS
  1
HATCH
  2
AcDbHatch
  3
AutoCAD 2000
 90
    32768
280
     0
281
     1
  0
CLASS
  1
XRECORD
  2
AcDbXrecord
  3
AutoCAD 2000
 90
    32768
280
     0
281
     0
  0
CLASS
  1
LONG_TRANSACTION
  2
AcDbLongTransaction
  3
AutoCAD 2000
 90
    32768
280
     0
281
     0
  0
CLASS
  1
LWPOLYLINE
  2
AcDbPolyline
  3
AutoCAD 2000
 90
    32768
280
     0
281
     1
  0
CLASS
  1
HATCH
  2
AcDbHatch
  3
AutoCAD 2000
 90
    32768
280
     0
281
     1
  0
CLASS
  1
XRECORD
  2
AcDbXrecord
  3
AutoCAD 2000
 90
    32768
280
     0
281
     0
  0
CLASS
  1
LONG_TRANSACTION
  2
AcDbLongTransaction
  3
AutoCAD 2000
 90
    32768
280
     0
281
     0
  0
CLASS
  1
LWPOLYLINE
  2
AcDbPolyline
  3
AutoCAD 2000
 90
    32768
280
     0
281
     1
  0
CLASS
  1
HATCH
  2
AcDbHatch
  3
AutoCAD 2000
 90
    32768
280
     0
281
     1
  0
CLASS
  1
XRECORD
  2
AcDbXrecord
  3
AutoCAD 2000
 90
    32768
280
     0
281
     0
  0
CLASS
  1
LONG_TRANSACTION
  2
AcDbLongTransaction
  3
AutoCAD 2000
 90
    32768
280
     0
281
     0
  0
CLASS
  1
LWPOLYLINE
  2
AcDbPolyline
  3
AutoCAD 2000
 90
    32768
280
     0
281
     1
  0
CLASS
  1
HATCH
  2
AcDbHatch
  3
AutoCAD 2000
 90
    32768
280
     0
281
     1
  0
CLASS
  1
XRECORD
  2
AcDbXrecord
  3
AutoCAD 2000
 90
    32768
280
     0
281
     0
  0
CLASS
  1
LONG_TRANSACTION
  2
AcDbLongTransaction
  3
AutoCAD 2000
 90
    32768
280
     0
281
     0
  0
CLASS
  1
LWPOLYLINE
  2
AcDbPolyline
  3
AutoCAD 2000
 90
    32768
280
     0
281
     1
  0
CLASS
  1
HATCH
  2
AcDbHatch
  3
AutoCAD 2000
 90
    32768
280
     0
281
     1
  0
CLASS
  1
XRECORD
  2
AcDbXrecord
  3
AutoCAD 2000
 90
    32768
280
     0
281
     0
  0
CLASS
  1
LONG_TRANSACTION
  2
AcDbLongTransaction
  3
AutoCAD 2000
 90
    32768
280
     0
281
     0
  0
CLASS
  1
LWPOLYLINE
  2
AcDbPolyline
  3
AutoCAD 2000
 90
    32768
280
     0
281
     1
  0
CLASS
  1
HATCH
  2
AcDbHatch
  3
AutoCAD 2000
 90
    32768
280
     0
281
     1
  0
CLASS
  1
XRECORD
  2
AcDbXrecord
  3
AutoCAD 2000
 90
    32768
280
     0
281
     0
  0
CLASS
  1
LONG_TRANSACTION
  2
AcDbLongTransaction
  3
AutoCAD 2000
 90
    32768
280
     0
281
     0
  0
CLASS
  1
LWPOLYLINE
  2
AcDbPolyline
  3
AutoCAD 2000
 90
    32768
280
     0
281
     1
  0
CLASS
  1
HATCH
  2
AcDbHatch
  3
AutoCAD 2000
 90
    32768
280
     0
281
     1
  0
CLASS
  1
XRECORD
  2
AcDbXrecord
  3
AutoCAD 2000
 90
    32768
280
     0
281
     0
  0
CLASS
  1
LONG_TRANSACTION
  2
AcDbLongTransaction
  3
AutoCAD 2000
 90
    32768
280
     0
281
     0
  0
CLASS
  1
LWPOLYLINE
  2
AcDbPolyline
  3
AutoCAD 2000
 90
    32768
280
     0
281
     1
  0
CLASS
  1
HATCH
  2
AcDbHatch
  3
AutoCAD 2000
 90
    32768
280
     0
281
     1
  0
CLASS
  1
XRECORD
  2
AcDbXrecord
  3
AutoCAD 2000
 90
    32768
280
     0
281
     0
  0
CLASS
  1
LONG_TRANSACTION
  2
AcDbLongTransaction
  3
AutoCAD 2000
 90
    32768
280
     0
281
     0
  0
CLASS
  1
LWPOLYLINE
  2
AcDbPolyline
  3
AutoCAD 2000
 90
    32768
280
     0
281
     1
  0
CLASS
  1
HATCH
  2
AcDbHatch
  3
AutoCAD 2000
 90
    32768
280
     0
281
     1
  0
CLASS
  1
XRECORD
  2
AcDbXrecord
  3
AutoCAD 2000
 90
    32768
280
     0
281
     0
  0
CLASS
  1
LONG_TRANSACTION
  2
AcDbLongTransaction
  3
AutoCAD 2000
 90
    32768
280
     0
281
     0
  0
CLASS
  1
LWPOLYLINE
  2
AcDbPolyline
  3
AutoCAD 2000
 90
    32768
280
     0
281
     1
  0
CLASS
  1
HATCH
  2
AcDbHatch
  3
AutoCAD 2000
 90
    32768
280
     0
281
     1
  0
CLASS
  1
XRECORD
  2
AcDbXrecord
  3
AutoCAD 2000
 90
    32768
280
     0
281
     0
  0
CLASS
  1
LONG_TRANSACTION
  2
AcDbLongTransaction
  3
AutoCAD 2000
 90
    32768
280
     0
281
     0
  0
CLASS
  1
LWPOLYLINE
  2
AcDbPolyline
  3
AutoCAD 2000
 90
    32768
280
     0
281
     1
  0
CLASS
  1
HATCH
  2
AcDbHatch
  3
AutoCAD 2000
 90
    32768
280
     0
281
     1
  0
CLASS
  1
XRECORD
  2
AcDbXrecord
  3
AutoCAD 2000
 90
    32768
280
     0
281
     0
  0
ENDSEC
  0
SECTION
  2
TABLES
  0
TABLE
  2
VPORT
  5
8
330
0
100
AcDbSymbolTable
 70
     2
  0
VPORT
  5
13B2
330
8
100
AcDbSymbolTableRecord
100
AcDbViewportTableRecord
  2
*ACTIVE
 70
     0
 10
0.0
 20
0.0
 11
1.0
 21
1.0
 12
2970.000013830138
 22
2100.000009778886
 13
0.0
 23
0.0
 14
10.0
 24
10.0
 15
10.0
 25
10.0
 16
0.0
 26
0.0
 36
1.0
 17
0.0
 27
0.0
 37
0.0
 40
4249.286577395729
 41
1.84990253411306
 42
50.0
 43
0.0
 44
0.0
 50
0.0
 51
0.0
 71
     0
 72
   100
 73
     1
 74
     1
 75
     0
 76
     0
 77
     0
 78
     0
  0
ENDTAB
  0
TABLE
  2
LTYPE
  5
5
330
0
100
AcDbSymbolTable
 70
     5
  0
LTYPE
  5
14
330
5
100
AcDbSymbolTableRecord
100
AcDbLinetypeTableRecord
  2
BYBLOCK
 70
     0
  3

 72
    65
 73
     0
 40
0.0
  0
LTYPE
  5
15
330
5
100
AcDbSymbolTableRecord
100
AcDbLinetypeTableRecord
  2
BYLAYER
 70
     0
  3

 72
    65
 73
     0
 40
0.0
  0
LTYPE
  5
16
330
5
100
AcDbSymbolTableRecord
100
AcDbLinetypeTableRecord
  2
CONTINUOUS
 70
     0
  3
Solid line
 72
    65
 73
     0
 40
0.0
  0
LTYPE
  5
555
330
5
100
AcDbSymbolTableRecord
100
AcDbLinetypeTableRecord
  2
CENTER
 70
     0
  3
Center ____ _ ____ _ ____ _ ____ _ ____ _ ____
 72
    65
 73
     4
 40
50.8
 49
31.75
 74
     0
 49
-6.349999999999998
 74
     0
 49
6.349999999999998
 74
     0
 49
-6.349999999999998
 74
     0
  0
LTYPE
  5
556
330
5
100
AcDbSymbolTableRecord
100
AcDbLinetypeTableRecord
  2
HIDDEN
 70
     0
  3
Hidden __ __ __ __ __ __ __ __ __ __ __ __ __ _
 72
    65
 73
     2
 40
9.524999999999996
 49
6.349999999999998
 74
     0
 49
-3.174999999999998
 74
     0
  0
LTYPE
  5
557
330
5
100
AcDbSymbolTableRecord
100
AcDbLinetypeTableRecord
  2
HIDDEN2
 70
     0
  3
Hidden (.5x) _ _ _ _ _ _ _ _ _ _ _ _ _ _ _ _ _
 72
    65
 73
     2
 40
4.762499999999998
 49
3.174999999999998
 74
     0
 49
-1.587499999999999
 74
     0
  0
LTYPE
  5
558
330
5
100
AcDbSymbolTableRecord
100
AcDbLinetypeTableRecord
  2
PHANTOM
 70
     0
  3
Phantom ______  __  __  ______  __  __  ______
 72
    65
 73
     6
 40
63.5
 49
31.75
 74
     0
 49
-6.349999999999998
 74
     0
 49
6.349999999999998
 74
     0
 49
-6.349999999999998
 74
     0
 49
6.349999999999998
 74
     0
 49
-6.349999999999998
 74
     0
  0
ENDTAB
  0
TABLE
  2
LAYER
  5
2
330
0
100
AcDbSymbolTable
 70
    22
  0
LAYER
  5
10
330
2
100
AcDbSymbolTableRecord
100
AcDbLayerTableRecord
  2
0
 70
     0
 62
     7
  6
CONTINUOUS
  0
LAYER
  5
75
330
2
100
AcDbSymbolTableRecord
100
AcDbLayerTableRecord
  2
VIEWPORT
 70
     0
 62
     1
  6
CONTINUOUS
  0
LAYER
  5
504
330
2
100
AcDbSymbolTableRecord
100
AcDbLayerTableRecord
  2
DEFPOINTS
 70
     0
 62
     6
  6
CONTINUOUS
  0
LAYER
  5
505
330
2
100
AcDbSymbolTableRecord
100
AcDbLayerTableRecord
  2
1C1
 70
     0
 62
   254
  6
CONTINUOUS
  0
LAYER
  5
506
330
2
100
AcDbSymbolTableRecord
100
AcDbLayerTableRecord
  2
1C2
 70
     0
 62
   254
  6
CONTINUOUS
  0
LAYER
  5
507
330
2
100
AcDbSymbolTableRecord
100
AcDbLayerTableRecord
  2
2C1
 70
     0
 62
   144
  6
CONTINUOUS
  0
LAYER
  5
508
330
2
100
AcDbSymbolTableRecord
100
AcDbLayerTableRecord
  2
2C2
 70
     0
 62
   144
  6
CONTINUOUS
  0
LAYER
  5
509
330
2
100
AcDbSymbolTableRecord
100
AcDbLayerTableRecord
  2
2H1
 70
     0
 62
   144
  6
HIDDEN
  0
LAYER
  5
50A
330
2
100
AcDbSymbolTableRecord
100
AcDbLayerTableRecord
  2
2H2
 70
     0
 62
   144
  6
HIDDEN2
  0
LAYER
  5
50B
330
2
100
AcDbSymbolTableRecord
100
AcDbLayerTableRecord
  2
2P1
 70
     0
 62
   144
  6
PHANTOM
  0
LAYER
  5
50C
330
2
100
AcDbSymbolTableRecord
100
AcDbLayerTableRecord
  2
3C1
 70
     0
 62
     7
  6
CONTINUOUS
  0
LAYER
  5
50D
330
2
100
AcDbSymbolTableRecord
100
AcDbLayerTableRecord
  2
3C2
 70
     0
 62
     7
  6
CONTINUOUS
  0
LAYER
  5
50E
330
2
100
AcDbSymbolTableRecord
100
AcDbLayerTableRecord
  2
3C3
 70
     0
 62
     7
  6
CONTINUOUS
  0
LAYER
  5
50F
330
2
100
AcDbSymbolTableRecord
100
AcDbLayerTableRecord
  2
4H1
 70
     0
 62
     6
  6
HIDDEN
  0
LAYER
  5
510
330
2
100
AcDbSymbolTableRecord
100
AcDbLayerTableRecord
  2
4H2
 70
     0
 62
     6
  6
HIDDEN2
  0
LAYER
  5
511
330
2
100
AcDbSymbolTableRecord
100
AcDbLayerTableRecord
  2
5C1
 70
     0
 62
    55
  6
CONTINUOUS
  0
LAYER
  5
512
330
2
100
AcDbSymbolTableRecord
100
AcDbLayerTableRecord
  2
5C2
 70
     0
 62
    55
  6
CONTINUOUS
  0
LAYER
  5
513
330
2
100
AcDbSymbolTableRecord
100
AcDbLayerTableRecord
  2
8C1
 70
     0
 62
    92
  6
CONTINUOUS
  0
LAYER
  5
514
330
2
100
AcDbSymbolTableRecord
100
AcDbLayerTableRecord
  2
HOJO
 70
     0
 62
     5
  6
CONTINUOUS
  0
LAYER
  5
515
330
2
100
AcDbSymbolTableRecord
100
AcDbLayerTableRecord
  2
KIJUN
 70
     0
 62
     1
  6
CENTER
  0
LAYER
  5
516
330
2
100
AcDbSymbolTableRecord
100
AcDbLayerTableRecord
  2
MOJI
 70
     0
 62
     7
  6
CONTINUOUS
  0
LAYER
  5
517
330
2
100
AcDbSymbolTableRecord
100
AcDbLayerTableRecord
  2
SUNPO
 70
     0
 62
   144
  6
CONTINUOUS
  0
ENDTAB
  0
TABLE
  2
STYLE
  5
3
330
0
100
AcDbSymbolTable
 70
     6
  0
STYLE
  5
11
330
3
100
AcDbSymbolTableRecord
100
AcDbTextStyleTableRecord
  2
STANDARD
 70
     0
 40
0.0
 41
1.0
 50
0.0
 71
     0
 42
2.5
  3
txt
  4

  0
STYLE
  5
2C
330
3
100
AcDbSymbolTableRecord
100
AcDbTextStyleTableRecord
  2

 70
     1
 40
0.0
 41
1.0
 50
0.0
 71
     0
 42
2.5
  3
ltypeshp.shx
  4

  0
STYLE
  5
18E
330
3
100
AcDbSymbolTableRecord
100
AcDbTextStyleTableRecord
  2
ADD
 70
     0
 40
0.0
 41
1.0
 50
0.0
 71
     0
 42
50.0
  3
romans.shx
  4
bigfont.shx
  0
STYLE
  5
191
330
3
100
AcDbSymbolTableRecord
100
AcDbTextStyleTableRecord
  2
MSG
 70
     0
 40
0.0
 41
1.0
 50
0.0
 71
     0
 42
2.5
  3
MS Gothic.ttf
  4

1001
ACAD
1000
MS Gothic
1071
    32817
  0
STYLE
  5
5C8
330
3
100
AcDbSymbolTableRecord
100
AcDbTextStyleTableRecord
  2
STANDARD15
 70
     0
 40
0.0
 41
1.0
 50
15.0
 71
     0
 42
2.5
  3
ROMANS
  4
bigfont
  0
STYLE
  5
5C9
330
3
100
AcDbSymbolTableRecord
100
AcDbTextStyleTableRecord
  2
ROMANS15
 70
     0
 40
0.0
 41
1.0
 50
15.0
 71
     0
 42
2.5
  3
romans
  4

  0
ENDTAB
  0
TABLE
  2
VIEW
  5
6
330
0
100
AcDbSymbolTable
 70
     1
  0
VIEW
  5
54D
330
6
100
AcDbSymbolTableRecord
100
AcDbViewTableRecord
  2
ALL
 70
     0
 40
594.0
 10
420.5
 20
297.0
 41
865.125
 11
0.0
 21
0.0
 31
1.0
 12
0.0
 22
0.0
 32
0.0
 42
50.0
 43
0.0
 44
0.0
 50
0.0
 71
     0
  0
ENDTAB
  0
TABLE
  2
UCS
  5
7
330
0
100
AcDbSymbolTable
 70
     0
  0
ENDTAB
  0
TABLE
  2
APPID
  5
9
330
0
100
AcDbSymbolTable
 70
     4
  0
APPID
  5
12
330
9
100
AcDbSymbolTableRecord
100
AcDbRegAppTableRecord
  2
ACAD
 70
     0
  0
APPID
  5
5CB
330
9
100
AcDbSymbolTableRecord
100
AcDbRegAppTableRecord
  2
ARAIGUMI_YOHEKI
 70
     0
  0
APPID
  5
5CC
330
9
100
AcDbSymbolTableRecord
100
AcDbRegAppTableRecord
  2
CONTENTTABDATA
 70
     0
  0
APPID
  5
5CD
330
9
100
AcDbSymbolTableRecord
100
AcDbRegAppTableRecord
  2
CONTENTCURRENTTAB
 70
     0
  0
ENDTAB
  0
TABLE
  2
DIMSTYLE
  5
A
330
0
100
AcDbSymbolTable
 70
    10
  0
DIMSTYLE
105
27
330
A
100
AcDbSymbolTableRecord
100
AcDbDimStyleTableRecord
  2
ISO-25
 70
     0
  3

  4

  5

  6

  7

 40
1.0
 41
2.5
 42
0.625
 43
3.75
 44
1.25
 45
0.0
 46
0.0
 47
0.0
 48
0.0
140
2.5
141
2.5
142
0.0
143
0.03937007874016
144
1.0
145
0.0
146
1.0
147
0.625
 71
     0
 72
     0
 73
     0
 74
     0
 75
     0
 76
     0
 77
     1
 78
     8
170
     0
171
     3
172
     1
173
     0
174
     0
175
     0
176
     0
177
     0
178
     0
270
     2
271
     2
272
     2
273
     2
274
     3
340
11
275
     0
280
     0
281
     0
282
     0
283
     0
284
     8
285
     0
286
     0
287
     3
288
     0
  0
DIMSTYLE
105
197
330
A
100
AcDbSymbolTableRecord
100
AcDbDimStyleTableRecord
  2
ADD
 70
     0
  3

  4

  5

  6

  7

 40
1.0
 41
2.5
 42
1.0
 43
7.0
 44
0.5
 45
0.0
 46
0.0
 47
0.0
 48
0.0
140
2.5
141
2.5
142
0.0
143
0.03937007874016
144
1.0
145
0.7
146
1.0
147
0.625
 71
     0
 72
     0
 73
     0
 74
     0
 75
     0
 76
     0
 77
     1
 78
     8
170
     0
171
     3
172
     1
173
     0
174
     1
175
     0
176
   144
177
   144
178
     7
270
     2
271
     1
272
     1
273
     2
274
     3
340
18E
275
     0
280
     0
281
     0
282
     0
283
     2
284
     8
285
     0
286
     0
287
     3
288
     0
  0
DIMSTYLE
105
3E6
330
A
100
AcDbSymbolTableRecord
100
AcDbDimStyleTableRecord
  2
ADD$2
 70
     0
  3

  4

  5

  6

  7

 40
1.0
 41
2.5
 42
1.0
 43
7.0
 44
0.5
 45
0.0
 46
0.0
 47
0.0
 48
0.0
140
2.5
141
2.5
142
0.0
143
0.03937007874016
144
1.0
145
0.7
146
1.0
147
0.625
 71
     0
 72
     0
 73
     0
 74
     0
 75
     0
 76
     0
 77
     1
 78
     8
170
     0
171
     3
172
     1
173
     0
174
     1
175
     0
176
   144
177
   144
178
     7
270
     2
271
     1
272
     1
273
     2
274
     3
340
18E
275
     0
280
     0
281
     0
282
     0
283
     2
284
     8
285
     0
286
     0
287
     3
288
     0
  0
DIMSTYLE
105
3E7
330
A
100
AcDbSymbolTableRecord
100
AcDbDimStyleTableRecord
  2
ADD$4
 70
     0
  3

  4

  5

  6

  7

 40
1.0
 41
2.5
 42
1.0
 43
7.0
 44
0.5
 45
0.0
 46
0.0
 47
0.0
 48
0.0
140
2.5
141
2.5
142
0.0
143
0.03937007874016
144
1.0
145
0.0
146
1.0
147
0.625
 71
     0
 72
     0
 73
     0
 74
     0
 75
     0
 76
     0
 77
     1
 78
     8
170
     0
171
     3
172
     1
173
     0
174
     1
175
     0
176
   144
177
   144
178
     7
270
     2
271
     1
272
     1
273
     2
274
     3
340
18E
275
     0
280
     0
281
     0
282
     0
283
     2
284
     8
285
     0
286
     0
287
     3
288
     0
  0
DIMSTYLE
105
3E8
330
A
100
AcDbSymbolTableRecord
100
AcDbDimStyleTableRecord
  2
ADD$3
 70
     0
  3

  4

  5

  6

  7

 40
1.0
 41
2.5
 42
1.0
 43
7.0
 44
0.5
 45
0.0
 46
0.0
 47
0.0
 48
0.0
140
2.5
141
2.5
142
0.0
143
0.03937007874016
144
1.0
145
0.0
146
1.0
147
0.625
 71
     0
 72
     0
 73
     0
 74
     0
 75
     0
 76
     0
 77
     1
 78
     8
170
     0
171
     3
172
     1
173
     0
174
     1
175
     0
176
   144
177
   144
178
     7
270
     2
271
     1
272
     1
273
     2
274
     3
340
18E
275
     0
280
     0
281
     0
282
     0
283
     2
284
     8
285
     0
286
     0
287
     3
288
     0
  0
DIMSTYLE
105
3E9
330
A
100
AcDbSymbolTableRecord
100
AcDbDimStyleTableRecord
  2
ADD$6
 70
     0
  3

  4

  5

  6

  7

 40
1.0
 41
2.5
 42
1.0
 43
7.0
 44
0.5
 45
0.0
 46
0.0
 47
0.0
 48
0.0
140
2.5
141
2.5
142
0.0
143
0.03937007874016
144
1.0
145
0.0
146
1.0
147
0.625
 71
     0
 72
     0
 73
     0
 74
     0
 75
     0
 76
     0
 77
     1
 78
     8
170
     0
171
     3
172
     1
173
     0
174
     1
175
     0
176
   144
177
   144
178
     7
270
     2
271
     1
272
     1
273
     2
274
     3
340
18E
275
     0
280
     0
281
     0
282
     0
283
     2
284
     8
285
     0
286
     0
287
     3
288
     0
  0
DIMSTYLE
105
3EA
330
A
100
AcDbSymbolTableRecord
100
AcDbDimStyleTableRecord
  2
ADD$7
 70
     0
  3

  4

  5

  6

  7

 40
1.0
 41
2.5
 42
1.0
 43
7.0
 44
0.5
 45
0.0
 46
0.0
 47
0.0
 48
0.0
140
2.5
141
2.5
142
0.0
143
0.03937007874016
144
1.0
145
0.0
146
1.0
147
0.625
 71
     0
 72
     0
 73
     0
 74
     0
 75
     0
 76
     0
 77
     0
 78
     8
170
     0
171
     3
172
     1
173
     0
174
     1
175
     0
176
   144
177
   144
178
     7
270
     2
271
     1
272
     1
273
     2
274
     3
340
18E
275
     0
280
     0
281
     0
282
     0
283
     2
284
     8
285
     0
286
     0
287
     3
288
     0
  0
DIMSTYLE
105
518
330
A
100
AcDbSymbolTableRecord
100
AcDbDimStyleTableRecord
  2
STANDARD
 70
     0
  3

  4

  5

  6

  7

 40
1.0
 41
0.18
 42
0.0625
 43
0.38
 44
0.18
 45
0.0
 46
0.0
 47
0.0
 48
0.0
140
0.18
141
0.09
142
0.0
143
25.4
144
1.0
145
0.0
146
1.0
147
0.09
 71
     0
 72
     0
 73
     1
 74
     1
 75
     0
 76
     0
 77
     0
 78
     0
170
     0
171
     2
172
     0
173
     0
174
     0
175
     0
176
     0
177
     0
178
     0
270
     2
271
     4
272
     4
273
     2
274
     2
340
11
275
     0
280
     0
281
     0
282
     0
283
     1
284
     0
285
     0
286
     0
287
     3
288
     0
  0
DIMSTYLE
105
550
330
A
100
AcDbSymbolTableRecord
100
AcDbDimStyleTableRecord
  2
ADD$0
 70
     0
  3

  4

  5

  6

  7

 40
1.0
 41
2.5
 42
1.0
 43
7.0
 44
0.5
 45
0.0
 46
0.0
 47
0.0
 48
0.0
140
2.5
141
2.5
142
0.0
143
0.03937007874016
144
1.0
145
0.7
146
1.0
147
0.625
 71
     0
 72
     0
 73
     0
 74
     0
 75
     0
 76
     0
 77
     1
 78
     8
170
     0
171
     3
172
     1
173
     0
174
     1
175
     0
176
   144
177
   144
178
     7
270
     2
271
     1
272
     1
273
     2
274
     3
340
18E
275
     0
280
     0
281
     0
282
     0
283
     2
284
     8
285
     0
286
     0
287
     3
288
     0
  0
DIMSTYLE
105
59B
330
A
100
AcDbSymbolTableRecord
100
AcDbDimStyleTableRecord
  2
ADD_M
 70
     0
  3

  4

  5

  6

  7

 40
1.0
 41
2.5
 42
1.0
 43
7.0
 44
0.5
 45
0.0
 46
0.0
 47
0.0
 48
0.0
140
2.5
141
2.5
142
0.0
143
0.03937007874016
144
1.0
145
0.7
146
1.0
147
0.625
 71
     0
 72
     0
 73
     0
 74
     0
 75
     0
 76
     0
 77
     1
 78
     8
170
     0
171
     3
172
     1
173
     0
174
     1
175
     0
176
   144
177
   144
178
     7
270
     2
271
     1
272
     1
273
     2
274
     3
340
18E
275
     0
280
     0
281
     0
282
     0
283
     2
284
     8
285
     0
286
     0
287
     3
288
     0
  0
ENDTAB
  0
TABLE
  2
BLOCK_RECORD
  5
1
330
0
100
AcDbSymbolTable
 70
    12
  0
BLOCK_RECORD
  5
1F
102
{ACAD_XDICTIONARY
360
65D
102
}
330
1
100
AcDbSymbolTableRecord
100
AcDbBlockTableRecord
  2
*MODEL_SPACE
  0
BLOCK_RECORD
  5
1B
102
{ACAD_XDICTIONARY
360
65F
102
}
330
1
100
AcDbSymbolTableRecord
100
AcDbBlockTableRecord
  2
*PAPER_SPACE
  0
BLOCK_RECORD
  5
192
330
1
100
AcDbSymbolTableRecord
100
AcDbBlockTableRecord
  2
_DOT
  0
BLOCK_RECORD
  5
5CE
330
1
100
AcDbSymbolTableRecord
100
AcDbBlockTableRecord
  2
A4
  0
BLOCK_RECORD
  5
1185
330
1
100
AcDbSymbolTableRecord
100
AcDbBlockTableRecord
  2
*D2
  0
BLOCK_RECORD
  5
11B0
330
1
100
AcDbSymbolTableRecord
100
AcDbBlockTableRecord
  2
*D3
  0
BLOCK_RECORD
  5
11BD
330
1
100
AcDbSymbolTableRecord
100
AcDbBlockTableRecord
  2
*D4
  0
BLOCK_RECORD
  5
11D7
330
1
100
AcDbSymbolTableRecord
100
AcDbBlockTableRecord
  2
*D5
  0
BLOCK_RECORD
  5
11E4
330
1
100
AcDbSymbolTableRecord
100
AcDbBlockTableRecord
  2
*D6
  0
BLOCK_RECORD
  5
120B
330
1
100
AcDbSymbolTableRecord
100
AcDbBlockTableRecord
  2
*D7
  0
BLOCK_RECORD
  5
1218
330
1
100
AcDbSymbolTableRecord
100
AcDbBlockTableRecord
  2
*D8
  0
BLOCK_RECORD
  5
1232
330
1
100
AcDbSymbolTableRecord
100
AcDbBlockTableRecord
  2
*D9
  0
BLOCK_RECORD
  5
123F
330
1
100
AcDbSymbolTableRecord
100
AcDbBlockTableRecord
  2
*D10
  0
BLOCK_RECORD
  5
124A
330
1
100
AcDbSymbolTableRecord
100
AcDbBlockTableRecord
  2
*D11
  0
ENDTAB
  0
ENDSEC
  0
SECTION
  2
BLOCKS
  0
BLOCK
  5
20
330
1F
100
AcDbEntity
  8
0
100
AcDbBlockBegin
  2
*MODEL_SPACE
 70
     0
 10
0.0
 20
0.0
 30
0.0
  3
*MODEL_SPACE
  1

  0
ENDBLK
  5
21
330
1F
100
AcDbEntity
  8
0
100
AcDbBlockEnd
  0
BLOCK
  5
1C
330
1B
100
AcDbEntity
 67
     1
  8
0
100
AcDbBlockBegin
  2
*PAPER_SPACE
 70
     0
 10
0.0
 20
0.0
 30
0.0
  3
*PAPER_SPACE
  1

  0
ENDBLK
  5
1D
330
1B
100
AcDbEntity
 67
     1
  8
0
100
AcDbBlockEnd
  0
BLOCK
  5
195
330
192
100
AcDbEntity
  8
0
100
AcDbBlockBegin
  2
_DOT
 70
     0
 10
0.0
 20
0.0
 30
0.0
  3
_DOT
  1

  0
POLYLINE
  5
193
330
192
100
AcDbEntity
  8
0
 62
     0
100
AcDb2dPolyline
 66
     1
 10
0.0
 20
0.0
 30
0.0
 70
     1
 40
0.5
 41
0.5
  0
VERTEX
  5
13B5
330
193
100
AcDbEntity
  8
0
 62
     0
100
AcDbVertex
100
AcDb2dVertex
 10
-0.25
 20
0.0
 30
0.0
 42
1.0
  0
VERTEX
  5
13B6
330
193
100
AcDbEntity
  8
0
 62
     0
100
AcDbVertex
100
AcDb2dVertex
 10
0.25
 20
0.0
 30
0.0
 42
1.0
  0
SEQEND
  5
13B7
330
193
100
AcDbEntity
  8
0
 62
     0
  0
LINE
  5
194
330
192
100
AcDbEntity
  8
0
 62
     0
100
AcDbLine
 10
-0.5
 20
0.0
 30
0.0
 11
-1.0
 21
0.0
 31
0.0
  0
ENDBLK
  5
196
330
192
100
AcDbEntity
  8
0
100
AcDbBlockEnd
  0
BLOCK
  5
5D1
330
5CE
100
AcDbEntity
  8
0
100
AcDbBlockBegin
  2
A4
 70
     0
 10
0.0
 20
0.0
 30
0.0
  3
A4
  1

  0
POLYLINE
  5
5CF
330
5CE
100
AcDbEntity
  8
HOJO
100
AcDb2dPolyline
 66
     1
 10
0.0
 20
0.0
 30
0.0
 70
     1
  0
VERTEX
  5
13B8
330
5CF
100
AcDbEntity
  8
HOJO
100
AcDbVertex
100
AcDb2dVertex
 10
0.0
 20
0.0
 30
0.0
  0
VERTEX
  5
13B9
330
5CF
100
AcDbEntity
  8
HOJO
100
AcDbVertex
100
AcDb2dVertex
 10
297.0
 20
0.0
 30
0.0
  0
VERTEX
  5
13BA
330
5CF
100
AcDbEntity
  8
HOJO
100
AcDbVertex
100
AcDb2dVertex
 10
297.0
 20
210.0
 30
0.0
  0
VERTEX
  5
13BB
330
5CF
100
AcDbEntity
  8
HOJO
100
AcDbVertex
100
AcDb2dVertex
 10
0.0
 20
210.0
 30
0.0
  0
SEQEND
  5
13BC
330
5CF
100
AcDbEntity
  8
HOJO
  0
POLYLINE
  5
5D0
330
5CE
100
AcDbEntity
  8
HOJO
100
AcDb2dPolyline
 66
     1
 10
0.0
 20
0.0
 30
0.0
 70
     1
  0
VERTEX
  5
13BD
330
5D0
100
AcDbEntity
  8
HOJO
100
AcDbVertex
100
AcDb2dVertex
 10
18.0
 20
13.0
 30
0.0
  0
VERTEX
  5
13BE
330
5D0
100
AcDbEntity
  8
HOJO
100
AcDbVertex
100
AcDb2dVertex
 10
279.0
 20
13.0
 30
0.0
  0
VERTEX
  5
13BF
330
5D0
100
AcDbEntity
  8
HOJO
100
AcDbVertex
100
AcDb2dVertex
 10
279.0
 20
197.0
 30
0.0
  0
VERTEX
  5
13C0
330
5D0
100
AcDbEntity
  8
HOJO
100
AcDbVertex
100
AcDb2dVertex
 10
18.0
 20
197.0
 30
0.0
  0
SEQEND
  5
13C1
330
5D0
100
AcDbEntity
  8
HOJO
  0
ENDBLK
  5
5D2
330
5CE
100
AcDbEntity
  8
0
100
AcDbBlockEnd
  0
BLOCK
  5
118F
330
1185
100
AcDbEntity
  8
0
100
AcDbBlockBegin
  2
*D2
 70
     1
 10
0.0
 20
0.0
 30
0.0
  3
*D2
  1

  0
LINE
  5
12D2
330
1185
100
AcDbEntity
  8
SUNPO
 62
   144
100
AcDbLine
 10
3720.0
 20
2080.0
 30
0.0
 11
3720.0
 21
1936.120716983216
 31
0.0
  0
LINE
  5
12D3
330
1185
100
AcDbEntity
  8
SUNPO
 62
   144
100
AcDbLine
 10
4320.0
 20
2080.0
 30
0.0
 11
4320.0
 21
1936.120716983216
 31
0.0
  0
LINE
  5
12D4
330
1185
100
AcDbEntity
  8
SUNPO
 62
   144
100
AcDbLine
 10
3770.0
 20
1946.120716983218
 30
0.0
 11
4270.0
 21
1946.120716983218
 31
0.0
  0
SOLID
  5
12D5
330
1185
100
AcDbEntity
  8
SUNPO
 62
   144
100
AcDbTrace
 10
3770.0
 20
1954.45405031655
 30
0.0
 11
3770.0
 21
1937.787383649884
 31
0.0
 12
3720.0
 22
1946.120716983218
 32
0.0
 13
3720.0
 23
1946.120716983218
 33
0.0
  0
SOLID
  5
12D6
330
1185
100
AcDbEntity
  8
SUNPO
 62
   144
100
AcDbTrace
 10
4270.0
 20
1954.45405031655
 30
0.0
 11
4270.0
 21
1937.787383649884
 31
0.0
 12
4320.0
 22
1946.120716983218
 32
0.0
 13
4320.0
 23
1946.120716983218
 33
0.0
  0
MTEXT
  5
12D7
330
1185
100
AcDbEntity
  8
SUNPO
 62
     7
100
AcDbMText
 10
4020.0
 20
1983.620716983216
 30
0.0
 40
50.0
 41
0.0
 71
     5
 72
     1
  1
\A2;600
  7
ADD
1001
ACAD
1000
MTEXTBEGIN
1070
    73
1070
     1
1070
    44
1040
1.0
1070
    74
1070
     0
1000
MTEXTEND
1000
MTEXTBEGIN
1070
    73
1070
     1
1070
    44
1040
1.0
1070
    74
1070
     0
1000
MTEXTEND
  0
POINT
  5
12D8
330
1185
100
AcDbEntity
  8
DEFPOINTS
 62
     0
100
AcDbPoint
 10
3720.0
 20
2100.0
 30
0.0
  0
POINT
  5
12D9
330
1185
100
AcDbEntity
  8
DEFPOINTS
 62
     0
100
AcDbPoint
 10
4320.0
 20
2100.0
 30
0.0
  0
POINT
  5
12DA
330
1185
100
AcDbEntity
  8
DEFPOINTS
 62
     0
100
AcDbPoint
 10
4320.0
 20
1946.120716983218
 30
0.0
  0
ENDBLK
  5
1190
330
1185
100
AcDbEntity
  8
0
100
AcDbBlockEnd
  0
BLOCK
  5
11BA
330
11B0
100
AcDbEntity
  8
0
100
AcDbBlockBegin
  2
*D3
 70
     1
 10
0.0
 20
0.0
 30
0.0
  3
*D3
  1

  0
LINE
  5
12DB
330
11B0
100
AcDbEntity
  8
SUNPO
 62
   144
100
AcDbLine
 10
1835.0
 20
2215.419685889839
 30
0.0
 11
1835.0
 21
2514.252485755718
 31
0.0
  0
LINE
  5
12DC
330
11B0
100
AcDbEntity
  8
SUNPO
 62
   144
100
AcDbLine
 10
2145.0
 20
2215.419685889839
 30
0.0
 11
2145.0
 21
2514.252485755718
 31
0.0
  0
LINE
  5
12DD
330
11B0
100
AcDbEntity
  8
SUNPO
 62
   144
100
AcDbLine
 10
1885.0
 20
2504.252485755718
 30
0.0
 11
2095.0
 21
2504.252485755718
 31
0.0
  0
SOLID
  5
12DE
330
11B0
100
AcDbEntity
  8
SUNPO
 62
   144
100
AcDbTrace
 10
1885.0
 20
2512.585819089052
 30
0.0
 11
1885.0
 21
2495.919152422384
 31
0.0
 12
1835.0
 22
2504.252485755718
 32
0.0
 13
1835.0
 23
2504.252485755718
 33
0.0
  0
SOLID
  5
12DF
330
11B0
100
AcDbEntity
  8
SUNPO
 62
   144
100
AcDbTrace
 10
2095.0
 20
2512.585819089052
 30
0.0
 11
2095.0
 21
2495.919152422384
 31
0.0
 12
2145.0
 22
2504.252485755718
 32
0.0
 13
2145.0
 23
2504.252485755718
 33
0.0
  0
MTEXT
  5
12E0
330
11B0
100
AcDbEntity
  8
SUNPO
 62
     7
100
AcDbMText
 10
1990.0
 20
2541.752485755718
 30
0.0
 40
50.0
 41
0.0
 71
     5
 72
     1
  1
\A2;310
  7
ADD
1001
ACAD
1000
MTEXTBEGIN
1070
    73
1070
     1
1070
    44
1040
1.0
1070
    74
1070
     0
1000
MTEXTEND
1000
MTEXTBEGIN
1070
    73
1070
     1
1070
    44
1040
1.0
1070
    74
1070
     0
1000
MTEXTEND
  0
POINT
  5
12E1
330
11B0
100
AcDbEntity
  8
DEFPOINTS
 62
     0
100
AcDbPoint
 10
1835.0
 20
2195.419685889839
 30
0.0
  0
POINT
  5
12E2
330
11B0
100
AcDbEntity
  8
DEFPOINTS
 62
     0
100
AcDbPoint
 10
2145.0
 20
2195.419685889839
 30
0.0
  0
POINT
  5
12E3
330
11B0
100
AcDbEntity
  8
DEFPOINTS
 62
     0
100
AcDbPoint
 10
2145.0
 20
2504.252485755718
 30
0.0
  0
ENDBLK
  5
11BB
330
11B0
100
AcDbEntity
  8
0
100
AcDbBlockEnd
  0
BLOCK
  5
11C9
330
11BD
100
AcDbEntity
  8
0
100
AcDbBlockBegin
  2
*D4
 70
     1
 10
0.0
 20
0.0
 30
0.0
  3
*D4
  1

  0
LINE
  5
12E4
330
11BD
100
AcDbEntity
  8
SUNPO
 62
   144
100
AcDbLine
 10
2145.0
 20
2215.419685889839
 30
0.0
 11
2145.0
 21
2514.252485755718
 31
0.0
  0
LINE
  5
12E5
330
11BD
100
AcDbEntity
  8
SUNPO
 62
   144
100
AcDbLine
 10
2210.0
 20
2485.0
 30
0.0
 11
2210.0
 21
2514.252485755718
 31
0.0
  0
LINE
  5
12E6
330
11BD
100
AcDbEntity
  8
SUNPO
 62
   144
100
AcDbLine
 10
2095.0
 20
2504.252485755718
 30
0.0
 11
2045.0
 21
2504.252485755718
 31
0.0
  0
LINE
  5
12E7
330
11BD
100
AcDbEntity
  8
SUNPO
 62
   144
100
AcDbLine
 10
2260.0
 20
2504.252485755718
 30
0.0
 11
2310.0
 21
2504.252485755718
 31
0.0
  0
MTEXT
  5
12E8
330
11BD
100
AcDbEntity
  8
SUNPO
 62
     7
100
AcDbMText
 10
2285.0
 20
2541.752485755718
 30
0.0
 40
50.0
 41
0.0
 71
     5
 72
     1
  1
\A2;65
  7
ADD
1001
ACAD
1000
MTEXTBEGIN
1070
    73
1070
     1
1070
    44
1040
1.0
1070
    74
1070
     0
1000
MTEXTEND
1000
MTEXTBEGIN
1070
    73
1070
     1
1070
    44
1040
1.0
1070
    74
1070
     0
1000
MTEXTEND
  0
LINE
  5
12E9
330
11BD
100
AcDbEntity
  8
SUNPO
 62
   144
100
AcDbLine
 10
2145.0
 20
2504.252485755718
 30
0.0
 11
2210.0
 21
2504.252485755718
 31
0.0
  0
SOLID
  5
12EA
330
11BD
100
AcDbEntity
  8
SUNPO
 62
   144
100
AcDbTrace
 10
2095.0
 20
2512.585819089052
 30
0.0
 11
2095.0
 21
2495.919152422384
 31
0.0
 12
2145.0
 22
2504.252485755718
 32
0.0
 13
2145.0
 23
2504.252485755718
 33
0.0
  0
SOLID
  5
12EB
330
11BD
100
AcDbEntity
  8
SUNPO
 62
   144
100
AcDbTrace
 10
2260.0
 20
2512.585819089052
 30
0.0
 11
2260.0
 21
2495.919152422384
 31
0.0
 12
2210.0
 22
2504.252485755718
 32
0.0
 13
2210.0
 23
2504.252485755718
 33
0.0
  0
POINT
  5
12EC
330
11BD
100
AcDbEntity
  8
DEFPOINTS
 62
     0
100
AcDbPoint
 10
2145.0
 20
2195.419685889839
 30
0.0
  0
POINT
  5
12ED
330
11BD
100
AcDbEntity
  8
DEFPOINTS
 62
     0
100
AcDbPoint
 10
2210.0
 20
2465.0
 30
0.0
  0
POINT
  5
12EE
330
11BD
100
AcDbEntity
  8
DEFPOINTS
 62
     0
100
AcDbPoint
 10
2210.0
 20
2504.252485755718
 30
0.0
  0
ENDBLK
  5
11CA
330
11BD
100
AcDbEntity
  8
0
100
AcDbBlockEnd
  0
BLOCK
  5
11E1
330
11D7
100
AcDbEntity
  8
0
100
AcDbBlockBegin
  2
*D5
 70
     1
 10
0.0
 20
0.0
 30
0.0
  3
*D5
  1

  0
LINE
  5
12EF
330
11D7
100
AcDbEntity
  8
SUNPO
 62
   144
100
AcDbLine
 10
1810.0
 20
2485.000000000002
 30
0.0
 11
1810.0
 21
2618.115247096993
 31
0.0
  0
LINE
  5
12F0
330
11D7
100
AcDbEntity
  8
SUNPO
 62
   144
100
AcDbLine
 10
2170.0
 20
2485.0
 30
0.0
 11
2170.0
 21
2618.115247096993
 31
0.0
  0
LINE
  5
12F1
330
11D7
100
AcDbEntity
  8
SUNPO
 62
   144
100
AcDbLine
 10
1860.0
 20
2608.115247096993
 30
0.0
 11
2120.0
 21
2608.115247096993
 31
0.0
  0
SOLID
  5
12F2
330
11D7
100
AcDbEntity
  8
SUNPO
 62
   144
100
AcDbTrace
 10
1860.0
 20
2616.448580430327
 30
0.0
 11
1860.0
 21
2599.78191376366
 31
0.0
 12
1810.0
 22
2608.115247096993
 32
0.0
 13
1810.0
 23
2608.115247096993
 33
0.0
  0
SOLID
  5
12F3
330
11D7
100
AcDbEntity
  8
SUNPO
 62
   144
100
AcDbTrace
 10
2120.0
 20
2616.448580430327
 30
0.0
 11
2120.0
 21
2599.78191376366
 31
0.0
 12
2170.0
 22
2608.115247096993
 32
0.0
 13
2170.0
 23
2608.115247096993
 33
0.0
  0
MTEXT
  5
12F4
330
11D7
100
AcDbEntity
  8
SUNPO
 62
     7
100
AcDbMText
 10
1990.0
 20
2645.615247096993
 30
0.0
 40
50.0
 41
0.0
 71
     5
 72
     1
  1
\A2;360
  7
ADD
1001
ACAD
1000
MTEXTBEGIN
1070
    73
1070
     1
1070
    44
1040
1.0
1070
    74
1070
     0
1000
MTEXTEND
1000
MTEXTBEGIN
1070
    73
1070
     1
1070
    44
1040
1.0
1070
    74
1070
     0
1000
MTEXTEND
  0
POINT
  5
12F5
330
11D7
100
AcDbEntity
  8
DEFPOINTS
 62
     0
100
AcDbPoint
 10
1810.0
 20
2465.000000000002
 30
0.0
  0
POINT
  5
12F6
330
11D7
100
AcDbEntity
  8
DEFPOINTS
 62
     0
100
AcDbPoint
 10
2170.0
 20
2465.0
 30
0.0
  0
POINT
  5
12F7
330
11D7
100
AcDbEntity
  8
DEFPOINTS
 62
     0
100
AcDbPoint
 10
2170.0
 20
2608.115247096993
 30
0.0
  0
ENDBLK
  5
11E2
330
11D7
100
AcDbEntity
  8
0
100
AcDbBlockEnd
  0
BLOCK
  5
11F0
330
11E4
100
AcDbEntity
  8
0
100
AcDbBlockBegin
  2
*D6
 70
     1
 10
0.0
 20
0.0
 30
0.0
  3
*D6
  1

  0
LINE
  5
12F8
330
11E4
100
AcDbEntity
  8
SUNPO
 62
   144
100
AcDbLine
 10
2170.0
 20
2485.0
 30
0.0
 11
2170.0
 21
2618.115247096993
 31
0.0
  0
LINE
  5
12F9
330
11E4
100
AcDbEntity
  8
SUNPO
 62
   144
100
AcDbLine
 10
2220.0
 20
2485.0
 30
0.0
 11
2220.0
 21
2618.115247096993
 31
0.0
  0
LINE
  5
12FA
330
11E4
100
AcDbEntity
  8
SUNPO
 62
   144
100
AcDbLine
 10
2120.0
 20
2608.115247096993
 30
0.0
 11
2070.0
 21
2608.115247096993
 31
0.0
  0
LINE
  5
12FB
330
11E4
100
AcDbEntity
  8
SUNPO
 62
   144
100
AcDbLine
 10
2270.0
 20
2608.115247096993
 30
0.0
 11
2320.0
 21
2608.115247096993
 31
0.0
  0
MTEXT
  5
12FC
330
11E4
100
AcDbEntity
  8
SUNPO
 62
     7
100
AcDbMText
 10
2295.0
 20
2645.615247096993
 30
0.0
 40
50.0
 41
0.0
 71
     5
 72
     1
  1
\A2;50
  7
ADD
1001
ACAD
1000
MTEXTBEGIN
1070
    73
1070
     1
1070
    44
1040
1.0
1070
    74
1070
     0
1000
MTEXTEND
1000
MTEXTBEGIN
1070
    73
1070
     1
1070
    44
1040
1.0
1070
    74
1070
     0
1000
MTEXTEND
  0
LINE
  5
12FD
330
11E4
100
AcDbEntity
  8
SUNPO
 62
   144
100
AcDbLine
 10
2170.0
 20
2608.115247096993
 30
0.0
 11
2220.0
 21
2608.115247096993
 31
0.0
  0
SOLID
  5
12FE
330
11E4
100
AcDbEntity
  8
SUNPO
 62
   144
100
AcDbTrace
 10
2120.0
 20
2616.448580430327
 30
0.0
 11
2120.0
 21
2599.78191376366
 31
0.0
 12
2170.0
 22
2608.115247096993
 32
0.0
 13
2170.0
 23
2608.115247096993
 33
0.0
  0
SOLID
  5
12FF
330
11E4
100
AcDbEntity
  8
SUNPO
 62
   144
100
AcDbTrace
 10
2270.0
 20
2616.448580430327
 30
0.0
 11
2270.0
 21
2599.78191376366
 31
0.0
 12
2220.0
 22
2608.115247096993
 32
0.0
 13
2220.0
 23
2608.115247096993
 33
0.0
  0
POINT
  5
1300
330
11E4
100
AcDbEntity
  8
DEFPOINTS
 62
     0
100
AcDbPoint
 10
2170.0
 20
2465.0
 30
0.0
  0
POINT
  5
1301
330
11E4
100
AcDbEntity
  8
DEFPOINTS
 62
     0
100
AcDbPoint
 10
2220.0
 20
2465.0
 30
0.0
  0
POINT
  5
1302
330
11E4
100
AcDbEntity
  8
DEFPOINTS
 62
     0
100
AcDbPoint
 10
2220.0
 20
2608.115247096993
 30
0.0
  0
ENDBLK
  5
11F1
330
11E4
100
AcDbEntity
  8
0
100
AcDbBlockEnd
  0
BLOCK
  5
1215
330
120B
100
AcDbEntity
  8
0
100
AcDbBlockBegin
  2
*D7
 70
     1
 10
0.0
 20
0.0
 30
0.0
  3
*D7
  1

  0
LINE
  5
1303
330
120B
100
AcDbEntity
  8
SUNPO
 62
   144
100
AcDbLine
 10
2150.0
 20
2465.0
 30
0.0
 11
1980.0
 21
2465.0
 31
0.0
  0
LINE
  5
1304
330
120B
100
AcDbEntity
  8
SUNPO
 62
   144
100
AcDbLine
 10
2078.993355921697
 20
2165.0
 30
0.0
 11
1980.0
 21
2165.0
 31
0.0
  0
LINE
  5
1305
330
120B
100
AcDbEntity
  8
SUNPO
 62
   144
100
AcDbLine
 10
1990.0
 20
2415.0
 30
0.0
 11
1990.0
 21
2215.0
 31
0.0
  0
SOLID
  5
1306
330
120B
100
AcDbEntity
  8
SUNPO
 62
   144
100
AcDbTrace
 10
1981.666666666665
 20
2415.0
 30
0.0
 11
1998.333333333333
 21
2415.0
 31
0.0
 12
1990.0
 22
2465.0
 32
0.0
 13
1990.0
 23
2465.0
 33
0.0
  0
SOLID
  5
1307
330
120B
100
AcDbEntity
  8
SUNPO
 62
   144
100
AcDbTrace
 10
1981.666666666665
 20
2215.0
 30
0.0
 11
1998.333333333333
 21
2215.0
 31
0.0
 12
1990.0
 22
2165.0
 32
0.0
 13
1990.0
 23
2165.0
 33
0.0
  0
MTEXT
  5
1308
330
120B
100
AcDbEntity
  8
SUNPO
 62
     7
100
AcDbMText
 10
1952.499999999999
 20
2315.0
 30
0.0
 40
50.0
 41
0.0
 71
     5
 72
     1
  1
\A2;300
  7
ADD
 11
0.0000000000000001
 21
1.0
 31
0.0
1001
ACAD
1000
MTEXTBEGIN
1070
    73
1070
     1
1070
    44
1040
1.0
1070
    74
1070
     0
1000
MTEXTEND
1000
MTEXTBEGIN
1070
    73
1070
     1
1070
    44
1040
1.0
1070
    74
1070
     0
1000
MTEXTEND
  0
POINT
  5
1309
330
120B
100
AcDbEntity
  8
DEFPOINTS
 62
     0
100
AcDbPoint
 10
2170.0
 20
2465.0
 30
0.0
  0
POINT
  5
130A
330
120B
100
AcDbEntity
  8
DEFPOINTS
 62
     0
100
AcDbPoint
 10
2098.993355921698
 20
2165.0
 30
0.0
  0
POINT
  5
130B
330
120B
100
AcDbEntity
  8
DEFPOINTS
 62
     0
100
AcDbPoint
 10
1990.0
 20
2165.0
 30
0.0
  0
ENDBLK
  5
1216
330
120B
100
AcDbEntity
  8
0
100
AcDbBlockEnd
  0
BLOCK
  5
1224
330
1218
100
AcDbEntity
  8
0
100
AcDbBlockBegin
  2
*D8
 70
     1
 10
0.0
 20
0.0
 30
0.0
  3
*D8
  1

  0
LINE
  5
130C
330
1218
100
AcDbEntity
  8
SUNPO
 62
   144
100
AcDbLine
 10
2078.993355921697
 20
2165.0
 30
0.0
 11
1980.0
 21
2165.0
 31
0.0
  0
LINE
  5
130D
330
1218
100
AcDbEntity
  8
SUNPO
 62
   144
100
AcDbLine
 10
1970.0
 20
2100.0
 30
0.0
 11
1980.0
 21
2100.0
 31
0.0
  0
LINE
  5
130E
330
1218
100
AcDbEntity
  8
SUNPO
 62
   144
100
AcDbLine
 10
1990.0
 20
2215.0
 30
0.0
 11
1990.0
 21
2265.0
 31
0.0
  0
LINE
  5
130F
330
1218
100
AcDbEntity
  8
SUNPO
 62
   144
100
AcDbLine
 10
1990.0
 20
2050.0
 30
0.0
 11
1990.0
 21
2000.0
 31
0.0
  0
MTEXT
  5
1310
330
1218
100
AcDbEntity
  8
SUNPO
 62
     7
100
AcDbMText
 10
1952.5
 20
2025.0
 30
0.0
 40
50.0
 41
0.0
 71
     5
 72
     1
  1
\A2;65
  7
ADD
 11
0.0000000000000001
 21
1.0
 31
0.0
1001
ACAD
1000
MTEXTBEGIN
1070
    73
1070
     1
1070
    44
1040
1.0
1070
    74
1070
     0
1000
MTEXTEND
1000
MTEXTBEGIN
1070
    73
1070
     1
1070
    44
1040
1.0
1070
    74
1070
     0
1000
MTEXTEND
  0
LINE
  5
1311
330
1218
100
AcDbEntity
  8
SUNPO
 62
   144
100
AcDbLine
 10
1990.0
 20
2165.0
 30
0.0
 11
1990.0
 21
2100.0
 31
0.0
  0
SOLID
  5
1312
330
1218
100
AcDbEntity
  8
SUNPO
 62
   144
100
AcDbTrace
 10
1981.666666666665
 20
2215.0
 30
0.0
 11
1998.333333333333
 21
2215.0
 31
0.0
 12
1990.0
 22
2165.0
 32
0.0
 13
1990.0
 23
2165.0
 33
0.0
  0
SOLID
  5
1313
330
1218
100
AcDbEntity
  8
SUNPO
 62
   144
100
AcDbTrace
 10
1981.666666666665
 20
2050.0
 30
0.0
 11
1998.333333333333
 21
2050.0
 31
0.0
 12
1990.0
 22
2100.0
 32
0.0
 13
1990.0
 23
2100.0
 33
0.0
  0
POINT
  5
1314
330
1218
100
AcDbEntity
  8
DEFPOINTS
 62
     0
100
AcDbPoint
 10
2098.993355921698
 20
2165.0
 30
0.0
  0
POINT
  5
1315
330
1218
100
AcDbEntity
  8
DEFPOINTS
 62
     0
100
AcDbPoint
 10
1990.0
 20
2100.0
 30
0.0
  0
POINT
  5
1316
330
1218
100
AcDbEntity
  8
DEFPOINTS
 62
     0
100
AcDbPoint
 10
1990.0
 20
2100.0
 30
0.0
  0
ENDBLK
  5
1225
330
1218
100
AcDbEntity
  8
0
100
AcDbBlockEnd
  0
BLOCK
  5
123C
330
1232
100
AcDbEntity
  8
0
100
AcDbBlockBegin
  2
*D9
 70
     1
 10
0.0
 20
0.0
 30
0.0
  3
*D9
  1

  0
LINE
  5
1317
330
1232
100
AcDbEntity
  8
SUNPO
 62
   144
100
AcDbLine
 10
1809.999999999999
 20
2080.0
 30
0.0
 11
1809.999999999999
 21
1874.021202026435
 31
0.0
  0
LINE
  5
1318
330
1232
100
AcDbEntity
  8
SUNPO
 62
   144
100
AcDbLine
 10
2170.0
 20
2080.0
 30
0.0
 11
2170.0
 21
1874.021202026435
 31
0.0
  0
LINE
  5
1319
330
1232
100
AcDbEntity
  8
SUNPO
 62
   144
100
AcDbLine
 10
1859.999999999999
 20
1884.021202026435
 30
0.0
 11
2120.0
 21
1884.021202026435
 31
0.0
  0
SOLID
  5
131A
330
1232
100
AcDbEntity
  8
SUNPO
 62
   144
100
AcDbTrace
 10
1859.999999999999
 20
1892.354535359768
 30
0.0
 11
1859.999999999999
 21
1875.687868693102
 31
0.0
 12
1809.999999999999
 22
1884.021202026435
 32
0.0
 13
1809.999999999999
 23
1884.021202026435
 33
0.0
  0
SOLID
  5
131B
330
1232
100
AcDbEntity
  8
SUNPO
 62
   144
100
AcDbTrace
 10
2120.0
 20
1892.354535359768
 30
0.0
 11
2120.0
 21
1875.687868693102
 31
0.0
 12
2170.0
 22
1884.021202026435
 32
0.0
 13
2170.0
 23
1884.021202026435
 33
0.0
  0
MTEXT
  5
131C
330
1232
100
AcDbEntity
  8
SUNPO
 62
     7
100
AcDbMText
 10
1990.0
 20
1921.521202026434
 30
0.0
 40
50.0
 41
0.0
 71
     5
 72
     1
  1
\A2;360
  7
ADD
1001
ACAD
1000
MTEXTBEGIN
1070
    73
1070
     1
1070
    44
1040
1.0
1070
    74
1070
     0
1000
MTEXTEND
1000
MTEXTBEGIN
1070
    73
1070
     1
1070
    44
1040
1.0
1070
    74
1070
     0
1000
MTEXTEND
  0
POINT
  5
131D
330
1232
100
AcDbEntity
  8
DEFPOINTS
 62
     0
100
AcDbPoint
 10
1809.999999999999
 20
2100.0
 30
0.0
  0
POINT
  5
131E
330
1232
100
AcDbEntity
  8
DEFPOINTS
 62
     0
100
AcDbPoint
 10
2170.0
 20
2100.0
 30
0.0
  0
POINT
  5
131F
330
1232
100
AcDbEntity
  8
DEFPOINTS
 62
     0
100
AcDbPoint
 10
2170.0
 20
1884.021202026435
 30
0.0
  0
ENDBLK
  5
123D
330
1232
100
AcDbEntity
  8
0
100
AcDbBlockEnd
  0
BLOCK
  5
1246
330
123F
100
AcDbEntity
  8
0
100
AcDbBlockBegin
  2
*D10
 70
     1
 10
0.0
 20
0.0
 30
0.0
  3
*D10
  1

  0
LINE
  5
1320
330
123F
100
AcDbEntity
  8
SUNPO
 62
   144
100
AcDbLine
 10
1675.925489711535
 20
1988.572176231478
 30
0.0
 11
1813.876102975024
 21
2140.881915491687
 31
0.0
  0
MTEXT
  5
1321
330
123F
100
AcDbEntity
  8
SUNPO
 62
     7
100
AcDbMText
 10
1699.677873510934
 20
2070.658229749804
 30
0.0
 40
50.0
 41
0.0
 71
     5
 72
     1
  1
\A2;R50
  7
ADD
 11
0.6713054110327629
 21
0.7411808450831238
 31
0.0
1001
ACAD
1000
MTEXTBEGIN
1070
    73
1070
     1
1070
    44
1040
1.0
1070
    74
1070
     0
1000
MTEXTEND
1000
MTEXTBEGIN
1070
    73
1070
     1
1070
    44
1040
1.0
1070
    74
1070
     0
1000
MTEXTEND
  0
LINE
  5
1322
330
123F
100
AcDbEntity
  8
SUNPO
 62
   144
100
AcDbLine
 10
1881.0066440783
 20
2214.999999999999
 30
0.0
 11
1847.441373526661
 21
2177.940957745844
 31
0.0
  0
SOLID
  5
1323
330
123F
100
AcDbEntity
  8
SUNPO
 62
   144
100
AcDbTrace
 10
1807.699595932665
 20
2146.476127250293
 30
0.0
 11
1820.052610017384
 21
2135.287703733081
 31
0.0
 12
1847.441373526661
 22
2177.940957745844
 32
0.0
 13
1847.441373526661
 23
2177.940957745844
 33
0.0
  0
POINT
  5
1324
330
123F
100
AcDbEntity
  8
DEFPOINTS
 62
     0
100
AcDbPoint
 10
1847.441373526661
 20
2177.940957745844
 30
0.0
  0
POINT
  5
1325
330
123F
100
AcDbEntity
  8
DEFPOINTS
 62
     0
100
AcDbPoint
 10
1881.0066440783
 20
2214.999999999999
 30
0.0
  0
ENDBLK
  5
1247
330
123F
100
AcDbEntity
  8
0
100
AcDbBlockEnd
  0
BLOCK
  5
1257
330
124A
100
AcDbEntity
  8
0
100
AcDbBlockBegin
  2
*D11
 70
     1
 10
0.0
 20
0.0
 30
0.0
  3
*D11
  1

  0
LINE
  5
1326
330
124A
100
AcDbEntity
  8
SUNPO
 62
   144
100
AcDbLine
 10
2249.720119762437
 20
2100.0
 30
0.0
 11
2347.412055492506
 21
2099.999999999999
 31
0.0
  0
LINE
  5
1327
330
124A
100
AcDbEntity
  8
SUNPO
 62
   144
100
AcDbLine
 10
2223.280066658213
 20
2153.280066658213
 30
0.0
 11
2295.449267502994
 21
2225.449267502995
 31
0.0
  0
LINE
  5
1328
330
124A
100
AcDbEntity
  8
SUNPO
 62
   144
100
AcDbLine
 10
2324.66857156517
 20
2164.065820015167
 30
0.0
 11
2417.056524816299
 21
2202.334163251675
 31
0.0
  0
ARC
  5
1329
330
124A
100
AcDbEntity
  8
SUNPO
 62
   144
100
AcDbCircle
 10
2169.999999999999
 20
2100.0
 30
0.0
 40
167.4120554925065
100
AcDbArc
 50
17.17644982503704
 51
27.82355017496264
  0
SOLID
  5
132A
330
124A
100
AcDbEntity
  8
SUNPO
 62
   144
100
AcDbTrace
 10
2338.185341075873
 20
2150.683789063673
 30
0.0
 11
2321.705556212878
 21
2148.194920114297
 31
0.0
 12
2337.412055492506
 22
2099.999999999999
 32
0.0
 13
2337.412055492506
 23
2099.999999999999
 33
0.0
  0
SOLID
  5
132B
330
124A
100
AcDbEntity
  8
SUNPO
 62
   144
100
AcDbTrace
 10
2311.350982373366
 20
2173.193072710239
 30
0.0
 11
2324.763846114075
 21
2183.08614422777
 31
0.0
 12
2288.37819969113
 22
2218.378199691129
 32
0.0
 13
2288.37819969113
 23
2218.378199691129
 33
0.0
  0
MTEXT
  5
132C
330
124A
100
AcDbEntity
  8
SUNPO
 62
     7
100
AcDbMText
 10
2451.702007285472
 20
2216.684791965366
 30
0.0
 40
50.0
 41
0.0
 71
     5
 72
     1
  1
\A2;45°
  7
ADD
 11
0.3826834323650874
 21
-0.9238795325112878
 31
0.0
1001
ACAD
1000
MTEXTBEGIN
1070
    73
1070
     1
1070
    44
1040
1.0
1070
    74
1070
     0
1000
MTEXTEND
1000
MTEXTBEGIN
1070
    73
1070
     1
1070
    44
1040
1.0
1070
    74
1070
     0
1000
MTEXTEND
  0
POINT
  5
132D
330
124A
100
AcDbEntity
  8
DEFPOINTS
 62
     0
100
AcDbPoint
 10
2331.70762803235
 20
2143.329428341219
 30
0.0
  0
POINT
  5
132E
330
124A
100
AcDbEntity
  8
DEFPOINTS
 62
     0
100
AcDbPoint
 10
2169.999999999999
 20
2100.0
 30
0.0
  0
POINT
  5
132F
330
124A
100
AcDbEntity
  8
DEFPOINTS
 62
     0
100
AcDbPoint
 10
2169.999999999999
 20
2100.0
 30
0.0
  0
POINT
  5
1330
330
124A
100
AcDbEntity
  8
DEFPOINTS
 62
     0
100
AcDbPoint
 10
2209.137931034482
 20
2139.137931034482
 30
0.0
  0
POINT
  5
1331
330
124A
100
AcDbEntity
  8
DEFPOINTS
 62
     0
100
AcDbPoint
 10
2229.720119762437
 20
2100.0
 30
0.0
  0
ENDBLK
  5
1258
330
124A
100
AcDbEntity
  8
0
100
AcDbBlockEnd
  0
ENDSEC
  0
SECTION
  2
ENTITIES
  0
LINE
  5
60A
330
1F
100
AcDbEntity
  8
HOJO
100
AcDbLine
 10
360.0
 20
260.0
 30
0.0
 11
5580.0
 21
260.0
 31
0.0
  0
LINE
  5
60B
330
1F
100
AcDbEntity
  8
HOJO
100
AcDbLine
 10
360.0
 20
560.0
 30
0.0
 11
5580.0
 21
560.0
 31
0.0
  0
LINE
  5
60C
330
1F
100
AcDbEntity
  8
HOJO
100
AcDbLine
 10
360.0
 20
260.0
 30
0.0
 11
360.0
 21
560.0
 31
0.0
  0
LINE
  5
60D
330
1F
100
AcDbEntity
  8
HOJO
100
AcDbLine
 10
2360.0
 20
260.0
 30
0.0
 11
2360.0
 21
560.0
 31
0.0
  0
LINE
  5
60F
330
1F
100
AcDbEntity
  8
HOJO
100
AcDbLine
 10
3160.0
 20
260.0
 30
0.0
 11
3160.0
 21
560.0
 31
0.0
  0
LINE
  5
610
330
1F
100
AcDbEntity
  8
HOJO
100
AcDbLine
 10
3660.0
 20
260.0
 30
0.0
 11
3660.0
 21
560.0
 31
0.0
  0
LINE
  5
117E
330
1F
100
AcDbEntity
  8
3C1
100
AcDbLine
 10
3720.0
 20
2100.0
 30
0.0
 11
4320.0
 21
2100.0
 31
0.0
  0
LINE
  5
117F
330
1F
100
AcDbEntity
  8
3C1
100
AcDbLine
 10
4320.0
 20
2100.0
 30
0.0
 11
4320.0
 21
2465.0
 31
0.0
  0
LINE
  5
1180
330
1F
100
AcDbEntity
  8
3C1
100
AcDbLine
 10
4320.0
 20
2465.0
 30
0.0
 11
3720.0
 21
2465.0
 31
0.0
  0
LINE
  5
1181
330
1F
100
AcDbEntity
  8
3C1
100
AcDbLine
 10
3720.0
 20
2465.0
 30
0.0
 11
3720.0
 21
2100.0
 31
0.0
  0
LINE
  5
1182
330
1F
100
AcDbEntity
  8
3C1
100
AcDbLine
 10
3720.0
 20
2100.0
 30
0.0
 11
4320.0
 21
2100.0
 31
0.0
  0
LINE
  5
1183
330
1F
100
AcDbEntity
  8
3C1
100
AcDbLine
 10
3720.0
 20
2165.0
 30
0.0
 11
4320.0
 21
2165.0
 31
0.0
  0
LINE
  5
119A
330
1F
100
AcDbEntity
  8
3C1
100
AcDbLine
 10
2170.0
 20
2100.0
 30
0.0
 11
1809.999999999999
 21
2100.0
 31
0.0
  0
LINE
  5
119D
330
1F
100
AcDbEntity
  8
3C1
100
AcDbLine
 10
1760.0
 20
2465.0
 30
0.0
 11
1810.0
 21
2465.0
 31
0.0
  0
LINE
  5
119E
330
1F
100
AcDbEntity
  8
3C1
100
AcDbLine
 10
2098.993355921698
 20
2165.0
 30
0.0
 11
1881.006644078301
 21
2165.0
 31
0.0
  0
LINE
  5
119F
330
1F
100
AcDbEntity
  8
DEFPOINTS
100
AcDbLine
 10
1990.0
 20
2465.0
 30
0.0
 11
1990.0
 21
2100.0
 31
0.0
  0
LINE
  5
11A6
330
1F
100
AcDbEntity
  8
3C1
100
AcDbLine
 10
1810.0
 20
2465.0
 30
0.0
 11
1831.179356166057
 21
2210.847726007312
 31
0.0
  0
LINE
  5
11A7
330
1F
100
AcDbEntity
  8
3C1
100
AcDbLine
 10
1760.0
 20
2465.0
 30
0.0
 11
1770.862068965517
 21
2139.137931034482
 31
0.0
  0
LINE
  5
11A8
330
1F
100
AcDbEntity
  8
3C1
100
AcDbLine
 10
2170.0
 20
2465.0
 30
0.0
 11
2148.820643833942
 21
2210.847726007312
 31
0.0
  0
LINE
  5
11A9
330
1F
100
AcDbEntity
  8
3C1
100
AcDbLine
 10
2220.0
 20
2465.0
 30
0.0
 11
2209.137931034482
 21
2139.137931034482
 31
0.0
  0
LINE
  5
11AA
330
1F
100
AcDbEntity
  8
3C1
100
AcDbLine
 10
2170.0
 20
2100.0
 30
0.0
 11
2209.137931034482
 21
2139.137931034482
 31
0.0
  0
LINE
  5
11AB
330
1F
100
AcDbEntity
  8
3C1
100
AcDbLine
 10
1809.999999999999
 20
2100.0
 30
0.0
 11
1770.862068965517
 21
2139.137931034482
 31
0.0
  0
LINE
  5
11AC
330
1F
100
AcDbEntity
  8
3C1
100
AcDbLine
 10
2170.0
 20
2465.0
 30
0.0
 11
2220.0
 21
2465.0
 31
0.0
  0
ARC
  5
11AD
330
1F
100
AcDbEntity
  8
3C1
100
AcDbCircle
 10
1881.006644078301
 20
2215.0
 30
0.0
 40
50.0
100
AcDbArc
 50
184.7636416907261
 51
270.0
  0
ARC
  5
11AE
330
1F
100
AcDbEntity
  8
3C1
100
AcDbCircle
 10
2098.993355921698
 20
2215.0
 30
0.0
 40
50.0
100
AcDbArc
 50
270.0
 51
355.2363583092739
  0
LINE
  5
1339
330
1F
100
AcDbEntity
  8
SUNPO
 62
   144
100
AcDbLine
 10
2249.720119762437
 20
2100.0
 30
0.0
 11
2347.412055492506
 21
2099.999999999999
 31
0.0
  0
LINE
  5
133A
330
1F
100
AcDbEntity
  8
SUNPO
 62
   144
100
AcDbLine
 10
2223.280066658213
 20
2153.280066658213
 30
0.0
 11
2295.449267502994
 21
2225.449267502995
 31
0.0
  0
LINE
  5
133B
330
1F
100
AcDbEntity
  8
SUNPO
 62
   144
100
AcDbLine
 10
2324.66857156517
 20
2164.065820015167
 30
0.0
 11
2417.056524816299
 21
2202.334163251675
 31
0.0
  0
ARC
  5
133C
330
1F
100
AcDbEntity
  8
SUNPO
 62
   144
100
AcDbCircle
 10
2169.999999999999
 20
2100.0
 30
0.0
 40
167.4120554925065
100
AcDbArc
 50
17.17644982503704
 51
27.82355017496264
  0
SOLID
  5
133D
330
1F
100
AcDbEntity
  8
SUNPO
 62
   144
100
AcDbTrace
 10
2338.185341075873
 20
2150.683789063673
 30
0.0
 11
2321.705556212878
 21
2148.194920114297
 31
0.0
 12
2337.412055492506
 22
2099.999999999999
 32
0.0
 13
2337.412055492506
 23
2099.999999999999
 33
0.0
  0
SOLID
  5
133E
330
1F
100
AcDbEntity
  8
SUNPO
 62
   144
100
AcDbTrace
 10
2311.350982373366
 20
2173.193072710239
 30
0.0
 11
2324.763846114075
 21
2183.08614422777
 31
0.0
 12
2288.37819969113
 22
2218.378199691129
 32
0.0
 13
2288.37819969113
 23
2218.378199691129
 33
0.0
  0
LINE
  5
1340
330
1F
100
AcDbEntity
  8
SUNPO
 62
   144
100
AcDbLine
 10
1675.925489711535
 20
1988.572176231478
 30
0.0
 11
1813.876102975024
 21
2140.881915491687
 31
0.0
  0
LINE
  5
1342
330
1F
100
AcDbEntity
  8
SUNPO
 62
   144
100
AcDbLine
 10
1881.0066440783
 20
2214.999999999999
 30
0.0
 11
1847.441373526661
 21
2177.940957745844
 31
0.0
  0
SOLID
  5
1343
330
1F
100
AcDbEntity
  8
SUNPO
 62
   144
100
AcDbTrace
 10
1807.699595932665
 20
2146.476127250293
 30
0.0
 11
1820.052610017384
 21
2135.287703733081
 31
0.0
 12
1847.441373526661
 22
2177.940957745844
 32
0.0
 13
1847.441373526661
 23
2177.940957745844
 33
0.0
  0
LINE
  5
1344
330
1F
100
AcDbEntity
  8
SUNPO
 62
   144
100
AcDbLine
 10
1809.999999999999
 20
2080.0
 30
0.0
 11
1809.999999999999
 21
1874.021202026435
 31
0.0
  0
LINE
  5
1345
330
1F
100
AcDbEntity
  8
SUNPO
 62
   144
100
AcDbLine
 10
2170.0
 20
2080.0
 30
0.0
 11
2170.0
 21
1874.021202026435
 31
0.0
  0
LINE
  5
1346
330
1F
100
AcDbEntity
  8
SUNPO
 62
   144
100
AcDbLine
 10
1859.999999999999
 20
1884.021202026435
 30
0.0
 11
2120.0
 21
1884.021202026435
 31
0.0
  0
SOLID
  5
1347
330
1F
100
AcDbEntity
  8
SUNPO
 62
   144
100
AcDbTrace
 10
1859.999999999999
 20
1892.354535359768
 30
0.0
 11
1859.999999999999
 21
1875.687868693102
 31
0.0
 12
1809.999999999999
 22
1884.021202026435
 32
0.0
 13
1809.999999999999
 23
1884.021202026435
 33
0.0
  0
SOLID
  5
1348
330
1F
100
AcDbEntity
  8
SUNPO
 62
   144
100
AcDbTrace
 10
2120.0
 20
1892.354535359768
 30
0.0
 11
2120.0
 21
1875.687868693102
 31
0.0
 12
2170.0
 22
1884.021202026435
 32
0.0
 13
2170.0
 23
1884.021202026435
 33
0.0
  0
LINE
  5
134A
330
1F
100
AcDbEntity
  8
SUNPO
 62
   144
100
AcDbLine
 10
2078.993355921697
 20
2165.0
 30
0.0
 11
1980.0
 21
2165.0
 31
0.0
  0
LINE
  5
134B
330
1F
100
AcDbEntity
  8
SUNPO
 62
   144
100
AcDbLine
 10
1970.0
 20
2100.0
 30
0.0
 11
1980.0
 21
2100.0
 31
0.0
  0
LINE
  5
134C
330
1F
100
AcDbEntity
  8
SUNPO
 62
   144
100
AcDbLine
 10
1990.0
 20
2215.0
 30
0.0
 11
1990.0
 21
2265.0
 31
0.0
  0
LINE
  5
134D
330
1F
100
AcDbEntity
  8
SUNPO
 62
   144
100
AcDbLine
 10
1990.0
 20
2050.0
 30
0.0
 11
1990.0
 21
2000.0
 31
0.0
  0
LINE
  5
134F
330
1F
100
AcDbEntity
  8
SUNPO
 62
   144
100
AcDbLine
 10
1990.0
 20
2165.0
 30
0.0
 11
1990.0
 21
2100.0
 31
0.0
  0
SOLID
  5
1350
330
1F
100
AcDbEntity
  8
SUNPO
 62
   144
100
AcDbTrace
 10
1981.666666666665
 20
2215.0
 30
0.0
 11
1998.333333333333
 21
2215.0
 31
0.0
 12
1990.0
 22
2165.0
 32
0.0
 13
1990.0
 23
2165.0
 33
0.0
  0
SOLID
  5
1351
330
1F
100
AcDbEntity
  8
SUNPO
 62
   144
100
AcDbTrace
 10
1981.666666666665
 20
2050.0
 30
0.0
 11
1998.333333333333
 21
2050.0
 31
0.0
 12
1990.0
 22
2100.0
 32
0.0
 13
1990.0
 23
2100.0
 33
0.0
  0
LINE
  5
1352
330
1F
100
AcDbEntity
  8
SUNPO
 62
   144
100
AcDbLine
 10
2150.0
 20
2465.0
 30
0.0
 11
1980.0
 21
2465.0
 31
0.0
  0
LINE
  5
1353
330
1F
100
AcDbEntity
  8
SUNPO
 62
   144
100
AcDbLine
 10
2078.993355921697
 20
2165.0
 30
0.0
 11
1980.0
 21
2165.0
 31
0.0
  0
LINE
  5
1354
330
1F
100
AcDbEntity
  8
SUNPO
 62
   144
100
AcDbLine
 10
1990.0
 20
2415.0
 30
0.0
 11
1990.0
 21
2215.0
 31
0.0
  0
SOLID
  5
1355
330
1F
100
AcDbEntity
  8
SUNPO
 62
   144
100
AcDbTrace
 10
1981.666666666665
 20
2415.0
 30
0.0
 11
1998.333333333333
 21
2415.0
 31
0.0
 12
1990.0
 22
2465.0
 32
0.0
 13
1990.0
 23
2465.0
 33
0.0
  0
SOLID
  5
1356
330
1F
100
AcDbEntity
  8
SUNPO
 62
   144
100
AcDbTrace
 10
1981.666666666665
 20
2215.0
 30
0.0
 11
1998.333333333333
 21
2215.0
 31
0.0
 12
1990.0
 22
2165.0
 32
0.0
 13
1990.0
 23
2165.0
 33
0.0
  0
LINE
  5
1358
330
1F
100
AcDbEntity
  8
SUNPO
 62
   144
100
AcDbLine
 10
2170.0
 20
2485.0
 30
0.0
 11
2170.0
 21
2618.115247096993
 31
0.0
  0
LINE
  5
1359
330
1F
100
AcDbEntity
  8
SUNPO
 62
   144
100
AcDbLine
 10
2220.0
 20
2485.0
 30
0.0
 11
2220.0
 21
2618.115247096993
 31
0.0
  0
LINE
  5
135A
330
1F
100
AcDbEntity
  8
SUNPO
 62
   144
100
AcDbLine
 10
2120.0
 20
2608.115247096993
 30
0.0
 11
2070.0
 21
2608.115247096993
 31
0.0
  0
LINE
  5
135B
330
1F
100
AcDbEntity
  8
SUNPO
 62
   144
100
AcDbLine
 10
2270.0
 20
2608.115247096993
 30
0.0
 11
2320.0
 21
2608.115247096993
 31
0.0
  0
LINE
  5
135D
330
1F
100
AcDbEntity
  8
SUNPO
 62
   144
100
AcDbLine
 10
2170.0
 20
2608.115247096993
 30
0.0
 11
2220.0
 21
2608.115247096993
 31
0.0
  0
SOLID
  5
135E
330
1F
100
AcDbEntity
  8
SUNPO
 62
   144
100
AcDbTrace
 10
2120.0
 20
2616.448580430327
 30
0.0
 11
2120.0
 21
2599.78191376366
 31
0.0
 12
2170.0
 22
2608.115247096993
 32
0.0
 13
2170.0
 23
2608.115247096993
 33
0.0
  0
SOLID
  5
135F
330
1F
100
AcDbEntity
  8
SUNPO
 62
   144
100
AcDbTrace
 10
2270.0
 20
2616.448580430327
 30
0.0
 11
2270.0
 21
2599.78191376366
 31
0.0
 12
2220.0
 22
2608.115247096993
 32
0.0
 13
2220.0
 23
2608.115247096993
 33
0.0
  0
LINE
  5
1360
330
1F
100
AcDbEntity
  8
SUNPO
 62
   144
100
AcDbLine
 10
1810.0
 20
2485.000000000002
 30
0.0
 11
1810.0
 21
2618.115247096993
 31
0.0
  0
LINE
  5
1361
330
1F
100
AcDbEntity
  8
SUNPO
 62
   144
100
AcDbLine
 10
2170.0
 20
2485.0
 30
0.0
 11
2170.0
 21
2618.115247096993
 31
0.0
  0
LINE
  5
1362
330
1F
100
AcDbEntity
  8
SUNPO
 62
   144
100
AcDbLine
 10
1860.0
 20
2608.115247096993
 30
0.0
 11
2120.0
 21
2608.115247096993
 31
0.0
  0
SOLID
  5
1363
330
1F
100
AcDbEntity
  8
SUNPO
 62
   144
100
AcDbTrace
 10
1860.0
 20
2616.448580430327
 30
0.0
 11
1860.0
 21
2599.78191376366
 31
0.0
 12
1810.0
 22
2608.115247096993
 32
0.0
 13
1810.0
 23
2608.115247096993
 33
0.0
  0
SOLID
  5
1364
330
1F
100
AcDbEntity
  8
SUNPO
 62
   144
100
AcDbTrace
 10
2120.0
 20
2616.448580430327
 30
0.0
 11
2120.0
 21
2599.78191376366
 31
0.0
 12
2170.0
 22
2608.115247096993
 32
0.0
 13
2170.0
 23
2608.115247096993
 33
0.0
  0
LINE
  5
1366
330
1F
100
AcDbEntity
  8
SUNPO
 62
   144
100
AcDbLine
 10
2145.0
 20
2215.419685889839
 30
0.0
 11
2145.0
 21
2514.252485755718
 31
0.0
  0
LINE
  5
1367
330
1F
100
AcDbEntity
  8
SUNPO
 62
   144
100
AcDbLine
 10
2210.0
 20
2485.0
 30
0.0
 11
2210.0
 21
2514.252485755718
 31
0.0
  0
LINE
  5
1368
330
1F
100
AcDbEntity
  8
SUNPO
 62
   144
100
AcDbLine
 10
2095.0
 20
2504.252485755718
 30
0.0
 11
2045.0
 21
2504.252485755718
 31
0.0
  0
LINE
  5
1369
330
1F
100
AcDbEntity
  8
SUNPO
 62
   144
100
AcDbLine
 10
2260.0
 20
2504.252485755718
 30
0.0
 11
2310.0
 21
2504.252485755718
 31
0.0
  0
LINE
  5
136B
330
1F
100
AcDbEntity
  8
SUNPO
 62
   144
100
AcDbLine
 10
2145.0
 20
2504.252485755718
 30
0.0
 11
2210.0
 21
2504.252485755718
 31
0.0
  0
SOLID
  5
136C
330
1F
100
AcDbEntity
  8
SUNPO
 62
   144
100
AcDbTrace
 10
2095.0
 20
2512.585819089052
 30
0.0
 11
2095.0
 21
2495.919152422384
 31
0.0
 12
2145.0
 22
2504.252485755718
 32
0.0
 13
2145.0
 23
2504.252485755718
 33
0.0
  0
SOLID
  5
136D
330
1F
100
AcDbEntity
  8
SUNPO
 62
   144
100
AcDbTrace
 10
2260.0
 20
2512.585819089052
 30
0.0
 11
2260.0
 21
2495.919152422384
 31
0.0
 12
2210.0
 22
2504.252485755718
 32
0.0
 13
2210.0
 23
2504.252485755718
 33
0.0
  0
LINE
  5
136E
330
1F
100
AcDbEntity
  8
SUNPO
 62
   144
100
AcDbLine
 10
1835.0
 20
2215.419685889839
 30
0.0
 11
1835.0
 21
2514.252485755718
 31
0.0
  0
LINE
  5
136F
330
1F
100
AcDbEntity
  8
SUNPO
 62
   144
100
AcDbLine
 10
2145.0
 20
2215.419685889839
 30
0.0
 11
2145.0
 21
2514.252485755718
 31
0.0
  0
LINE
  5
1370
330
1F
100
AcDbEntity
  8
SUNPO
 62
   144
100
AcDbLine
 10
1885.0
 20
2504.252485755718
 30
0.0
 11
2095.0
 21
2504.252485755718
 31
0.0
  0
SOLID
  5
1371
330
1F
100
AcDbEntity
  8
SUNPO
 62
   144
100
AcDbTrace
 10
1885.0
 20
2512.585819089052
 30
0.0
 11
1885.0
 21
2495.919152422384
 31
0.0
 12
1835.0
 22
2504.252485755718
 32
0.0
 13
1835.0
 23
2504.252485755718
 33
0.0
  0
SOLID
  5
1372
330
1F
100
AcDbEntity
  8
SUNPO
 62
   144
100
AcDbTrace
 10
2095.0
 20
2512.585819089052
 30
0.0
 11
2095.0
 21
2495.919152422384
 31
0.0
 12
2145.0
 22
2504.252485755718
 32
0.0
 13
2145.0
 23
2504.252485755718
 33
0.0
  0
LINE
  5
1374
330
1F
100
AcDbEntity
  8
SUNPO
 62
   144
100
AcDbLine
 10
3720.0
 20
2080.0
 30
0.0
 11
3720.0
 21
1936.120716983216
 31
0.0
  0
LINE
  5
1375
330
1F
100
AcDbEntity
  8
SUNPO
 62
   144
100
AcDbLine
 10
4320.0
 20
2080.0
 30
0.0
 11
4320.0
 21
1936.120716983216
 31
0.0
  0
LINE
  5
1376
330
1F
100
AcDbEntity
  8
SUNPO
 62
   144
100
AcDbLine
 10
3770.0
 20
1946.120716983218
 30
0.0
 11
4270.0
 21
1946.120716983218
 31
0.0
  0
SOLID
  5
1377
330
1F
100
AcDbEntity
  8
SUNPO
 62
   144
100
AcDbTrace
 10
3770.0
 20
1954.45405031655
 30
0.0
 11
3770.0
 21
1937.787383649884
 31
0.0
 12
3720.0
 22
1946.120716983218
 32
0.0
 13
3720.0
 23
1946.120716983218
 33
0.0
  0
SOLID
  5
1378
330
1F
100
AcDbEntity
  8
SUNPO
 62
   144
100
AcDbTrace
 10
4270.0
 20
1954.45405031655
 30
0.0
 11
4270.0
 21
1937.787383649884
 31
0.0
 12
4320.0
 22
1946.120716983218
 32
0.0
 13
4320.0
 23
1946.120716983218
 33
0.0
  0
TEXT
  5
137A
330
1F
100
AcDbEntity
  8
SUNPO
100
AcDbText
 10
2474.612738260886
 20
334.2082387347982
 30
0.0
 40
100.0
  1
Ｕ_360A
  7
ADD
100
AcDbText
1001
ACAD
1000
MTEXTBEGIN
1070
    73
1070
     1
1070
    44
1040
1.0
1070
    74
1070
     0
1000
MTEXTEND
1000
MTEXTBEGIN
1070
    73
1070
     1
1070
    44
1040
1.0
1070
    74
1070
     0
1000
MTEXTEND
1000
MTEXTBEGIN
1070
    73
1070
     1
1070
    44
1040
1.0
1070
    74
1070
     0
1000
MTEXTEND
  0
TEXT
  5
137B
330
1F
100
AcDbEntity
  8
SUNPO
100
AcDbText
 10
615.8709773606532
 20
347.6182270735043
 30
0.0
 40
100.0
  1
道路用上ぶた式Ｕ形側溝
  7
ADD
100
AcDbText
1001
ACAD
1000
MTEXTBEGIN
1070
    73
1070
     1
1070
    44
1040
1.0
1070
    74
1070
     0
1000
MTEXTEND
1000
MTEXTBEGIN
1070
    73
1070
     1
1070
    44
1040
1.0
1070
    74
1070
     0
1000
MTEXTEND
1000
MTEXTBEGIN
1070
    73
1070
     1
1070
    44
1040
1.0
1070
    74
1070
     0
1000
MTEXTEND
1000
MTEXTBEGIN
1070
    73
1070
     1
1070
    44
1040
1.0
1070
    74
1070
     0
1000
MTEXTEND
  0
TEXT
  5
137C
330
1F
100
AcDbEntity
  8
SUNPO
100
AcDbText
 10
3246.680311730542
 20
359.2274732162223
 30
0.0
 40
70.0
  1
１／２０
  7
ADD
100
AcDbText
1001
ACAD
1000
MTEXTBEGIN
1070
    73
1070
     1
1070
    44
1040
1.0
1070
    74
1070
     0
1000
MTEXTEND
1000
MTEXTBEGIN
1070
    73
1070
     1
1070
    44
1040
1.0
1070
    74
1070
     0
1000
MTEXTEND
1000
MTEXTBEGIN
1070
    73
1070
     1
1070
    44
1040
1.0
1070
    74
1070
     0
1000
MTEXTEND
1000
MTEXTBEGIN
1070
    73
1070
     1
1070
    44
1040
1.0
1070
    74
1070
     0
1000
MTEXTEND
1000
MTEXTBEGIN
1070
    73
1070
     1
1070
    44
1040
1.0
1070
    74
1070
     0
1000
MTEXTEND
1000
MTEXTBEGIN
1070
    73
1070
     1
1070
    44
1040
1.0
1070
    74
1070
     0
1000
MTEXTEND
1000
MTEXTBEGIN
1070
    73
1070
     1
1070
    44
1040
1.0
1070
    74
1070
     0
1000
MTEXTEND
1000
MTEXTBEGIN
1070
    73
1070
     1
1070
    44
1040
1.0
1070
    74
1070
     0
1000
MTEXTEND
1000
MTEXTBEGIN
1070
    73
1070
     1
1070
    44
1040
1.0
1070
    74
1070
     0
1000
MTEXTEND
  0
TEXT
  5
137D
330
1F
100
AcDbEntity
  8
SUNPO
100
AcDbText
 10
381.8862574011546
 20
488.6918916770627
 30
0.0
 40
50.0
  1
製品名
  7
ADD
100
AcDbText
1001
ACAD
1000
MTEXTBEGIN
1070
    73
1070
     1
1070
    44
1040
1.0
1070
    74
1070
     0
1000
MTEXTEND
1000
MTEXTBEGIN
1070
    73
1070
     1
1070
    44
1040
1.0
1070
    74
1070
     0
1000
MTEXTEND
1000
MTEXTBEGIN
1070
    73
1070
     1
1070
    44
1040
1.0
1070
    74
1070
     0
1000
MTEXTEND
1000
MTEXTBEGIN
1070
    73
1070
     1
1070
    44
1040
1.0
1070
    74
1070
     0
1000
MTEXTEND
1000
MTEXTBEGIN
1070
    73
1070
     1
1070
    44
1040
1.0
1070
    74
1070
     0
1000
MTEXTEND
1000
MTEXTBEGIN
1070
    73
1070
     1
1070
    44
1040
1.0
1070
    74
1070
     0
1000
MTEXTEND
1000
MTEXTBEGIN
1070
    73
1070
     1
1070
    44
1040
1.0
1070
    74
1070
     0
1000
MTEXTEND
1000
MTEXTBEGIN
1070
    73
1070
     1
1070
    44
1040
1.0
1070
    74
1070
     0
1000
MTEXTEND
1000
MTEXTBEGIN
1070
    73
1070
     1
1070
    44
1040
1.0
1070
    74
1070
     0
1000
MTEXTEND
  0
TEXT
  5
137E
330
1F
100
AcDbEntity
  8
SUNPO
100
AcDbText
 10
2376.290169028722
 20
494.4531736811823
 30
0.0
 40
50.0
  1
型式
  7
ADD
100
AcDbText
1001
ACAD
1000
MTEXTBEGIN
1070
    73
1070
     1
1070
    44
1040
1.0
1070
    74
1070
     0
1000
MTEXTEND
1000
MTEXTBEGIN
1070
    73
1070
     1
1070
    44
1040
1.0
1070
    74
1070
     0
1000
MTEXTEND
1000
MTEXTBEGIN
1070
    73
1070
     1
1070
    44
1040
1.0
1070
    74
1070
     0
1000
MTEXTEND
1000
MTEXTBEGIN
1070
    73
1070
     1
1070
    44
1040
1.0
1070
    74
1070
     0
1000
MTEXTEND
1000
MTEXTBEGIN
1070
    73
1070
     1
1070
    44
1040
1.0
1070
    74
1070
     0
1000
MTEXTEND
1000
MTEXTBEGIN
1070
    73
1070
     1
1070
    44
1040
1.0
1070
    74
1070
     0
1000
MTEXTEND
1000
MTEXTBEGIN
1070
    73
1070
     1
1070
    44
1040
1.0
1070
    74
1070
     0
1000
MTEXTEND
1000
MTEXTBEGIN
1070
    73
1070
     1
1070
    44
1040
1.0
1070
    74
1070
     0
1000
MTEXTEND
1000
MTEXTBEGIN
1070
    73
1070
     1
1070
    44
1040
1.0
1070
    74
1070
     0
1000
MTEXTEND
  0
TEXT
  5
137F
330
1F
100
AcDbEntity
  8
SUNPO
100
AcDbText
 10
3177.510249231657
 20
488.6918916770627
 30
0.0
 40
50.0
  1
縮尺
  7
ADD
100
AcDbText
1001
ACAD
1000
MTEXTBEGIN
1070
    73
1070
     1
1070
    44
1040
1.0
1070
    74
1070
     0
1000
MTEXTEND
1000
MTEXTBEGIN
1070
    73
1070
     1
1070
    44
1040
1.0
1070
    74
1070
     0
1000
MTEXTEND
1000
MTEXTBEGIN
1070
    73
1070
     1
1070
    44
1040
1.0
1070
    74
1070
     0
1000
MTEXTEND
1000
MTEXTBEGIN
1070
    73
1070
     1
1070
    44
1040
1.0
1070
    74
1070
     0
1000
MTEXTEND
1000
MTEXTBEGIN
1070
    73
1070
     1
1070
    44
1040
1.0
1070
    74
1070
     0
1000
MTEXTEND
1000
MTEXTBEGIN
1070
    73
1070
     1
1070
    44
1040
1.0
1070
    74
1070
     0
1000
MTEXTEND
1000
MTEXTBEGIN
1070
    73
1070
     1
1070
    44
1040
1.0
1070
    74
1070
     0
1000
MTEXTEND
1000
MTEXTBEGIN
1070
    73
1070
     1
1070
    44
1040
1.0
1070
    74
1070
     0
1000
MTEXTEND
1000
MTEXTBEGIN
1070
    73
1070
     1
1070
    44
1040
1.0
1070
    74
1070
     0
1000
MTEXTEND
  0
TEXT
  5
1380
330
1F
100
AcDbEntity
  8
SUNPO
100
AcDbText
 10
3730.870883051572
 20
352.2726133092144
 30
0.0
 40
100.0
  1
千葉県コンクリート製品協同組合
  7
ADD
100
AcDbText
1001
ACAD
1000
MTEXTBEGIN
1070
    73
1070
     1
1070
    44
1040
1.0
1070
    74
1070
     0
1000
MTEXTEND
1000
MTEXTBEGIN
1070
    73
1070
     1
1070
    44
1040
1.0
1070
    74
1070
     0
1000
MTEXTEND
1000
MTEXTBEGIN
1070
    73
1070
     1
1070
    44
1040
1.0
1070
    74
1070
     0
1000
MTEXTEND
1000
MTEXTBEGIN
1070
    73
1070
     1
1070
    44
1040
1.0
1070
    74
1070
     0
1000
MTEXTEND
1000
MTEXTBEGIN
1070
    73
1070
     1
1070
    44
1040
1.0
1070
    74
1070
     0
1000
MTEXTEND
1000
MTEXTBEGIN
1070
    73
1070
     1
1070
    44
1040
1.0
1070
    74
1070
     0
1000
MTEXTEND
1000
MTEXTBEGIN
1070
    73
1070
     1
1070
    44
1040
1.0
1070
    74
1070
     0
1000
MTEXTEND
1000
MTEXTBEGIN
1070
    73
1070
     1
1070
    44
1040
1.0
1070
    74
1070
     0
1000
MTEXTEND
1000
MTEXTBEGIN
1070
    73
1070
     1
1070
    44
1040
1.0
1070
    74
1070
     0
1000
MTEXTEND
  0
LINE
  5
1381
330
1F
100
AcDbEntity
  8
HOJO
100
AcDbLine
 10
360.0
 20
260.0
 30
0.0
 11
5580.0
 21
260.0
 31
0.0
  0
LINE
  5
1382
330
1F
100
AcDbEntity
  8
HOJO
100
AcDbLine
 10
5580.0
 20
260.0
 30
0.0
 11
5580.0
 21
3940.0
 31
0.0
  0
LINE
  5
1383
330
1F
100
AcDbEntity
  8
HOJO
100
AcDbLine
 10
5580.0
 20
3940.0
 30
0.0
 11
360.0
 21
3940.0
 31
0.0
  0
LINE
  5
1384
330
1F
100
AcDbEntity
  8
HOJO
100
AcDbLine
 10
360.0
 20
3940.0
 30
0.0
 11
360.0
 21
260.0
 31
0.0
  0
LINE
  5
1385
330
1F
100
AcDbEntity
  8
HOJO
100
AcDbLine
 10
0.0
 20
0.0
 30
0.0
 11
5940.0
 21
0.0
 31
0.0
  0
LINE
  5
1386
330
1F
100
AcDbEntity
  8
HOJO
100
AcDbLine
 10
5940.0
 20
0.0
 30
0.0
 11
5940.0
 21
4200.0
 31
0.0
  0
LINE
  5
1387
330
1F
100
AcDbEntity
  8
HOJO
100
AcDbLine
 10
5940.0
 20
4200.0
 30
0.0
 11
0.0
 21
4200.0
 31
0.0
  0
LINE
  5
1388
330
1F
100
AcDbEntity
  8
HOJO
100
AcDbLine
 10
0.0
 20
4200.0
 30
0.0
 11
0.0
 21
0.0
 31
0.0
  0
TEXT
  5
1389
330
1F
100
AcDbEntity
  8
SUNPO
 62
     7
100
AcDbText
 10
3947.380952380952
 20
1958.620716983216
 30
0.0
 40
50.0
  1
600
  7
ADD
100
AcDbText
  0
TEXT
  5
138A
330
1F
100
AcDbEntity
  8
SUNPO
 62
     7
100
AcDbText
 10
1918.571428571428
 20
2516.752485755718
 30
0.0
 40
50.0
  1
310
  7
ADD
100
AcDbText
  0
TEXT
  5
138B
330
1F
100
AcDbEntity
  8
SUNPO
 62
     7
100
AcDbText
 10
2236.190476190476
 20
2516.752485755718
 30
0.0
 40
50.0
  1
65
  7
ADD
100
AcDbText
  0
TEXT
  5
138C
330
1F
100
AcDbEntity
  8
SUNPO
 62
     7
100
AcDbText
 10
1918.571428571428
 20
2620.615247096993
 30
0.0
 40
50.0
  1
360
  7
ADD
100
AcDbText
  0
TEXT
  5
138D
330
1F
100
AcDbEntity
  8
SUNPO
 62
     7
100
AcDbText
 10
2247.380952380952
 20
2620.615247096993
 30
0.0
 40
50.0
  1
50
  7
ADD
100
AcDbText
  0
TEXT
  5
138E
330
1F
100
AcDbEntity
  8
SUNPO
 62
     7
100
AcDbText
 10
1977.5
 20
2243.571428571429
 30
0.0
 40
50.0
  1
300
 50
90.0
  7
ADD
100
AcDbText
  0
TEXT
  5
138F
330
1F
100
AcDbEntity
  8
SUNPO
 62
     7
100
AcDbText
 10
1977.5
 20
1976.190476190477
 30
0.0
 40
50.0
  1
65
 50
90.0
  7
ADD
100
AcDbText
  0
TEXT
  5
1390
330
1F
100
AcDbEntity
  8
SUNPO
 62
     7
100
AcDbText
 10
1918.571428571428
 20
1896.521202026434
 30
0.0
 40
50.0
  1
360
  7
ADD
100
AcDbText
  0
TEXT
  5
1391
330
1F
100
AcDbEntity
  8
SUNPO
 62
     7
100
AcDbText
 10
1668.658661918927
 20
1999.169389241659
 30
0.0
 40
50.0
  1
R50
 50
47.83210282974329
  7
ADD
100
AcDbText
  0
TEXT
  5
1392
330
1F
100
AcDbEntity
  8
SUNPO
 62
     7
100
AcDbText
 10
2397.534768868763
 20
2282.127925343464
 30
0.0
 40
50.0
  1
45°
 50
292.4999999999998
  7
ADD
100
AcDbText
  0
VIEWPORT
  5
72
330
1B
100
AcDbEntity
 67
     1
  8
0
100
AcDbViewport
 10
578.8914265011195
 20
308.2351889773414
 30
0.0
 40
1287.06613890523
 41
690.9223776620393
 68
     1
 69
     1
1001
ACAD
1000
MVIEW
1002
{
1070
    16
1010
0.0
1020
0.0
1030
0.0
1010
0.0
1020
0.0
1030
1.0
1040
0.0
1040
690.9223776620393
1040
578.8914265011195
1040
308.2351889773414
1040
50.0
1040
0.0
1040
0.0
1070
     0
1070
   100
1070
     1
1070
     1
1070
     0
1070
     0
1070
     0
1070
     0
1040
0.0
1040
0.0
1040
0.0
1040
10.0
1040
10.0
1040
10.0
1040
10.0
1070
     0
1002
{
1002
}
1002
}
  0
VIEWPORT
  5
74
330
1B
100
AcDbEntity
 67
     1
  8
VIEWPORT
100
AcDbViewport
 10
414.3779638919212
 20
277.3177265058034
 30
0.0
 40
840.0353682728887
 41
567.2285469943826
 68
     2
 69
     2
1001
ACAD
1000
MVIEW
1002
{
1070
    16
1010
0.0
1020
0.0
1030
0.0
1010
0.0
1020
0.0
1030
1.0
1040
0.0
1040
579.5583043546322
1040
424.4938908624541
1040
286.1973242720074
1040
50.0
1040
0.0
1040
0.0
1070
     0
1070
   100
1070
     1
1070
     1
1070
     0
1070
     0
1070
     0
1070
     0
1040
0.0
1040
0.0
1040
0.0
1040
10.0
1040
10.0
1040
10.0
1040
10.0
1070
     0
1002
{
1002
}
1002
}
  0
ENDSEC
  0
SECTION
  2
OBJECTS
  0
DICTIONARY
  5
C
330
0
100
AcDbDictionary
  3
ACAD_GROUP
350
D
  3
ACAD_LAYOUT
350
1A
  3
ACAD_MLINESTYLE
350
17
  3
ACAD_PLOTSETTINGS
350
19
  3
ACADDIM
350
F44
  3
DWGPROPS
350
4C7
1001
ACAD
1000
TREAT_AS_HARD
1070
     0
1000
TREAT_AS_HARD
1070
     0
  0
DICTIONARY
  5
65D
330
1F
100
AcDbDictionary
  3
ACAD_LAYOUTSELFREF
350
13B4
1001
ACAD
1000
TREAT_AS_HARD
1070
     1
1000
TREAT_AS_HARD
1070
     0
  0
DICTIONARY
  5
65F
330
1B
100
AcDbDictionary
  3
ACAD_LAYOUTSELFREF
350
13B3
1001
ACAD
1000
TREAT_AS_HARD
1070
     1
1000
TREAT_AS_HARD
1070
     0
  0
DICTIONARY
  5
D
102
{ACAD_REACTORS
330
C
102
}
330
C
100
AcDbDictionary
1001
ACAD
1000
TREAT_AS_HARD
1070
     0
1000
TREAT_AS_HARD
1070
     0
  0
DICTIONARY
  5
1A
102
{ACAD_REACTORS
330
C
102
}
330
C
100
AcDbDictionary
1001
ACAD
1000
TREAT_AS_HARD
1070
     0
1000
TREAT_AS_HARD
1070
     0
  0
DICTIONARY
  5
17
102
{ACAD_REACTORS
330
C
102
}
330
C
100
AcDbDictionary
  3
STANDARD
350
18
1001
ACAD
1000
TREAT_AS_HARD
1070
     0
1000
TREAT_AS_HARD
1070
     0
  0
DICTIONARY
  5
19
102
{ACAD_REACTORS
330
C
102
}
330
C
100
AcDbDictionary
1001
ACAD
1000
TREAT_AS_HARD
1070
     0
1000
TREAT_AS_HARD
1070
     0
  0
XRECORD
  5
F44
102
{ACAD_REACTORS
330
C
102
}
330
C
100
AcDbXrecord
 90
   990106
  3

 60
     0
 61
     0
 62
     1
 63
     3
 64
     0
 65
     0
 66
     0
 67
     3
 68
     1
 69
     0
 70
     0
 71
     0
 72
     0
 40
0.0
170
     0
  0
XRECORD
  5
4C7
102
{ACAD_REACTORS
330
C
102
}
330
C
100
AcDbXrecord
  1
DWGPROPS COOKIE
  2
印刷用テスト
  3
AutoCAD2000による建築設計
  4
鈴木 裕二
  6

  7

  8
U2
  9

300
=
301
=
302
=
303
=
304
=
305
=
306
=
307
=
308
=
309
=
 40
0.7653446875
 41
2451285.4846114
 42
2451333.689743032
  1

 90
        0
  0
XRECORD
  5
13B4
102
{ACAD_REACTORS
330
65D
102
}
330
65D
100
AcDbXrecord
340
1F
  0
XRECORD
  5
13B3
102
{ACAD_REACTORS
330
65F
102
}
330
65F
100
AcDbXrecord
340
1B
  0
MLINESTYLE
  5
18
102
{ACAD_REACTORS
330
17
102
}
330
17
100
AcDbMlineStyle
  2
STANDARD
 70
     0
  3

 62
   256
 51
90.0
 52
90.0
 71
     2
 49
0.5
 62
   256
  6
BYLAYER
 49
-0.5
 62
   256
  6
BYLAYER
  0
ENDSEC
  0
EOF
