  0
SECTION
  2
HEADER
  9
$ACADVER
  1
AC1012
  9
$DWGCODEPAGE
  3
dos932
  9
$INSBASE
 10
0.0
 20
0.0
 30
0.0
  9
$EXTMIN
 10
-0.1812605841350887
 20
-0.1281640493871237
 30
-0.0015258207003583
  9
$EXTMAX
 10
5940.181288244414
 20
4200.128183607161
 30
0.0000000349246037
  9
$LIMMIN
 10
0.0
 20
0.0
  9
$LIMMAX
 10
5940.0
 20
4200.0
  9
$ORTHOMODE
 70
     0
  9
$REGENMODE
 70
     1
  9
$FILLMODE
 70
     1
  9
$QTEXTMODE
 70
     0
  9
$MIRRTEXT
 70
     0
  9
$DRAGMODE
 70
     2
  9
$LTSCALE
 40
10.0
  9
$OSMODE
 70
  3071
  9
$ATTMODE
 70
     1
  9
$TEXTSIZE
 40
50.0
  9
$TRACEWID
 40
2.0
  9
$TEXTSTYLE
  7
ADD
  9
$CLAYER
  8
SUNPO
  9
$CELTYPE
  6
BYLAYER
  9
$CECOLOR
 62
   256
  9
$CELTSCALE
 40
1.0
  9
$DELOBJ
 70
     1
  9
$DISPSILH
 70
     0
  9
$DIMSCALE
 40
20.0
  9
$DIMASZ
 40
2.5
  9
$DIMEXO
 40
1.0
  9
$DIMDLI
 40
7.0
  9
$DIMRND
 40
0.0
  9
$DIMDLE
 40
0.0
  9
$DIMEXE
 40
0.5
  9
$DIMTP
 40
0.0
  9
$DIMTM
 40
0.0
  9
$DIMTXT
 40
2.5
  9
$DIMCEN
 40
2.5
  9
$DIMTSZ
 40
0.0
  9
$DIMTOL
 70
     0
  9
$DIMLIM
 70
     0
  9
$DIMTIH
 70
     0
  9
$DIMTOH
 70
     0
  9
$DIMSE1
 70
     0
  9
$DIMSE2
 70
     0
  9
$DIMTAD
 70
     1
  9
$DIMZIN
 70
     8
  9
$DIMBLK
  1

  9
$DIMASO
 70
     1
  9
$DIMSHO
 70
     1
  9
$DIMPOST
  1

  9
$DIMAPOST
  1

  9
$DIMALT
 70
     0
  9
$DIMALTD
 70
     3
  9
$DIMALTF
 40
0.03937007874016
  9
$DIMLFAC
 40
1.0
  9
$DIMTOFL
 70
     1
  9
$DIMTVP
 40
0.7
  9
$DIMTIX
 70
     0
  9
$DIMSOXD
 70
     0
  9
$DIMSAH
 70
     0
  9
$DIMBLK1
  1

  9
$DIMBLK2
  1

  9
$DIMSTYLE
  2
ADD
  9
$DIMCLRD
 70
   144
  9
$DIMCLRE
 70
   144
  9
$DIMCLRT
 70
     7
  9
$DIMTFAC
 40
1.0
  9
$DIMGAP
 40
0.625
  9
$DIMJUST
 70
     0
  9
$DIMSD1
 70
     0
  9
$DIMSD2
 70
     0
  9
$DIMTOLJ
 70
     2
  9
$DIMTZIN
 70
     8
  9
$DIMALTZ
 70
     0
  9
$DIMALTTZ
 70
     0
  9
$DIMFIT
 70
     3
  9
$DIMUPT
 70
     0
  9
$DIMUNIT
 70
     2
  9
$DIMDEC
 70
     0
  9
$DIMTDEC
 70
     0
  9
$DIMALTU
 70
     2
  9
$DIMALTTD
 70
     3
  9
$DIMTXSTY
  7
ADD
  9
$DIMAUNIT
 70
     0
  9
$LUNITS
 70
     2
  9
$LUPREC
 70
     4
  9
$SKETCHINC
 40
1.0
  9
$FILLETRAD
 40
70.0
  9
$AUNITS
 70
     0
  9
$AUPREC
 70
     1
  9
$MENU
  1
.
  9
$ELEVATION
 40
0.0
  9
$PELEVATION
 40
0.0
  9
$THICKNESS
 40
0.0
  9
$LIMCHECK
 70
     0
  9
$BLIPMODE
 70
     0
  9
$CHAMFERA
 40
0.0
  9
$CHAMFERB
 40
0.0
  9
$CHAMFERC
 40
50.0
  9
$CHAMFERD
 40
0.7853981633974483
  9
$SKPOLY
 70
     0
  9
$TDCREATE
 40
2451801.142532870
  9
$TDUPDATE
 40
2452207.588950011
  9
$TDINDWG
 40
0.4323735301
  9
$TDUSRTIMER
 40
0.4323732986
  9
$USRTIMER
 70
     1
  9
$ANGBASE
 50
0.0
  9
$ANGDIR
 70
     0
  9
$PDMODE
 70
    34
  9
$PDSIZE
 40
0.0
  9
$PLINEWID
 40
0.0
  9
$COORDS
 70
     1
  9
$SPLFRAME
 70
     0
  9
$SPLINETYPE
 70
     6
  9
$SPLINESEGS
 70
     8
  9
$ATTDIA
 70
     0
  9
$ATTREQ
 70
     1
  9
$HANDLING
 70
-16383
  9
$HANDSEED
  5
178F
  9
$SURFTAB1
 70
     6
  9
$SURFTAB2
 70
     6
  9
$SURFTYPE
 70
     6
  9
$SURFU
 70
     6
  9
$SURFV
 70
     6
  9
$UCSNAME
  2

  9
$UCSORG
 10
0.0
 20
0.0
 30
0.0
  9
$UCSXDIR
 10
1.0
 20
0.0
 30
0.0
  9
$UCSYDIR
 10
0.0
 20
1.0
 30
0.0
  9
$PUCSNAME
  2

  9
$PUCSORG
 10
0.0
 20
0.0
 30
0.0
  9
$PUCSXDIR
 10
1.0
 20
0.0
 30
0.0
  9
$PUCSYDIR
 10
0.0
 20
1.0
 30
0.0
  9
$USERI1
 70
     0
  9
$USERI2
 70
     0
  9
$USERI3
 70
     0
  9
$USERI4
 70
     0
  9
$USERI5
 70
     0
  9
$USERR1
 40
841.0
  9
$USERR2
 40
594.0
  9
$USERR3
 40
1.0
  9
$USERR4
 40
0.0
  9
$USERR5
 40
0.0
  9
$WORLDVIEW
 70
     1
  9
$SHADEDGE
 70
     3
  9
$SHADEDIF
 70
    70
  9
$TILEMODE
 70
     1
  9
$MAXACTVP
 70
    48
  9
$PINSBASE
 10
0.0
 20
0.0
 30
0.0
  9
$PLIMCHECK
 70
     0
  9
$PEXTMIN
 10
-5.639720244523232
 20
-6.296546991387912
 30
0.0
  9
$PEXTMAX
 10
834.3956480283653
 20
560.9320000029946
 30
0.0
  9
$PLIMMIN
 10
-7.5
 20
-20.0
  9
$PLIMMAX
 10
833.5000000000004
 20
574.0000000000001
  9
$UNITMODE
 70
     0
  9
$VISRETAIN
 70
     1
  9
$PLINEGEN
 70
     0
  9
$PSLTSCALE
 70
     1
  9
$TREEDEPTH
 70
  3020
  9
$PICKSTYLE
 70
     1
  9
$CMLSTYLE
  2
STANDARD
  9
$CMLJUST
 70
     0
  9
$CMLSCALE
 40
20.0
  9
$SAVEIMAGES
 70
     1
  0
ENDSEC
  0
SECTION
  2
CLASSES
  0
CLASS
  1
ACDBDICTIONARYWDFLT
  2
AcDbDictionaryWithDefault
  3
AutoCAD 2000
 90
    32768
280
     0
281
     0
  0
CLASS
  1
ACDBPLACEHOLDER
  2
AcDbPlaceHolder
  3
AutoCAD 2000
 90
    32768
280
     0
281
     0
  0
CLASS
  1
LAYOUT
  2
AcDbLayout
  3
AutoCAD 2000
 90
    32768
280
     0
281
     0
  0
CLASS
  1
RTEXT
  2
RText
  3
RText|AutoCAD Express Tool|expresstools@autodesk.com
 90
    32768
280
     0
281
     1
  0
CLASS
  1
DICTIONARYVAR
  2
AcDbDictionaryVar
  3
AutoCAD 2000
 90
    32768
280
     0
281
     0
  0
CLASS
  1
LONG_TRANSACTION
  2
AcDbLongTransaction
  3
AutoCAD 2000
 90
    32768
280
     0
281
     0
  0
CLASS
  1
LWPOLYLINE
  2
AcDbPolyline
  3
AutoCAD 2000
 90
    32768
280
     0
281
     1
  0
CLASS
  1
HATCH
  2
AcDbHatch
  3
AutoCAD 2000
 90
    32768
280
     0
281
     1
  0
CLASS
  1
XRECORD
  2
AcDbXrecord
  3
AutoCAD 2000
 90
    32768
280
     0
281
     0
  0
CLASS
  1
LONG_TRANSACTION
  2
AcDbLongTransaction
  3
AutoCAD 2000
 90
    32768
280
     0
281
     0
  0
CLASS
  1
LWPOLYLINE
  2
AcDbPolyline
  3
AutoCAD 2000
 90
    32768
280
     0
281
     1
  0
CLASS
  1
HATCH
  2
AcDbHatch
  3
AutoCAD 2000
 90
    32768
280
     0
281
     1
  0
CLASS
  1
XRECORD
  2
AcDbXrecord
  3
AutoCAD 2000
 90
    32768
280
     0
281
     0
  0
CLASS
  1
LONG_TRANSACTION
  2
AcDbLongTransaction
  3
AutoCAD 2000
 90
    32768
280
     0
281
     0
  0
CLASS
  1
LWPOLYLINE
  2
AcDbPolyline
  3
AutoCAD 2000
 90
    32768
280
     0
281
     1
  0
CLASS
  1
HATCH
  2
AcDbHatch
  3
AutoCAD 2000
 90
    32768
280
     0
281
     1
  0
CLASS
  1
XRECORD
  2
AcDbXrecord
  3
AutoCAD 2000
 90
    32768
280
     0
281
     0
  0
CLASS
  1
LONG_TRANSACTION
  2
AcDbLongTransaction
  3
AutoCAD 2000
 90
    32768
280
     0
281
     0
  0
CLASS
  1
LWPOLYLINE
  2
AcDbPolyline
  3
AutoCAD 2000
 90
    32768
280
     0
281
     1
  0
CLASS
  1
HATCH
  2
AcDbHatch
  3
AutoCAD 2000
 90
    32768
280
     0
281
     1
  0
CLASS
  1
XRECORD
  2
AcDbXrecord
  3
AutoCAD 2000
 90
    32768
280
     0
281
     0
  0
CLASS
  1
LONG_TRANSACTION
  2
AcDbLongTransaction
  3
AutoCAD 2000
 90
    32768
280
     0
281
     0
  0
CLASS
  1
LWPOLYLINE
  2
AcDbPolyline
  3
AutoCAD 2000
 90
    32768
280
     0
281
     1
  0
CLASS
  1
HATCH
  2
AcDbHatch
  3
AutoCAD 2000
 90
    32768
280
     0
281
     1
  0
CLASS
  1
XRECORD
  2
AcDbXrecord
  3
AutoCAD 2000
 90
    32768
280
     0
281
     0
  0
CLASS
  1
LONG_TRANSACTION
  2
AcDbLongTransaction
  3
AutoCAD 2000
 90
    32768
280
     0
281
     0
  0
CLASS
  1
LWPOLYLINE
  2
AcDbPolyline
  3
AutoCAD 2000
 90
    32768
280
     0
281
     1
  0
CLASS
  1
HATCH
  2
AcDbHatch
  3
AutoCAD 2000
 90
    32768
280
     0
281
     1
  0
CLASS
  1
XRECORD
  2
AcDbXrecord
  3
AutoCAD 2000
 90
    32768
280
     0
281
     0
  0
CLASS
  1
LONG_TRANSACTION
  2
AcDbLongTransaction
  3
AutoCAD 2000
 90
    32768
280
     0
281
     0
  0
CLASS
  1
LWPOLYLINE
  2
AcDbPolyline
  3
AutoCAD 2000
 90
    32768
280
     0
281
     1
  0
CLASS
  1
HATCH
  2
AcDbHatch
  3
AutoCAD 2000
 90
    32768
280
     0
281
     1
  0
CLASS
  1
XRECORD
  2
AcDbXrecord
  3
AutoCAD 2000
 90
    32768
280
     0
281
     0
  0
CLASS
  1
LONG_TRANSACTION
  2
AcDbLongTransaction
  3
AutoCAD 2000
 90
    32768
280
     0
281
     0
  0
CLASS
  1
LWPOLYLINE
  2
AcDbPolyline
  3
AutoCAD 2000
 90
    32768
280
     0
281
     1
  0
CLASS
  1
HATCH
  2
AcDbHatch
  3
AutoCAD 2000
 90
    32768
280
     0
281
     1
  0
CLASS
  1
XRECORD
  2
AcDbXrecord
  3
AutoCAD 2000
 90
    32768
280
     0
281
     0
  0
CLASS
  1
LONG_TRANSACTION
  2
AcDbLongTransaction
  3
AutoCAD 2000
 90
    32768
280
     0
281
     0
  0
CLASS
  1
LWPOLYLINE
  2
AcDbPolyline
  3
AutoCAD 2000
 90
    32768
280
     0
281
     1
  0
CLASS
  1
HATCH
  2
AcDbHatch
  3
AutoCAD 2000
 90
    32768
280
     0
281
     1
  0
CLASS
  1
XRECORD
  2
AcDbXrecord
  3
AutoCAD 2000
 90
    32768
280
     0
281
     0
  0
CLASS
  1
LONG_TRANSACTION
  2
AcDbLongTransaction
  3
AutoCAD 2000
 90
    32768
280
     0
281
     0
  0
CLASS
  1
LWPOLYLINE
  2
AcDbPolyline
  3
AutoCAD 2000
 90
    32768
280
     0
281
     1
  0
CLASS
  1
HATCH
  2
AcDbHatch
  3
AutoCAD 2000
 90
    32768
280
     0
281
     1
  0
CLASS
  1
XRECORD
  2
AcDbXrecord
  3
AutoCAD 2000
 90
    32768
280
     0
281
     0
  0
CLASS
  1
LONG_TRANSACTION
  2
AcDbLongTransaction
  3
AutoCAD 2000
 90
    32768
280
     0
281
     0
  0
CLASS
  1
LWPOLYLINE
  2
AcDbPolyline
  3
AutoCAD 2000
 90
    32768
280
     0
281
     1
  0
CLASS
  1
HATCH
  2
AcDbHatch
  3
AutoCAD 2000
 90
    32768
280
     0
281
     1
  0
CLASS
  1
XRECORD
  2
AcDbXrecord
  3
AutoCAD 2000
 90
    32768
280
     0
281
     0
  0
CLASS
  1
LONG_TRANSACTION
  2
AcDbLongTransaction
  3
AutoCAD 2000
 90
    32768
280
     0
281
     0
  0
CLASS
  1
LWPOLYLINE
  2
AcDbPolyline
  3
AutoCAD 2000
 90
    32768
280
     0
281
     1
  0
CLASS
  1
HATCH
  2
AcDbHatch
  3
AutoCAD 2000
 90
    32768
280
     0
281
     1
  0
CLASS
  1
XRECORD
  2
AcDbXrecord
  3
AutoCAD 2000
 90
    32768
280
     0
281
     0
  0
CLASS
  1
LONG_TRANSACTION
  2
AcDbLongTransaction
  3
AutoCAD 2000
 90
    32768
280
     0
281
     0
  0
CLASS
  1
LWPOLYLINE
  2
AcDbPolyline
  3
AutoCAD 2000
 90
    32768
280
     0
281
     1
  0
CLASS
  1
HATCH
  2
AcDbHatch
  3
AutoCAD 2000
 90
    32768
280
     0
281
     1
  0
CLASS
  1
XRECORD
  2
AcDbXrecord
  3
AutoCAD 2000
 90
    32768
280
     0
281
     0
  0
ENDSEC
  0
SECTION
  2
TABLES
  0
TABLE
  2
VPORT
  5
8
330
0
100
AcDbSymbolTable
 70
     2
  0
VPORT
  5
177F
330
8
100
AcDbSymbolTableRecord
100
AcDbViewportTableRecord
  2
*ACTIVE
 70
     0
 10
0.0
 20
0.0
 11
1.0
 21
1.0
 12
2970.000013830138
 22
2100.000009778886
 13
0.0
 23
0.0
 14
10.0
 24
10.0
 15
10.0
 25
10.0
 16
0.0
 26
0.0
 36
1.0
 17
0.0
 27
0.0
 37
0.0
 40
4249.286577395729
 41
1.84990253411306
 42
50.0
 43
0.0
 44
0.0
 50
0.0
 51
0.0
 71
     0
 72
   100
 73
     1
 74
     1
 75
     0
 76
     0
 77
     0
 78
     0
  0
ENDTAB
  0
TABLE
  2
LTYPE
  5
5
330
0
100
AcDbSymbolTable
 70
     5
  0
LTYPE
  5
14
330
5
100
AcDbSymbolTableRecord
100
AcDbLinetypeTableRecord
  2
BYBLOCK
 70
     0
  3

 72
    65
 73
     0
 40
0.0
  0
LTYPE
  5
15
330
5
100
AcDbSymbolTableRecord
100
AcDbLinetypeTableRecord
  2
BYLAYER
 70
     0
  3

 72
    65
 73
     0
 40
0.0
  0
LTYPE
  5
16
330
5
100
AcDbSymbolTableRecord
100
AcDbLinetypeTableRecord
  2
CONTINUOUS
 70
     0
  3
Solid line
 72
    65
 73
     0
 40
0.0
  0
LTYPE
  5
555
330
5
100
AcDbSymbolTableRecord
100
AcDbLinetypeTableRecord
  2
CENTER
 70
     0
  3
Center ____ _ ____ _ ____ _ ____ _ ____ _ ____
 72
    65
 73
     4
 40
50.8
 49
31.75
 74
     0
 49
-6.349999999999998
 74
     0
 49
6.349999999999998
 74
     0
 49
-6.349999999999998
 74
     0
  0
LTYPE
  5
556
330
5
100
AcDbSymbolTableRecord
100
AcDbLinetypeTableRecord
  2
HIDDEN
 70
     0
  3
Hidden __ __ __ __ __ __ __ __ __ __ __ __ __ _
 72
    65
 73
     2
 40
9.524999999999996
 49
6.349999999999998
 74
     0
 49
-3.174999999999998
 74
     0
  0
LTYPE
  5
557
330
5
100
AcDbSymbolTableRecord
100
AcDbLinetypeTableRecord
  2
HIDDEN2
 70
     0
  3
Hidden (.5x) _ _ _ _ _ _ _ _ _ _ _ _ _ _ _ _ _
 72
    65
 73
     2
 40
4.762499999999998
 49
3.174999999999998
 74
     0
 49
-1.587499999999999
 74
     0
  0
LTYPE
  5
558
330
5
100
AcDbSymbolTableRecord
100
AcDbLinetypeTableRecord
  2
PHANTOM
 70
     0
  3
Phantom ______  __  __  ______  __  __  ______
 72
    65
 73
     6
 40
63.5
 49
31.75
 74
     0
 49
-6.349999999999998
 74
     0
 49
6.349999999999998
 74
     0
 49
-6.349999999999998
 74
     0
 49
6.349999999999998
 74
     0
 49
-6.349999999999998
 74
     0
  0
ENDTAB
  0
TABLE
  2
LAYER
  5
2
330
0
100
AcDbSymbolTable
 70
    22
  0
LAYER
  5
10
330
2
100
AcDbSymbolTableRecord
100
AcDbLayerTableRecord
  2
0
 70
     0
 62
     7
  6
CONTINUOUS
  0
LAYER
  5
75
330
2
100
AcDbSymbolTableRecord
100
AcDbLayerTableRecord
  2
VIEWPORT
 70
     0
 62
     1
  6
CONTINUOUS
  0
LAYER
  5
504
330
2
100
AcDbSymbolTableRecord
100
AcDbLayerTableRecord
  2
DEFPOINTS
 70
     0
 62
     6
  6
CONTINUOUS
  0
LAYER
  5
505
330
2
100
AcDbSymbolTableRecord
100
AcDbLayerTableRecord
  2
1C1
 70
     0
 62
   254
  6
CONTINUOUS
  0
LAYER
  5
506
330
2
100
AcDbSymbolTableRecord
100
AcDbLayerTableRecord
  2
1C2
 70
     0
 62
   254
  6
CONTINUOUS
  0
LAYER
  5
507
330
2
100
AcDbSymbolTableRecord
100
AcDbLayerTableRecord
  2
2C1
 70
     0
 62
   144
  6
CONTINUOUS
  0
LAYER
  5
508
330
2
100
AcDbSymbolTableRecord
100
AcDbLayerTableRecord
  2
2C2
 70
     0
 62
   144
  6
CONTINUOUS
  0
LAYER
  5
509
330
2
100
AcDbSymbolTableRecord
100
AcDbLayerTableRecord
  2
2H1
 70
     0
 62
   144
  6
HIDDEN
  0
LAYER
  5
50A
330
2
100
AcDbSymbolTableRecord
100
AcDbLayerTableRecord
  2
2H2
 70
     0
 62
   144
  6
HIDDEN2
  0
LAYER
  5
50B
330
2
100
AcDbSymbolTableRecord
100
AcDbLayerTableRecord
  2
2P1
 70
     0
 62
   144
  6
PHANTOM
  0
LAYER
  5
50C
330
2
100
AcDbSymbolTableRecord
100
AcDbLayerTableRecord
  2
3C1
 70
     0
 62
     7
  6
CONTINUOUS
  0
LAYER
  5
50D
330
2
100
AcDbSymbolTableRecord
100
AcDbLayerTableRecord
  2
3C2
 70
     0
 62
     7
  6
CONTINUOUS
  0
LAYER
  5
50E
330
2
100
AcDbSymbolTableRecord
100
AcDbLayerTableRecord
  2
3C3
 70
     0
 62
     7
  6
CONTINUOUS
  0
LAYER
  5
50F
330
2
100
AcDbSymbolTableRecord
100
AcDbLayerTableRecord
  2
4H1
 70
     0
 62
     6
  6
HIDDEN
  0
LAYER
  5
510
330
2
100
AcDbSymbolTableRecord
100
AcDbLayerTableRecord
  2
4H2
 70
     0
 62
     6
  6
HIDDEN2
  0
LAYER
  5
511
330
2
100
AcDbSymbolTableRecord
100
AcDbLayerTableRecord
  2
5C1
 70
     0
 62
    55
  6
CONTINUOUS
  0
LAYER
  5
512
330
2
100
AcDbSymbolTableRecord
100
AcDbLayerTableRecord
  2
5C2
 70
     0
 62
    55
  6
CONTINUOUS
  0
LAYER
  5
513
330
2
100
AcDbSymbolTableRecord
100
AcDbLayerTableRecord
  2
8C1
 70
     0
 62
    92
  6
CONTINUOUS
  0
LAYER
  5
514
330
2
100
AcDbSymbolTableRecord
100
AcDbLayerTableRecord
  2
HOJO
 70
     0
 62
     5
  6
CONTINUOUS
  0
LAYER
  5
515
330
2
100
AcDbSymbolTableRecord
100
AcDbLayerTableRecord
  2
KIJUN
 70
     0
 62
     1
  6
CENTER
  0
LAYER
  5
516
330
2
100
AcDbSymbolTableRecord
100
AcDbLayerTableRecord
  2
MOJI
 70
     0
 62
     7
  6
CONTINUOUS
  0
LAYER
  5
517
330
2
100
AcDbSymbolTableRecord
100
AcDbLayerTableRecord
  2
SUNPO
 70
     0
 62
   144
  6
CONTINUOUS
  0
ENDTAB
  0
TABLE
  2
STYLE
  5
3
330
0
100
AcDbSymbolTable
 70
     6
  0
STYLE
  5
11
330
3
100
AcDbSymbolTableRecord
100
AcDbTextStyleTableRecord
  2
STANDARD
 70
     0
 40
0.0
 41
1.0
 50
0.0
 71
     0
 42
2.5
  3
txt
  4

  0
STYLE
  5
2C
330
3
100
AcDbSymbolTableRecord
100
AcDbTextStyleTableRecord
  2

 70
     1
 40
0.0
 41
1.0
 50
0.0
 71
     0
 42
2.5
  3
ltypeshp.shx
  4

  0
STYLE
  5
18E
330
3
100
AcDbSymbolTableRecord
100
AcDbTextStyleTableRecord
  2
ADD
 70
     0
 40
0.0
 41
1.0
 50
0.0
 71
     0
 42
50.0
  3
romans.shx
  4
bigfont.shx
  0
STYLE
  5
191
330
3
100
AcDbSymbolTableRecord
100
AcDbTextStyleTableRecord
  2
MSG
 70
     0
 40
0.0
 41
1.0
 50
0.0
 71
     0
 42
2.5
  3
MS Gothic.ttf
  4

1001
ACAD
1000
MS Gothic
1071
    32817
  0
STYLE
  5
5C8
330
3
100
AcDbSymbolTableRecord
100
AcDbTextStyleTableRecord
  2
STANDARD15
 70
     0
 40
0.0
 41
1.0
 50
15.0
 71
     0
 42
2.5
  3
ROMANS
  4
bigfont
  0
STYLE
  5
5C9
330
3
100
AcDbSymbolTableRecord
100
AcDbTextStyleTableRecord
  2
ROMANS15
 70
     0
 40
0.0
 41
1.0
 50
15.0
 71
     0
 42
2.5
  3
romans
  4

  0
ENDTAB
  0
TABLE
  2
VIEW
  5
6
330
0
100
AcDbSymbolTable
 70
     1
  0
VIEW
  5
54D
330
6
100
AcDbSymbolTableRecord
100
AcDbViewTableRecord
  2
ALL
 70
     0
 40
594.0
 10
420.5
 20
297.0
 41
865.125
 11
0.0
 21
0.0
 31
1.0
 12
0.0
 22
0.0
 32
0.0
 42
50.0
 43
0.0
 44
0.0
 50
0.0
 71
     0
  0
ENDTAB
  0
TABLE
  2
UCS
  5
7
330
0
100
AcDbSymbolTable
 70
     0
  0
ENDTAB
  0
TABLE
  2
APPID
  5
9
330
0
100
AcDbSymbolTable
 70
     4
  0
APPID
  5
12
330
9
100
AcDbSymbolTableRecord
100
AcDbRegAppTableRecord
  2
ACAD
 70
     0
  0
APPID
  5
5CB
330
9
100
AcDbSymbolTableRecord
100
AcDbRegAppTableRecord
  2
ARAIGUMI_YOHEKI
 70
     0
  0
APPID
  5
5CC
330
9
100
AcDbSymbolTableRecord
100
AcDbRegAppTableRecord
  2
CONTENTTABDATA
 70
     0
  0
APPID
  5
5CD
330
9
100
AcDbSymbolTableRecord
100
AcDbRegAppTableRecord
  2
CONTENTCURRENTTAB
 70
     0
  0
ENDTAB
  0
TABLE
  2
DIMSTYLE
  5
A
330
0
100
AcDbSymbolTable
 70
    10
  0
DIMSTYLE
105
27
330
A
100
AcDbSymbolTableRecord
100
AcDbDimStyleTableRecord
  2
ISO-25
 70
     0
  3

  4

  5

  6

  7

 40
1.0
 41
2.5
 42
0.625
 43
3.75
 44
1.25
 45
0.0
 46
0.0
 47
0.0
 48
0.0
140
2.5
141
2.5
142
0.0
143
0.03937007874016
144
1.0
145
0.0
146
1.0
147
0.625
 71
     0
 72
     0
 73
     0
 74
     0
 75
     0
 76
     0
 77
     1
 78
     8
170
     0
171
     3
172
     1
173
     0
174
     0
175
     0
176
     0
177
     0
178
     0
270
     2
271
     2
272
     2
273
     2
274
     3
340
11
275
     0
280
     0
281
     0
282
     0
283
     0
284
     8
285
     0
286
     0
287
     3
288
     0
  0
DIMSTYLE
105
197
330
A
100
AcDbSymbolTableRecord
100
AcDbDimStyleTableRecord
  2
ADD
 70
     0
  3

  4

  5

  6

  7

 40
1.0
 41
2.5
 42
1.0
 43
7.0
 44
0.5
 45
0.0
 46
0.0
 47
0.0
 48
0.0
140
2.5
141
2.5
142
0.0
143
0.03937007874016
144
1.0
145
0.7
146
1.0
147
0.625
 71
     0
 72
     0
 73
     0
 74
     0
 75
     0
 76
     0
 77
     1
 78
     8
170
     0
171
     3
172
     1
173
     0
174
     1
175
     0
176
   144
177
   144
178
     7
270
     2
271
     1
272
     1
273
     2
274
     3
340
18E
275
     0
280
     0
281
     0
282
     0
283
     2
284
     8
285
     0
286
     0
287
     3
288
     0
  0
DIMSTYLE
105
3E6
330
A
100
AcDbSymbolTableRecord
100
AcDbDimStyleTableRecord
  2
ADD$2
 70
     0
  3

  4

  5

  6

  7

 40
1.0
 41
2.5
 42
1.0
 43
7.0
 44
0.5
 45
0.0
 46
0.0
 47
0.0
 48
0.0
140
2.5
141
2.5
142
0.0
143
0.03937007874016
144
1.0
145
0.7
146
1.0
147
0.625
 71
     0
 72
     0
 73
     0
 74
     0
 75
     0
 76
     0
 77
     1
 78
     8
170
     0
171
     3
172
     1
173
     0
174
     1
175
     0
176
   144
177
   144
178
     7
270
     2
271
     1
272
     1
273
     2
274
     3
340
18E
275
     0
280
     0
281
     0
282
     0
283
     2
284
     8
285
     0
286
     0
287
     3
288
     0
  0
DIMSTYLE
105
3E7
330
A
100
AcDbSymbolTableRecord
100
AcDbDimStyleTableRecord
  2
ADD$4
 70
     0
  3

  4

  5

  6

  7

 40
1.0
 41
2.5
 42
1.0
 43
7.0
 44
0.5
 45
0.0
 46
0.0
 47
0.0
 48
0.0
140
2.5
141
2.5
142
0.0
143
0.03937007874016
144
1.0
145
0.0
146
1.0
147
0.625
 71
     0
 72
     0
 73
     0
 74
     0
 75
     0
 76
     0
 77
     1
 78
     8
170
     0
171
     3
172
     1
173
     0
174
     1
175
     0
176
   144
177
   144
178
     7
270
     2
271
     1
272
     1
273
     2
274
     3
340
18E
275
     0
280
     0
281
     0
282
     0
283
     2
284
     8
285
     0
286
     0
287
     3
288
     0
  0
DIMSTYLE
105
3E8
330
A
100
AcDbSymbolTableRecord
100
AcDbDimStyleTableRecord
  2
ADD$3
 70
     0
  3

  4

  5

  6

  7

 40
1.0
 41
2.5
 42
1.0
 43
7.0
 44
0.5
 45
0.0
 46
0.0
 47
0.0
 48
0.0
140
2.5
141
2.5
142
0.0
143
0.03937007874016
144
1.0
145
0.0
146
1.0
147
0.625
 71
     0
 72
     0
 73
     0
 74
     0
 75
     0
 76
     0
 77
     1
 78
     8
170
     0
171
     3
172
     1
173
     0
174
     1
175
     0
176
   144
177
   144
178
     7
270
     2
271
     1
272
     1
273
     2
274
     3
340
18E
275
     0
280
     0
281
     0
282
     0
283
     2
284
     8
285
     0
286
     0
287
     3
288
     0
  0
DIMSTYLE
105
3E9
330
A
100
AcDbSymbolTableRecord
100
AcDbDimStyleTableRecord
  2
ADD$6
 70
     0
  3

  4

  5

  6

  7

 40
1.0
 41
2.5
 42
1.0
 43
7.0
 44
0.5
 45
0.0
 46
0.0
 47
0.0
 48
0.0
140
2.5
141
2.5
142
0.0
143
0.03937007874016
144
1.0
145
0.0
146
1.0
147
0.625
 71
     0
 72
     0
 73
     0
 74
     0
 75
     0
 76
     0
 77
     1
 78
     8
170
     0
171
     3
172
     1
173
     0
174
     1
175
     0
176
   144
177
   144
178
     7
270
     2
271
     1
272
     1
273
     2
274
     3
340
18E
275
     0
280
     0
281
     0
282
     0
283
     2
284
     8
285
     0
286
     0
287
     3
288
     0
  0
DIMSTYLE
105
3EA
330
A
100
AcDbSymbolTableRecord
100
AcDbDimStyleTableRecord
  2
ADD$7
 70
     0
  3

  4

  5

  6

  7

 40
1.0
 41
2.5
 42
1.0
 43
7.0
 44
0.5
 45
0.0
 46
0.0
 47
0.0
 48
0.0
140
2.5
141
2.5
142
0.0
143
0.03937007874016
144
1.0
145
0.0
146
1.0
147
0.625
 71
     0
 72
     0
 73
     0
 74
     0
 75
     0
 76
     0
 77
     0
 78
     8
170
     0
171
     3
172
     1
173
     0
174
     1
175
     0
176
   144
177
   144
178
     7
270
     2
271
     1
272
     1
273
     2
274
     3
340
18E
275
     0
280
     0
281
     0
282
     0
283
     2
284
     8
285
     0
286
     0
287
     3
288
     0
  0
DIMSTYLE
105
518
330
A
100
AcDbSymbolTableRecord
100
AcDbDimStyleTableRecord
  2
STANDARD
 70
     0
  3

  4

  5

  6

  7

 40
1.0
 41
0.18
 42
0.0625
 43
0.38
 44
0.18
 45
0.0
 46
0.0
 47
0.0
 48
0.0
140
0.18
141
0.09
142
0.0
143
25.4
144
1.0
145
0.0
146
1.0
147
0.09
 71
     0
 72
     0
 73
     1
 74
     1
 75
     0
 76
     0
 77
     0
 78
     0
170
     0
171
     2
172
     0
173
     0
174
     0
175
     0
176
     0
177
     0
178
     0
270
     2
271
     4
272
     4
273
     2
274
     2
340
11
275
     0
280
     0
281
     0
282
     0
283
     1
284
     0
285
     0
286
     0
287
     3
288
     0
  0
DIMSTYLE
105
550
330
A
100
AcDbSymbolTableRecord
100
AcDbDimStyleTableRecord
  2
ADD$0
 70
     0
  3

  4

  5

  6

  7

 40
1.0
 41
2.5
 42
1.0
 43
7.0
 44
0.5
 45
0.0
 46
0.0
 47
0.0
 48
0.0
140
2.5
141
2.5
142
0.0
143
0.03937007874016
144
1.0
145
0.7
146
1.0
147
0.625
 71
     0
 72
     0
 73
     0
 74
     0
 75
     0
 76
     0
 77
     1
 78
     8
170
     0
171
     3
172
     1
173
     0
174
     1
175
     0
176
   144
177
   144
178
     7
270
     2
271
     1
272
     1
273
     2
274
     3
340
18E
275
     0
280
     0
281
     0
282
     0
283
     2
284
     8
285
     0
286
     0
287
     3
288
     0
  0
DIMSTYLE
105
59B
330
A
100
AcDbSymbolTableRecord
100
AcDbDimStyleTableRecord
  2
ADD_M
 70
     0
  3

  4

  5

  6

  7

 40
1.0
 41
2.5
 42
1.0
 43
7.0
 44
0.5
 45
0.0
 46
0.0
 47
0.0
 48
0.0
140
2.5
141
2.5
142
0.0
143
0.03937007874016
144
1.0
145
0.7
146
1.0
147
0.625
 71
     0
 72
     0
 73
     0
 74
     0
 75
     0
 76
     0
 77
     1
 78
     8
170
     0
171
     3
172
     1
173
     0
174
     1
175
     0
176
   144
177
   144
178
     7
270
     2
271
     1
272
     1
273
     2
274
     3
340
18E
275
     0
280
     0
281
     0
282
     0
283
     2
284
     8
285
     0
286
     0
287
     3
288
     0
  0
ENDTAB
  0
TABLE
  2
BLOCK_RECORD
  5
1
330
0
100
AcDbSymbolTable
 70
    12
  0
BLOCK_RECORD
  5
1F
102
{ACAD_XDICTIONARY
360
65D
102
}
330
1
100
AcDbSymbolTableRecord
100
AcDbBlockTableRecord
  2
*MODEL_SPACE
  0
BLOCK_RECORD
  5
1B
102
{ACAD_XDICTIONARY
360
65F
102
}
330
1
100
AcDbSymbolTableRecord
100
AcDbBlockTableRecord
  2
*PAPER_SPACE
  0
BLOCK_RECORD
  5
192
330
1
100
AcDbSymbolTableRecord
100
AcDbBlockTableRecord
  2
_DOT
  0
BLOCK_RECORD
  5
5CE
330
1
100
AcDbSymbolTableRecord
100
AcDbBlockTableRecord
  2
A4
  0
BLOCK_RECORD
  5
1412
330
1
100
AcDbSymbolTableRecord
100
AcDbBlockTableRecord
  2
*D2
  0
BLOCK_RECORD
  5
14C1
330
1
100
AcDbSymbolTableRecord
100
AcDbBlockTableRecord
  2
*D3
  0
BLOCK_RECORD
  5
14CE
330
1
100
AcDbSymbolTableRecord
100
AcDbBlockTableRecord
  2
*D4
  0
BLOCK_RECORD
  5
14DD
330
1
100
AcDbSymbolTableRecord
100
AcDbBlockTableRecord
  2
*D5
  0
BLOCK_RECORD
  5
14EA
330
1
100
AcDbSymbolTableRecord
100
AcDbBlockTableRecord
  2
*D6
  0
BLOCK_RECORD
  5
14F9
330
1
100
AcDbSymbolTableRecord
100
AcDbBlockTableRecord
  2
*D7
  0
BLOCK_RECORD
  5
1506
330
1
100
AcDbSymbolTableRecord
100
AcDbBlockTableRecord
  2
*D8
  0
BLOCK_RECORD
  5
1536
330
1
100
AcDbSymbolTableRecord
100
AcDbBlockTableRecord
  2
*D9
  0
BLOCK_RECORD
  5
1543
330
1
100
AcDbSymbolTableRecord
100
AcDbBlockTableRecord
  2
*D10
  0
BLOCK_RECORD
  5
154D
330
1
100
AcDbSymbolTableRecord
100
AcDbBlockTableRecord
  2
*D11
  0
ENDTAB
  0
ENDSEC
  0
SECTION
  2
BLOCKS
  0
BLOCK
  5
20
330
1F
100
AcDbEntity
  8
0
100
AcDbBlockBegin
  2
*MODEL_SPACE
 70
     0
 10
0.0
 20
0.0
 30
0.0
  3
*MODEL_SPACE
  1

  0
ENDBLK
  5
21
330
1F
100
AcDbEntity
  8
0
100
AcDbBlockEnd
  0
BLOCK
  5
1C
330
1B
100
AcDbEntity
 67
     1
  8
0
100
AcDbBlockBegin
  2
*PAPER_SPACE
 70
     0
 10
0.0
 20
0.0
 30
0.0
  3
*PAPER_SPACE
  1

  0
ENDBLK
  5
1D
330
1B
100
AcDbEntity
 67
     1
  8
0
100
AcDbBlockEnd
  0
BLOCK
  5
195
330
192
100
AcDbEntity
  8
0
100
AcDbBlockBegin
  2
_DOT
 70
     0
 10
0.0
 20
0.0
 30
0.0
  3
_DOT
  1

  0
POLYLINE
  5
193
330
192
100
AcDbEntity
  8
0
 62
     0
100
AcDb2dPolyline
 66
     1
 10
0.0
 20
0.0
 30
0.0
 70
     1
 40
0.5
 41
0.5
  0
VERTEX
  5
1782
330
193
100
AcDbEntity
  8
0
 62
     0
100
AcDbVertex
100
AcDb2dVertex
 10
-0.25
 20
0.0
 30
0.0
 42
1.0
  0
VERTEX
  5
1783
330
193
100
AcDbEntity
  8
0
 62
     0
100
AcDbVertex
100
AcDb2dVertex
 10
0.25
 20
0.0
 30
0.0
 42
1.0
  0
SEQEND
  5
1784
330
193
100
AcDbEntity
  8
0
 62
     0
  0
LINE
  5
194
330
192
100
AcDbEntity
  8
0
 62
     0
100
AcDbLine
 10
-0.5
 20
0.0
 30
0.0
 11
-1.0
 21
0.0
 31
0.0
  0
ENDBLK
  5
196
330
192
100
AcDbEntity
  8
0
100
AcDbBlockEnd
  0
BLOCK
  5
5D1
330
5CE
100
AcDbEntity
  8
0
100
AcDbBlockBegin
  2
A4
 70
     0
 10
0.0
 20
0.0
 30
0.0
  3
A4
  1

  0
POLYLINE
  5
5CF
330
5CE
100
AcDbEntity
  8
HOJO
100
AcDb2dPolyline
 66
     1
 10
0.0
 20
0.0
 30
0.0
 70
     1
  0
VERTEX
  5
1785
330
5CF
100
AcDbEntity
  8
HOJO
100
AcDbVertex
100
AcDb2dVertex
 10
0.0
 20
0.0
 30
0.0
  0
VERTEX
  5
1786
330
5CF
100
AcDbEntity
  8
HOJO
100
AcDbVertex
100
AcDb2dVertex
 10
297.0
 20
0.0
 30
0.0
  0
VERTEX
  5
1787
330
5CF
100
AcDbEntity
  8
HOJO
100
AcDbVertex
100
AcDb2dVertex
 10
297.0
 20
210.0
 30
0.0
  0
VERTEX
  5
1788
330
5CF
100
AcDbEntity
  8
HOJO
100
AcDbVertex
100
AcDb2dVertex
 10
0.0
 20
210.0
 30
0.0
  0
SEQEND
  5
1789
330
5CF
100
AcDbEntity
  8
HOJO
  0
POLYLINE
  5
5D0
330
5CE
100
AcDbEntity
  8
HOJO
100
AcDb2dPolyline
 66
     1
 10
0.0
 20
0.0
 30
0.0
 70
     1
  0
VERTEX
  5
178A
330
5D0
100
AcDbEntity
  8
HOJO
100
AcDbVertex
100
AcDb2dVertex
 10
18.0
 20
13.0
 30
0.0
  0
VERTEX
  5
178B
330
5D0
100
AcDbEntity
  8
HOJO
100
AcDbVertex
100
AcDb2dVertex
 10
279.0
 20
13.0
 30
0.0
  0
VERTEX
  5
178C
330
5D0
100
AcDbEntity
  8
HOJO
100
AcDbVertex
100
AcDb2dVertex
 10
279.0
 20
197.0
 30
0.0
  0
VERTEX
  5
178D
330
5D0
100
AcDbEntity
  8
HOJO
100
AcDbVertex
100
AcDb2dVertex
 10
18.0
 20
197.0
 30
0.0
  0
SEQEND
  5
178E
330
5D0
100
AcDbEntity
  8
HOJO
  0
ENDBLK
  5
5D2
330
5CE
100
AcDbEntity
  8
0
100
AcDbBlockEnd
  0
BLOCK
  5
141C
330
1412
100
AcDbEntity
  8
0
100
AcDbBlockBegin
  2
*D2
 70
     1
 10
0.0
 20
0.0
 30
0.0
  3
*D2
  1

  0
LINE
  5
169F
330
1412
100
AcDbEntity
  8
SUNPO
 62
   144
100
AcDbLine
 10
3720.0
 20
2080.0
 30
0.0
 11
3720.0
 21
1866.27040963194
 31
0.0
  0
LINE
  5
16A0
330
1412
100
AcDbEntity
  8
SUNPO
 62
   144
100
AcDbLine
 10
4320.0
 20
2080.0
 30
0.0
 11
4320.0
 21
1866.27040963194
 31
0.0
  0
LINE
  5
16A1
330
1412
100
AcDbEntity
  8
SUNPO
 62
   144
100
AcDbLine
 10
3770.0
 20
1876.270409631941
 30
0.0
 11
4270.0
 21
1876.270409631941
 31
0.0
  0
SOLID
  5
16A2
330
1412
100
AcDbEntity
  8
SUNPO
 62
   144
100
AcDbTrace
 10
3770.0
 20
1884.603742965273
 30
0.0
 11
3770.0
 21
1867.937076298606
 31
0.0
 12
3720.0
 22
1876.270409631941
 32
0.0
 13
3720.0
 23
1876.270409631941
 33
0.0
  0
SOLID
  5
16A3
330
1412
100
AcDbEntity
  8
SUNPO
 62
   144
100
AcDbTrace
 10
4270.0
 20
1884.603742965273
 30
0.0
 11
4270.0
 21
1867.937076298606
 31
0.0
 12
4320.0
 22
1876.270409631941
 32
0.0
 13
4320.0
 23
1876.270409631941
 33
0.0
  0
MTEXT
  5
16A4
330
1412
100
AcDbEntity
  8
SUNPO
 62
     7
100
AcDbMText
 10
4020.0
 20
1913.770409631941
 30
0.0
 40
50.0
 41
0.0
 71
     5
 72
     1
  1
\A2;600
  7
ADD
1001
ACAD
1000
MTEXTBEGIN
1070
    73
1070
     1
1070
    44
1040
1.0
1070
    74
1070
     0
1000
MTEXTEND
1000
MTEXTBEGIN
1070
    73
1070
     1
1070
    44
1040
1.0
1070
    74
1070
     0
1000
MTEXTEND
  0
POINT
  5
16A5
330
1412
100
AcDbEntity
  8
DEFPOINTS
 62
     0
100
AcDbPoint
 10
3720.0
 20
2100.0
 30
0.0
  0
POINT
  5
16A6
330
1412
100
AcDbEntity
  8
DEFPOINTS
 62
     0
100
AcDbPoint
 10
4320.0
 20
2100.0
 30
0.0
  0
POINT
  5
16A7
330
1412
100
AcDbEntity
  8
DEFPOINTS
 62
     0
100
AcDbPoint
 10
4320.0
 20
1876.270409631941
 30
0.0
  0
ENDBLK
  5
141D
330
1412
100
AcDbEntity
  8
0
100
AcDbBlockEnd
  0
BLOCK
  5
14CB
330
14C1
100
AcDbEntity
  8
0
100
AcDbBlockBegin
  2
*D3
 70
     1
 10
0.0
 20
0.0
 30
0.0
  3
*D3
  1

  0
LINE
  5
16A8
330
14C1
100
AcDbEntity
  8
SUNPO
 62
   144
100
AcDbLine
 10
1740.0
 20
2237.305571705584
 30
0.0
 11
1740.0
 21
2669.445157456655
 31
0.0
  0
LINE
  5
16A9
330
14C1
100
AcDbEntity
  8
SUNPO
 62
   144
100
AcDbLine
 10
2140.0
 20
2237.305571705586
 30
0.0
 11
2140.0
 21
2669.445157456655
 31
0.0
  0
LINE
  5
16AA
330
14C1
100
AcDbEntity
  8
SUNPO
 62
   144
100
AcDbLine
 10
1790.0
 20
2659.445157456655
 30
0.0
 11
2090.0
 21
2659.445157456655
 31
0.0
  0
SOLID
  5
16AB
330
14C1
100
AcDbEntity
  8
SUNPO
 62
   144
100
AcDbTrace
 10
1790.0
 20
2667.778490789989
 30
0.0
 11
1790.0
 21
2651.111824123322
 31
0.0
 12
1740.0
 22
2659.445157456655
 32
0.0
 13
1740.0
 23
2659.445157456655
 33
0.0
  0
SOLID
  5
16AC
330
14C1
100
AcDbEntity
  8
SUNPO
 62
   144
100
AcDbTrace
 10
2090.0
 20
2667.778490789989
 30
0.0
 11
2090.0
 21
2651.111824123322
 31
0.0
 12
2140.0
 22
2659.445157456655
 32
0.0
 13
2140.0
 23
2659.445157456655
 33
0.0
  0
MTEXT
  5
16AD
330
14C1
100
AcDbEntity
  8
SUNPO
 62
     7
100
AcDbMText
 10
1940.0
 20
2696.945157456655
 30
0.0
 40
50.0
 41
0.0
 71
     5
 72
     1
  1
\A2;400
  7
ADD
1001
ACAD
1000
MTEXTBEGIN
1070
    73
1070
     1
1070
    44
1040
1.0
1070
    74
1070
     0
1000
MTEXTEND
1000
MTEXTBEGIN
1070
    73
1070
     1
1070
    44
1040
1.0
1070
    74
1070
     0
1000
MTEXTEND
  0
POINT
  5
16AE
330
14C1
100
AcDbEntity
  8
DEFPOINTS
 62
     0
100
AcDbPoint
 10
1740.0
 20
2217.305571705585
 30
0.0
  0
POINT
  5
16AF
330
14C1
100
AcDbEntity
  8
DEFPOINTS
 62
     0
100
AcDbPoint
 10
2140.0
 20
2217.305571705586
 30
0.0
  0
POINT
  5
16B0
330
14C1
100
AcDbEntity
  8
DEFPOINTS
 62
     0
100
AcDbPoint
 10
2140.0
 20
2659.445157456655
 30
0.0
  0
ENDBLK
  5
14CC
330
14C1
100
AcDbEntity
  8
0
100
AcDbBlockEnd
  0
BLOCK
  5
14DA
330
14CE
100
AcDbEntity
  8
0
100
AcDbBlockBegin
  2
*D4
 70
     1
 10
0.0
 20
0.0
 30
0.0
  3
*D4
  1

  0
LINE
  5
16B1
330
14CE
100
AcDbEntity
  8
SUNPO
 62
   144
100
AcDbLine
 10
2140.0
 20
2237.305571705586
 30
0.0
 11
2140.0
 21
2669.445157456655
 31
0.0
  0
LINE
  5
16B2
330
14CE
100
AcDbEntity
  8
SUNPO
 62
   144
100
AcDbLine
 10
2210.0
 20
2640.0
 30
0.0
 11
2210.0
 21
2669.445157456655
 31
0.0
  0
LINE
  5
16B3
330
14CE
100
AcDbEntity
  8
SUNPO
 62
   144
100
AcDbLine
 10
2090.0
 20
2659.445157456655
 30
0.0
 11
2040.0
 21
2659.445157456655
 31
0.0
  0
LINE
  5
16B4
330
14CE
100
AcDbEntity
  8
SUNPO
 62
   144
100
AcDbLine
 10
2260.0
 20
2659.445157456655
 30
0.0
 11
2310.0
 21
2659.445157456655
 31
0.0
  0
MTEXT
  5
16B5
330
14CE
100
AcDbEntity
  8
SUNPO
 62
     7
100
AcDbMText
 10
2294.875
 20
2696.945157456655
 30
0.0
 40
50.0
 41
0.0
 71
     5
 72
     1
  1
\A2;70
  7
ADD
1001
ACAD
1000
MTEXTBEGIN
1070
    73
1070
     1
1070
    44
1040
1.0
1070
    74
1070
     0
1000
MTEXTEND
1000
MTEXTBEGIN
1070
    73
1070
     1
1070
    44
1040
1.0
1070
    74
1070
     0
1000
MTEXTEND
  0
LINE
  5
16B6
330
14CE
100
AcDbEntity
  8
SUNPO
 62
   144
100
AcDbLine
 10
2140.0
 20
2659.445157456655
 30
0.0
 11
2210.0
 21
2659.445157456655
 31
0.0
  0
SOLID
  5
16B7
330
14CE
100
AcDbEntity
  8
SUNPO
 62
   144
100
AcDbTrace
 10
2090.0
 20
2667.778490789989
 30
0.0
 11
2090.0
 21
2651.111824123322
 31
0.0
 12
2140.0
 22
2659.445157456655
 32
0.0
 13
2140.0
 23
2659.445157456655
 33
0.0
  0
SOLID
  5
16B8
330
14CE
100
AcDbEntity
  8
SUNPO
 62
   144
100
AcDbTrace
 10
2260.0
 20
2667.778490789989
 30
0.0
 11
2260.0
 21
2651.111824123322
 31
0.0
 12
2210.0
 22
2659.445157456655
 32
0.0
 13
2210.0
 23
2659.445157456655
 33
0.0
  0
POINT
  5
16B9
330
14CE
100
AcDbEntity
  8
DEFPOINTS
 62
     0
100
AcDbPoint
 10
2140.0
 20
2217.305571705586
 30
0.0
  0
POINT
  5
16BA
330
14CE
100
AcDbEntity
  8
DEFPOINTS
 62
     0
100
AcDbPoint
 10
2210.0
 20
2620.0
 30
0.0
  0
POINT
  5
16BB
330
14CE
100
AcDbEntity
  8
DEFPOINTS
 62
     0
100
AcDbPoint
 10
2210.0
 20
2659.445157456655
 30
0.0
  0
ENDBLK
  5
14DB
330
14CE
100
AcDbEntity
  8
0
100
AcDbBlockEnd
  0
BLOCK
  5
14E7
330
14DD
100
AcDbEntity
  8
0
100
AcDbBlockBegin
  2
*D5
 70
     1
 10
0.0
 20
0.0
 30
0.0
  3
*D5
  1

  0
LINE
  5
16BC
330
14DD
100
AcDbEntity
  8
SUNPO
 62
   144
100
AcDbLine
 10
1714.999999999999
 20
2640.0
 30
0.0
 11
1714.999999999999
 21
2760.695157456655
 31
0.0
  0
LINE
  5
16BD
330
14DD
100
AcDbEntity
  8
SUNPO
 62
   144
100
AcDbLine
 10
2165.0
 20
2640.0
 30
0.0
 11
2165.0
 21
2760.695157456655
 31
0.0
  0
LINE
  5
16BE
330
14DD
100
AcDbEntity
  8
SUNPO
 62
   144
100
AcDbLine
 10
1764.999999999999
 20
2750.695157456656
 30
0.0
 11
2115.0
 21
2750.695157456656
 31
0.0
  0
SOLID
  5
16BF
330
14DD
100
AcDbEntity
  8
SUNPO
 62
   144
100
AcDbTrace
 10
1764.999999999999
 20
2759.028490789989
 30
0.0
 11
1764.999999999999
 21
2742.361824123322
 31
0.0
 12
1714.999999999999
 22
2750.695157456656
 32
0.0
 13
1714.999999999999
 23
2750.695157456656
 33
0.0
  0
SOLID
  5
16C0
330
14DD
100
AcDbEntity
  8
SUNPO
 62
   144
100
AcDbTrace
 10
2115.0
 20
2759.028490789989
 30
0.0
 11
2115.0
 21
2742.361824123322
 31
0.0
 12
2165.0
 22
2750.695157456656
 32
0.0
 13
2165.0
 23
2750.695157456656
 33
0.0
  0
MTEXT
  5
16C1
330
14DD
100
AcDbEntity
  8
SUNPO
 62
     7
100
AcDbMText
 10
1940.0
 20
2788.195157456655
 30
0.0
 40
50.0
 41
0.0
 71
     5
 72
     1
  1
\A2;450
  7
ADD
1001
ACAD
1000
MTEXTBEGIN
1070
    73
1070
     1
1070
    44
1040
1.0
1070
    74
1070
     0
1000
MTEXTEND
1000
MTEXTBEGIN
1070
    73
1070
     1
1070
    44
1040
1.0
1070
    74
1070
     0
1000
MTEXTEND
  0
POINT
  5
16C2
330
14DD
100
AcDbEntity
  8
DEFPOINTS
 62
     0
100
AcDbPoint
 10
1714.999999999999
 20
2620.0
 30
0.0
  0
POINT
  5
16C3
330
14DD
100
AcDbEntity
  8
DEFPOINTS
 62
     0
100
AcDbPoint
 10
2165.0
 20
2620.0
 30
0.0
  0
POINT
  5
16C4
330
14DD
100
AcDbEntity
  8
DEFPOINTS
 62
     0
100
AcDbPoint
 10
2165.0
 20
2750.695157456656
 30
0.0
  0
ENDBLK
  5
14E8
330
14DD
100
AcDbEntity
  8
0
100
AcDbBlockEnd
  0
BLOCK
  5
14F6
330
14EA
100
AcDbEntity
  8
0
100
AcDbBlockBegin
  2
*D6
 70
     1
 10
0.0
 20
0.0
 30
0.0
  3
*D6
  1

  0
LINE
  5
16C5
330
14EA
100
AcDbEntity
  8
SUNPO
 62
   144
100
AcDbLine
 10
2165.0
 20
2640.0
 30
0.0
 11
2165.0
 21
2760.695157456655
 31
0.0
  0
LINE
  5
16C6
330
14EA
100
AcDbEntity
  8
SUNPO
 62
   144
100
AcDbLine
 10
2220.0
 20
2640.0
 30
0.0
 11
2220.0
 21
2760.695157456655
 31
0.0
  0
LINE
  5
16C7
330
14EA
100
AcDbEntity
  8
SUNPO
 62
   144
100
AcDbLine
 10
2115.0
 20
2750.695157456656
 30
0.0
 11
2065.0
 21
2750.695157456656
 31
0.0
  0
LINE
  5
16C8
330
14EA
100
AcDbEntity
  8
SUNPO
 62
   144
100
AcDbLine
 10
2270.0
 20
2750.695157456656
 30
0.0
 11
2320.0
 21
2750.695157456656
 31
0.0
  0
MTEXT
  5
16C9
330
14EA
100
AcDbEntity
  8
SUNPO
 62
     7
100
AcDbMText
 10
2320.0
 20
2788.195157456655
 30
0.0
 40
50.0
 41
0.0
 71
     5
 72
     1
  1
\A2;55
  7
ADD
1001
ACAD
1000
MTEXTBEGIN
1070
    73
1070
     1
1070
    44
1040
1.0
1070
    74
1070
     0
1000
MTEXTEND
1000
MTEXTBEGIN
1070
    73
1070
     1
1070
    44
1040
1.0
1070
    74
1070
     0
1000
MTEXTEND
  0
LINE
  5
16CA
330
14EA
100
AcDbEntity
  8
SUNPO
 62
   144
100
AcDbLine
 10
2165.0
 20
2750.695157456656
 30
0.0
 11
2220.0
 21
2750.695157456656
 31
0.0
  0
SOLID
  5
16CB
330
14EA
100
AcDbEntity
  8
SUNPO
 62
   144
100
AcDbTrace
 10
2115.0
 20
2759.028490789989
 30
0.0
 11
2115.0
 21
2742.361824123322
 31
0.0
 12
2165.0
 22
2750.695157456656
 32
0.0
 13
2165.0
 23
2750.695157456656
 33
0.0
  0
SOLID
  5
16CC
330
14EA
100
AcDbEntity
  8
SUNPO
 62
   144
100
AcDbTrace
 10
2270.0
 20
2759.028490789989
 30
0.0
 11
2270.0
 21
2742.361824123322
 31
0.0
 12
2220.0
 22
2750.695157456656
 32
0.0
 13
2220.0
 23
2750.695157456656
 33
0.0
  0
POINT
  5
16CD
330
14EA
100
AcDbEntity
  8
DEFPOINTS
 62
     0
100
AcDbPoint
 10
2165.0
 20
2620.0
 30
0.0
  0
POINT
  5
16CE
330
14EA
100
AcDbEntity
  8
DEFPOINTS
 62
     0
100
AcDbPoint
 10
2220.0
 20
2620.0
 30
0.0
  0
POINT
  5
16CF
330
14EA
100
AcDbEntity
  8
DEFPOINTS
 62
     0
100
AcDbPoint
 10
2220.0
 20
2750.695157456656
 30
0.0
  0
ENDBLK
  5
14F7
330
14EA
100
AcDbEntity
  8
0
100
AcDbBlockEnd
  0
BLOCK
  5
1503
330
14F9
100
AcDbEntity
  8
0
100
AcDbBlockBegin
  2
*D7
 70
     1
 10
0.0
 20
0.0
 30
0.0
  3
*D7
  1

  0
LINE
  5
16D0
330
14F9
100
AcDbEntity
  8
SUNPO
 62
   144
100
AcDbLine
 10
2144.999999999999
 20
2620.0
 30
0.0
 11
1930.0
 21
2620.0
 31
0.0
  0
LINE
  5
16D1
330
14F9
100
AcDbEntity
  8
SUNPO
 62
   144
100
AcDbLine
 10
2053.780947421532
 20
2170.0
 30
0.0
 11
1930.0
 21
2170.0
 31
0.0
  0
LINE
  5
16D2
330
14F9
100
AcDbEntity
  8
SUNPO
 62
   144
100
AcDbLine
 10
1940.0
 20
2570.0
 30
0.0
 11
1940.0
 21
2220.0
 31
0.0
  0
SOLID
  5
16D3
330
14F9
100
AcDbEntity
  8
SUNPO
 62
   144
100
AcDbTrace
 10
1931.666666666665
 20
2570.0
 30
0.0
 11
1948.333333333333
 21
2570.0
 31
0.0
 12
1940.0
 22
2620.0
 32
0.0
 13
1940.0
 23
2620.0
 33
0.0
  0
SOLID
  5
16D4
330
14F9
100
AcDbEntity
  8
SUNPO
 62
   144
100
AcDbTrace
 10
1931.666666666665
 20
2220.0
 30
0.0
 11
1948.333333333333
 21
2220.0
 31
0.0
 12
1940.0
 22
2170.0
 32
0.0
 13
1940.0
 23
2170.0
 33
0.0
  0
MTEXT
  5
16D5
330
14F9
100
AcDbEntity
  8
SUNPO
 62
     7
100
AcDbMText
 10
1902.499999999999
 20
2395.0
 30
0.0
 40
50.0
 41
0.0
 71
     5
 72
     1
  1
\A2;450
  7
ADD
 11
0.0000000000000001
 21
1.0
 31
0.0
1001
ACAD
1000
MTEXTBEGIN
1070
    73
1070
     1
1070
    44
1040
1.0
1070
    74
1070
     0
1000
MTEXTEND
1000
MTEXTBEGIN
1070
    73
1070
     1
1070
    44
1040
1.0
1070
    74
1070
     0
1000
MTEXTEND
  0
POINT
  5
16D6
330
14F9
100
AcDbEntity
  8
DEFPOINTS
 62
     0
100
AcDbPoint
 10
2164.999999999999
 20
2620.0
 30
0.0
  0
POINT
  5
16D7
330
14F9
100
AcDbEntity
  8
DEFPOINTS
 62
     0
100
AcDbPoint
 10
2073.780947421532
 20
2170.0
 30
0.0
  0
POINT
  5
16D8
330
14F9
100
AcDbEntity
  8
DEFPOINTS
 62
     0
100
AcDbPoint
 10
1940.0
 20
2170.0
 30
0.0
  0
ENDBLK
  5
1504
330
14F9
100
AcDbEntity
  8
0
100
AcDbBlockEnd
  0
BLOCK
  5
1512
330
1506
100
AcDbEntity
  8
0
100
AcDbBlockBegin
  2
*D8
 70
     1
 10
0.0
 20
0.0
 30
0.0
  3
*D8
  1

  0
LINE
  5
16D9
330
1506
100
AcDbEntity
  8
SUNPO
 62
   144
100
AcDbLine
 10
2053.780947421532
 20
2170.0
 30
0.0
 11
1930.0
 21
2170.0
 31
0.0
  0
LINE
  5
16DA
330
1506
100
AcDbEntity
  8
SUNPO
 62
   144
100
AcDbLine
 10
1920.0
 20
2100.0
 30
0.0
 11
1930.0
 21
2100.0
 31
0.0
  0
LINE
  5
16DB
330
1506
100
AcDbEntity
  8
SUNPO
 62
   144
100
AcDbLine
 10
1940.0
 20
2220.0
 30
0.0
 11
1940.0
 21
2270.0
 31
0.0
  0
LINE
  5
16DC
330
1506
100
AcDbEntity
  8
SUNPO
 62
   144
100
AcDbLine
 10
1940.0
 20
2050.0
 30
0.0
 11
1940.0
 21
2000.0
 31
0.0
  0
MTEXT
  5
16DD
330
1506
100
AcDbEntity
  8
SUNPO
 62
     7
100
AcDbMText
 10
1902.5
 20
2000.0
 30
0.0
 40
50.0
 41
0.0
 71
     5
 72
     1
  1
\A2;70
  7
ADD
 11
0.0000000000000001
 21
1.0
 31
0.0
1001
ACAD
1000
MTEXTBEGIN
1070
    73
1070
     1
1070
    44
1040
1.0
1070
    74
1070
     0
1000
MTEXTEND
1000
MTEXTBEGIN
1070
    73
1070
     1
1070
    44
1040
1.0
1070
    74
1070
     0
1000
MTEXTEND
  0
LINE
  5
16DE
330
1506
100
AcDbEntity
  8
SUNPO
 62
   144
100
AcDbLine
 10
1940.0
 20
2170.0
 30
0.0
 11
1940.0
 21
2100.0
 31
0.0
  0
SOLID
  5
16DF
330
1506
100
AcDbEntity
  8
SUNPO
 62
   144
100
AcDbTrace
 10
1931.666666666665
 20
2220.0
 30
0.0
 11
1948.333333333333
 21
2220.0
 31
0.0
 12
1940.0
 22
2170.0
 32
0.0
 13
1940.0
 23
2170.0
 33
0.0
  0
SOLID
  5
16E0
330
1506
100
AcDbEntity
  8
SUNPO
 62
   144
100
AcDbTrace
 10
1931.666666666665
 20
2050.0
 30
0.0
 11
1948.333333333333
 21
2050.0
 31
0.0
 12
1940.0
 22
2100.0
 32
0.0
 13
1940.0
 23
2100.0
 33
0.0
  0
POINT
  5
16E1
330
1506
100
AcDbEntity
  8
DEFPOINTS
 62
     0
100
AcDbPoint
 10
2073.780947421532
 20
2170.0
 30
0.0
  0
POINT
  5
16E2
330
1506
100
AcDbEntity
  8
DEFPOINTS
 62
     0
100
AcDbPoint
 10
1940.0
 20
2100.0
 30
0.0
  0
POINT
  5
16E3
330
1506
100
AcDbEntity
  8
DEFPOINTS
 62
     0
100
AcDbPoint
 10
1940.0
 20
2100.0
 30
0.0
  0
ENDBLK
  5
1513
330
1506
100
AcDbEntity
  8
0
100
AcDbBlockEnd
  0
BLOCK
  5
1540
330
1536
100
AcDbEntity
  8
0
100
AcDbBlockBegin
  2
*D9
 70
     1
 10
0.0
 20
0.0
 30
0.0
  3
*D9
  1

  0
LINE
  5
16E4
330
1536
100
AcDbEntity
  8
SUNPO
 62
   144
100
AcDbLine
 10
1725.0
 20
2080.0
 30
0.0
 11
1725.0
 21
1854.510933169951
 31
0.0
  0
LINE
  5
16E5
330
1536
100
AcDbEntity
  8
SUNPO
 62
   144
100
AcDbLine
 10
2155.0
 20
2080.0
 30
0.0
 11
2155.0
 21
1854.510933169951
 31
0.0
  0
LINE
  5
16E6
330
1536
100
AcDbEntity
  8
SUNPO
 62
   144
100
AcDbLine
 10
1775.0
 20
1864.510933169951
 30
0.0
 11
2105.0
 21
1864.510933169951
 31
0.0
  0
SOLID
  5
16E7
330
1536
100
AcDbEntity
  8
SUNPO
 62
   144
100
AcDbTrace
 10
1775.0
 20
1872.844266503284
 30
0.0
 11
1775.0
 21
1856.177599836618
 31
0.0
 12
1725.0
 22
1864.510933169951
 32
0.0
 13
1725.0
 23
1864.510933169951
 33
0.0
  0
SOLID
  5
16E8
330
1536
100
AcDbEntity
  8
SUNPO
 62
   144
100
AcDbTrace
 10
2105.0
 20
1872.844266503284
 30
0.0
 11
2105.0
 21
1856.177599836618
 31
0.0
 12
2155.0
 22
1864.510933169951
 32
0.0
 13
2155.0
 23
1864.510933169951
 33
0.0
  0
MTEXT
  5
16E9
330
1536
100
AcDbEntity
  8
SUNPO
 62
     7
100
AcDbMText
 10
1940.0
 20
1902.01093316995
 30
0.0
 40
50.0
 41
0.0
 71
     5
 72
     1
  1
\A2;430
  7
ADD
1001
ACAD
1000
MTEXTBEGIN
1070
    73
1070
     1
1070
    44
1040
1.0
1070
    74
1070
     0
1000
MTEXTEND
1000
MTEXTBEGIN
1070
    73
1070
     1
1070
    44
1040
1.0
1070
    74
1070
     0
1000
MTEXTEND
  0
POINT
  5
16EA
330
1536
100
AcDbEntity
  8
DEFPOINTS
 62
     0
100
AcDbPoint
 10
1725.0
 20
2100.0
 30
0.0
  0
POINT
  5
16EB
330
1536
100
AcDbEntity
  8
DEFPOINTS
 62
     0
100
AcDbPoint
 10
2155.0
 20
2100.0
 30
0.0
  0
POINT
  5
16EC
330
1536
100
AcDbEntity
  8
DEFPOINTS
 62
     0
100
AcDbPoint
 10
2155.0
 20
1864.510933169951
 30
0.0
  0
ENDBLK
  5
1541
330
1536
100
AcDbEntity
  8
0
100
AcDbBlockEnd
  0
BLOCK
  5
154A
330
1543
100
AcDbEntity
  8
0
100
AcDbBlockBegin
  2
*D10
 70
     1
 10
0.0
 20
0.0
 30
0.0
  3
*D10
  1

  0
LINE
  5
16ED
330
1543
100
AcDbEntity
  8
SUNPO
 62
   144
100
AcDbLine
 10
1563.696824174319
 20
1935.958646715802
 30
0.0
 11
1731.389462360592
 21
2146.188846996611
 31
0.0
  0
MTEXT
  5
16EE
330
1543
100
AcDbEntity
  8
SUNPO
 62
     7
100
AcDbMText
 10
1582.26286831565
 20
2019.370863586652
 30
0.0
 40
50.0
 41
0.0
 71
     5
 72
     1
  1
\A2;R70
  7
ADD
 11
0.6235799184822782
 21
0.7817596083615701
 31
0.0
1001
ACAD
1000
MTEXTBEGIN
1070
    73
1070
     1
1070
    44
1040
1.0
1070
    74
1070
     0
1000
MTEXTEND
1000
MTEXTBEGIN
1070
    73
1070
     1
1070
    44
1040
1.0
1070
    74
1070
     0
1000
MTEXTEND
  0
LINE
  5
16EF
330
1543
100
AcDbEntity
  8
SUNPO
 62
   144
100
AcDbLine
 10
1806.219052578465
 20
2240.0
 30
0.0
 11
1762.568458284707
 21
2185.27682741469
 31
0.0
  0
SOLID
  5
16F0
330
1543
100
AcDbEntity
  8
SUNPO
 62
   144
100
AcDbTrace
 10
1724.87479895758
 20
2151.385346317297
 30
0.0
 11
1737.904125763605
 21
2140.992347675926
 31
0.0
 12
1762.568458284707
 22
2185.27682741469
 32
0.0
 13
1762.568458284707
 23
2185.27682741469
 33
0.0
  0
POINT
  5
16F1
330
1543
100
AcDbEntity
  8
DEFPOINTS
 62
     0
100
AcDbPoint
 10
1762.568458284707
 20
2185.27682741469
 30
0.0
  0
POINT
  5
16F2
330
1543
100
AcDbEntity
  8
DEFPOINTS
 62
     0
100
AcDbPoint
 10
1806.219052578465
 20
2240.0
 30
0.0
  0
ENDBLK
  5
154B
330
1543
100
AcDbEntity
  8
0
100
AcDbBlockEnd
  0
BLOCK
  5
155A
330
154D
100
AcDbEntity
  8
0
100
AcDbBlockBegin
  2
*D11
 70
     1
 10
0.0
 20
0.0
 30
0.0
  3
*D11
  1

  0
LINE
  5
16F3
330
154D
100
AcDbEntity
  8
SUNPO
 62
   144
100
AcDbLine
 10
2273.11679377593
 20
2099.999999999999
 30
0.0
 11
2343.366666175675
 21
2100.0
 31
0.0
  0
LINE
  5
16F4
330
154D
100
AcDbEntity
  8
SUNPO
 62
   144
100
AcDbLine
 10
2223.801226532822
 20
2168.801226532821
 30
0.0
 11
2288.195347002323
 21
2233.195347002322
 31
0.0
  0
LINE
  5
16F5
330
154D
100
AcDbEntity
  8
SUNPO
 62
   144
100
AcDbLine
 10
2319.789312161979
 20
2168.257968031624
 30
0.0
 11
2412.177265413109
 21
2206.526311268133
 31
0.0
  0
ARC
  5
16F6
330
154D
100
AcDbEntity
  8
SUNPO
 62
   144
100
AcDbCircle
 10
2154.999999999998
 20
2099.999999999999
 30
0.0
 40
178.3666661756763
100
AcDbArc
 50
16.11429281844922
 51
28.8857071815507
  0
SOLID
  5
16F7
330
154D
100
AcDbEntity
  8
SUNPO
 62
   144
100
AcDbTrace
 10
2334.609703324678
 20
2150.674444280036
 30
0.0
 11
2318.107557225802
 21
2148.338432313225
 31
0.0
 12
2333.366666175676
 22
2099.999999999999
 32
0.0
 13
2333.366666175676
 23
2099.999999999999
 33
0.0
  0
SOLID
  5
16F8
330
154D
100
AcDbEntity
  8
SUNPO
 62
   144
100
AcDbTrace
 10
2304.514893057747
 20
2181.154026496528
 30
0.0
 11
2317.83548237106
 21
2191.17099600451
 31
0.0
 12
2281.124279190458
 22
2226.124279190457
 32
0.0
 13
2281.124279190458
 23
2226.124279190457
 33
0.0
  0
MTEXT
  5
16F9
330
154D
100
AcDbEntity
  8
SUNPO
 62
     7
100
AcDbMText
 10
2446.822747882282
 20
2220.876939981824
 30
0.0
 40
50.0
 41
0.0
 71
     5
 72
     1
  1
\A2;45°
  7
ADD
 11
0.3826834323650898
 21
-0.9238795325112867
 31
0.0
1001
ACAD
1000
MTEXTBEGIN
1070
    73
1070
     1
1070
    44
1040
1.0
1070
    74
1070
     0
1000
MTEXTEND
1000
MTEXTBEGIN
1070
    73
1070
     1
1070
    44
1040
1.0
1070
    74
1070
     0
1000
MTEXTEND
  0
POINT
  5
16FA
330
154D
100
AcDbEntity
  8
DEFPOINTS
 62
     0
100
AcDbPoint
 10
2327.288969408165
 20
2146.164690217708
 30
0.0
  0
POINT
  5
16FB
330
154D
100
AcDbEntity
  8
DEFPOINTS
 62
     0
100
AcDbPoint
 10
2154.999999999998
 20
2099.999999999999
 30
0.0
  0
POINT
  5
16FC
330
154D
100
AcDbEntity
  8
DEFPOINTS
 62
     0
100
AcDbPoint
 10
2154.999999999998
 20
2099.999999999999
 30
0.0
  0
POINT
  5
16FD
330
154D
100
AcDbEntity
  8
DEFPOINTS
 62
     0
100
AcDbPoint
 10
2209.65909090909
 20
2154.65909090909
 30
0.0
  0
POINT
  5
16FE
330
154D
100
AcDbEntity
  8
DEFPOINTS
 62
     0
100
AcDbPoint
 10
2253.11679377593
 20
2099.999999999999
 30
0.0
  0
ENDBLK
  5
155B
330
154D
100
AcDbEntity
  8
0
100
AcDbBlockEnd
  0
ENDSEC
  0
SECTION
  2
ENTITIES
  0
LINE
  5
60A
330
1F
100
AcDbEntity
  8
HOJO
100
AcDbLine
 10
360.0
 20
260.0
 30
0.0
 11
5580.0
 21
260.0
 31
0.0
  0
LINE
  5
60B
330
1F
100
AcDbEntity
  8
HOJO
100
AcDbLine
 10
360.0
 20
560.0
 30
0.0
 11
5580.0
 21
560.0
 31
0.0
  0
LINE
  5
60C
330
1F
100
AcDbEntity
  8
HOJO
100
AcDbLine
 10
360.0
 20
260.0
 30
0.0
 11
360.0
 21
560.0
 31
0.0
  0
LINE
  5
60D
330
1F
100
AcDbEntity
  8
HOJO
100
AcDbLine
 10
2360.0
 20
260.0
 30
0.0
 11
2360.0
 21
560.0
 31
0.0
  0
LINE
  5
60F
330
1F
100
AcDbEntity
  8
HOJO
100
AcDbLine
 10
3160.0
 20
260.0
 30
0.0
 11
3160.0
 21
560.0
 31
0.0
  0
LINE
  5
610
330
1F
100
AcDbEntity
  8
HOJO
100
AcDbLine
 10
3660.0
 20
260.0
 30
0.0
 11
3660.0
 21
560.0
 31
0.0
  0
LINE
  5
140C
330
1F
100
AcDbEntity
  8
3C1
100
AcDbLine
 10
3720.0
 20
2100.0
 30
0.0
 11
4320.0
 21
2100.0
 31
0.0
  0
LINE
  5
140D
330
1F
100
AcDbEntity
  8
3C1
100
AcDbLine
 10
4320.0
 20
2100.0
 30
0.0
 11
4320.0
 21
2620.0
 31
0.0
  0
LINE
  5
140E
330
1F
100
AcDbEntity
  8
3C1
100
AcDbLine
 10
4320.0
 20
2620.0
 30
0.0
 11
3720.0
 21
2620.0
 31
0.0
  0
LINE
  5
140F
330
1F
100
AcDbEntity
  8
3C1
100
AcDbLine
 10
3720.0
 20
2100.0
 30
0.0
 11
3720.0
 21
2620.0
 31
0.0
  0
LINE
  5
1410
330
1F
100
AcDbEntity
  8
3C1
100
AcDbLine
 10
3720.0
 20
2170.0
 30
0.0
 11
4320.0
 21
2170.0
 31
0.0
  0
LINE
  5
1427
330
1F
100
AcDbEntity
  8
3C1
100
AcDbLine
 10
2155.0
 20
2100.0
 30
0.0
 11
1724.999999999999
 21
2100.0
 31
0.0
  0
LINE
  5
142A
330
1F
100
AcDbEntity
  8
3C1
100
AcDbLine
 10
1660.0
 20
2620.0
 30
0.0
 11
1714.999999999999
 21
2620.0
 31
0.0
  0
LINE
  5
142B
330
1F
100
AcDbEntity
  8
3C1
100
AcDbLine
 10
2073.780947421532
 20
2170.0
 30
0.0
 11
1806.219052578465
 21
2170.0
 31
0.0
  0
LINE
  5
14AD
330
1F
100
AcDbEntity
  8
DEFPOINTS
100
AcDbLine
 10
1940.0
 20
2620.0
 30
0.0
 11
1940.0
 21
2100.0
 31
0.0
  0
LINE
  5
14B4
330
1F
100
AcDbEntity
  8
3C1
100
AcDbLine
 10
2164.999999999999
 20
2620.0
 30
0.0
 11
2220.0
 21
2620.0
 31
0.0
  0
LINE
  5
14B5
330
1F
100
AcDbEntity
  8
3C1
100
AcDbLine
 10
1714.999999999999
 20
2620.0
 30
0.0
 11
1736.326827854087
 21
2236.117098626422
 31
0.0
  0
LINE
  5
14B6
330
1F
100
AcDbEntity
  8
3C1
100
AcDbLine
 10
2164.999999999999
 20
2620.0
 30
0.0
 11
2143.673172145911
 21
2236.117098626422
 31
0.0
  0
LINE
  5
14B7
330
1F
100
AcDbEntity
  8
3C1
100
AcDbLine
 10
2220.0
 20
2620.0
 30
0.0
 11
2209.659090909091
 21
2154.659090909091
 31
0.0
  0
LINE
  5
14B8
330
1F
100
AcDbEntity
  8
3C1
100
AcDbLine
 10
1660.0
 20
2620.0
 30
0.0
 11
1670.340909090909
 21
2154.65909090909
 31
0.0
  0
LINE
  5
14BB
330
1F
100
AcDbEntity
  8
3C1
100
AcDbLine
 10
2155.0
 20
2100.0
 30
0.0
 11
2209.659090909091
 21
2154.659090909091
 31
0.0
  0
LINE
  5
14BC
330
1F
100
AcDbEntity
  8
3C1
100
AcDbLine
 10
1724.999999999999
 20
2100.0
 30
0.0
 11
1670.340909090909
 21
2154.65909090909
 31
0.0
  0
ARC
  5
14BE
330
1F
100
AcDbEntity
  8
3C1
100
AcDbCircle
 10
1806.219052578465
 20
2240.0
 30
0.0
 40
70.0
100
AcDbArc
 50
183.1798301198642
 51
270.0
  0
ARC
  5
14BF
330
1F
100
AcDbEntity
  8
3C1
100
AcDbCircle
 10
2073.780947421532
 20
2240.0
 30
0.0
 40
70.0
100
AcDbArc
 50
270.0
 51
356.8201698801357
  0
LINE
  5
155C
330
1F
100
AcDbEntity
  8
SUNPO
100
AcDbLine
 10
2210.0
 20
2640.0
 30
0.0
 11
2210.0
 21
2224.440963071907
 31
0.0
  0
LINE
  5
1706
330
1F
100
AcDbEntity
  8
SUNPO
 62
   144
100
AcDbLine
 10
2273.11679377593
 20
2099.999999999999
 30
0.0
 11
2343.366666175675
 21
2100.0
 31
0.0
  0
LINE
  5
1707
330
1F
100
AcDbEntity
  8
SUNPO
 62
   144
100
AcDbLine
 10
2223.801226532822
 20
2168.801226532821
 30
0.0
 11
2288.195347002323
 21
2233.195347002322
 31
0.0
  0
LINE
  5
1708
330
1F
100
AcDbEntity
  8
SUNPO
 62
   144
100
AcDbLine
 10
2319.789312161979
 20
2168.257968031624
 30
0.0
 11
2412.177265413109
 21
2206.526311268133
 31
0.0
  0
ARC
  5
1709
330
1F
100
AcDbEntity
  8
SUNPO
 62
   144
100
AcDbCircle
 10
2154.999999999998
 20
2099.999999999999
 30
0.0
 40
178.3666661756763
100
AcDbArc
 50
16.11429281844922
 51
28.8857071815507
  0
SOLID
  5
170A
330
1F
100
AcDbEntity
  8
SUNPO
 62
   144
100
AcDbTrace
 10
2334.609703324678
 20
2150.674444280036
 30
0.0
 11
2318.107557225802
 21
2148.338432313225
 31
0.0
 12
2333.366666175676
 22
2099.999999999999
 32
0.0
 13
2333.366666175676
 23
2099.999999999999
 33
0.0
  0
SOLID
  5
170B
330
1F
100
AcDbEntity
  8
SUNPO
 62
   144
100
AcDbTrace
 10
2304.514893057747
 20
2181.154026496528
 30
0.0
 11
2317.83548237106
 21
2191.17099600451
 31
0.0
 12
2281.124279190458
 22
2226.124279190457
 32
0.0
 13
2281.124279190458
 23
2226.124279190457
 33
0.0
  0
LINE
  5
170D
330
1F
100
AcDbEntity
  8
SUNPO
 62
   144
100
AcDbLine
 10
1563.696824174319
 20
1935.958646715802
 30
0.0
 11
1731.389462360592
 21
2146.188846996611
 31
0.0
  0
LINE
  5
170F
330
1F
100
AcDbEntity
  8
SUNPO
 62
   144
100
AcDbLine
 10
1806.219052578465
 20
2240.0
 30
0.0
 11
1762.568458284707
 21
2185.27682741469
 31
0.0
  0
SOLID
  5
1710
330
1F
100
AcDbEntity
  8
SUNPO
 62
   144
100
AcDbTrace
 10
1724.87479895758
 20
2151.385346317297
 30
0.0
 11
1737.904125763605
 21
2140.992347675926
 31
0.0
 12
1762.568458284707
 22
2185.27682741469
 32
0.0
 13
1762.568458284707
 23
2185.27682741469
 33
0.0
  0
LINE
  5
1711
330
1F
100
AcDbEntity
  8
SUNPO
 62
   144
100
AcDbLine
 10
1725.0
 20
2080.0
 30
0.0
 11
1725.0
 21
1854.510933169951
 31
0.0
  0
LINE
  5
1712
330
1F
100
AcDbEntity
  8
SUNPO
 62
   144
100
AcDbLine
 10
2155.0
 20
2080.0
 30
0.0
 11
2155.0
 21
1854.510933169951
 31
0.0
  0
LINE
  5
1713
330
1F
100
AcDbEntity
  8
SUNPO
 62
   144
100
AcDbLine
 10
1775.0
 20
1864.510933169951
 30
0.0
 11
2105.0
 21
1864.510933169951
 31
0.0
  0
SOLID
  5
1714
330
1F
100
AcDbEntity
  8
SUNPO
 62
   144
100
AcDbTrace
 10
1775.0
 20
1872.844266503284
 30
0.0
 11
1775.0
 21
1856.177599836618
 31
0.0
 12
1725.0
 22
1864.510933169951
 32
0.0
 13
1725.0
 23
1864.510933169951
 33
0.0
  0
SOLID
  5
1715
330
1F
100
AcDbEntity
  8
SUNPO
 62
   144
100
AcDbTrace
 10
2105.0
 20
1872.844266503284
 30
0.0
 11
2105.0
 21
1856.177599836618
 31
0.0
 12
2155.0
 22
1864.510933169951
 32
0.0
 13
2155.0
 23
1864.510933169951
 33
0.0
  0
LINE
  5
1717
330
1F
100
AcDbEntity
  8
SUNPO
 62
   144
100
AcDbLine
 10
2053.780947421532
 20
2170.0
 30
0.0
 11
1930.0
 21
2170.0
 31
0.0
  0
LINE
  5
1718
330
1F
100
AcDbEntity
  8
SUNPO
 62
   144
100
AcDbLine
 10
1920.0
 20
2100.0
 30
0.0
 11
1930.0
 21
2100.0
 31
0.0
  0
LINE
  5
1719
330
1F
100
AcDbEntity
  8
SUNPO
 62
   144
100
AcDbLine
 10
1940.0
 20
2220.0
 30
0.0
 11
1940.0
 21
2270.0
 31
0.0
  0
LINE
  5
171A
330
1F
100
AcDbEntity
  8
SUNPO
 62
   144
100
AcDbLine
 10
1940.0
 20
2050.0
 30
0.0
 11
1940.0
 21
2000.0
 31
0.0
  0
LINE
  5
171C
330
1F
100
AcDbEntity
  8
SUNPO
 62
   144
100
AcDbLine
 10
1940.0
 20
2170.0
 30
0.0
 11
1940.0
 21
2100.0
 31
0.0
  0
SOLID
  5
171D
330
1F
100
AcDbEntity
  8
SUNPO
 62
   144
100
AcDbTrace
 10
1931.666666666665
 20
2220.0
 30
0.0
 11
1948.333333333333
 21
2220.0
 31
0.0
 12
1940.0
 22
2170.0
 32
0.0
 13
1940.0
 23
2170.0
 33
0.0
  0
SOLID
  5
171E
330
1F
100
AcDbEntity
  8
SUNPO
 62
   144
100
AcDbTrace
 10
1931.666666666665
 20
2050.0
 30
0.0
 11
1948.333333333333
 21
2050.0
 31
0.0
 12
1940.0
 22
2100.0
 32
0.0
 13
1940.0
 23
2100.0
 33
0.0
  0
LINE
  5
171F
330
1F
100
AcDbEntity
  8
SUNPO
 62
   144
100
AcDbLine
 10
2144.999999999999
 20
2620.0
 30
0.0
 11
1930.0
 21
2620.0
 31
0.0
  0
LINE
  5
1720
330
1F
100
AcDbEntity
  8
SUNPO
 62
   144
100
AcDbLine
 10
2053.780947421532
 20
2170.0
 30
0.0
 11
1930.0
 21
2170.0
 31
0.0
  0
LINE
  5
1721
330
1F
100
AcDbEntity
  8
SUNPO
 62
   144
100
AcDbLine
 10
1940.0
 20
2570.0
 30
0.0
 11
1940.0
 21
2220.0
 31
0.0
  0
SOLID
  5
1722
330
1F
100
AcDbEntity
  8
SUNPO
 62
   144
100
AcDbTrace
 10
1931.666666666665
 20
2570.0
 30
0.0
 11
1948.333333333333
 21
2570.0
 31
0.0
 12
1940.0
 22
2620.0
 32
0.0
 13
1940.0
 23
2620.0
 33
0.0
  0
SOLID
  5
1723
330
1F
100
AcDbEntity
  8
SUNPO
 62
   144
100
AcDbTrace
 10
1931.666666666665
 20
2220.0
 30
0.0
 11
1948.333333333333
 21
2220.0
 31
0.0
 12
1940.0
 22
2170.0
 32
0.0
 13
1940.0
 23
2170.0
 33
0.0
  0
LINE
  5
1725
330
1F
100
AcDbEntity
  8
SUNPO
 62
   144
100
AcDbLine
 10
2165.0
 20
2640.0
 30
0.0
 11
2165.0
 21
2760.695157456655
 31
0.0
  0
LINE
  5
1726
330
1F
100
AcDbEntity
  8
SUNPO
 62
   144
100
AcDbLine
 10
2220.0
 20
2640.0
 30
0.0
 11
2220.0
 21
2760.695157456655
 31
0.0
  0
LINE
  5
1727
330
1F
100
AcDbEntity
  8
SUNPO
 62
   144
100
AcDbLine
 10
2115.0
 20
2750.695157456656
 30
0.0
 11
2065.0
 21
2750.695157456656
 31
0.0
  0
LINE
  5
1728
330
1F
100
AcDbEntity
  8
SUNPO
 62
   144
100
AcDbLine
 10
2270.0
 20
2750.695157456656
 30
0.0
 11
2320.0
 21
2750.695157456656
 31
0.0
  0
LINE
  5
172A
330
1F
100
AcDbEntity
  8
SUNPO
 62
   144
100
AcDbLine
 10
2165.0
 20
2750.695157456656
 30
0.0
 11
2220.0
 21
2750.695157456656
 31
0.0
  0
SOLID
  5
172B
330
1F
100
AcDbEntity
  8
SUNPO
 62
   144
100
AcDbTrace
 10
2115.0
 20
2759.028490789989
 30
0.0
 11
2115.0
 21
2742.361824123322
 31
0.0
 12
2165.0
 22
2750.695157456656
 32
0.0
 13
2165.0
 23
2750.695157456656
 33
0.0
  0
SOLID
  5
172C
330
1F
100
AcDbEntity
  8
SUNPO
 62
   144
100
AcDbTrace
 10
2270.0
 20
2759.028490789989
 30
0.0
 11
2270.0
 21
2742.361824123322
 31
0.0
 12
2220.0
 22
2750.695157456656
 32
0.0
 13
2220.0
 23
2750.695157456656
 33
0.0
  0
LINE
  5
172D
330
1F
100
AcDbEntity
  8
SUNPO
 62
   144
100
AcDbLine
 10
1714.999999999999
 20
2640.0
 30
0.0
 11
1714.999999999999
 21
2760.695157456655
 31
0.0
  0
LINE
  5
172E
330
1F
100
AcDbEntity
  8
SUNPO
 62
   144
100
AcDbLine
 10
2165.0
 20
2640.0
 30
0.0
 11
2165.0
 21
2760.695157456655
 31
0.0
  0
LINE
  5
172F
330
1F
100
AcDbEntity
  8
SUNPO
 62
   144
100
AcDbLine
 10
1764.999999999999
 20
2750.695157456656
 30
0.0
 11
2115.0
 21
2750.695157456656
 31
0.0
  0
SOLID
  5
1730
330
1F
100
AcDbEntity
  8
SUNPO
 62
   144
100
AcDbTrace
 10
1764.999999999999
 20
2759.028490789989
 30
0.0
 11
1764.999999999999
 21
2742.361824123322
 31
0.0
 12
1714.999999999999
 22
2750.695157456656
 32
0.0
 13
1714.999999999999
 23
2750.695157456656
 33
0.0
  0
SOLID
  5
1731
330
1F
100
AcDbEntity
  8
SUNPO
 62
   144
100
AcDbTrace
 10
2115.0
 20
2759.028490789989
 30
0.0
 11
2115.0
 21
2742.361824123322
 31
0.0
 12
2165.0
 22
2750.695157456656
 32
0.0
 13
2165.0
 23
2750.695157456656
 33
0.0
  0
LINE
  5
1733
330
1F
100
AcDbEntity
  8
SUNPO
 62
   144
100
AcDbLine
 10
2140.0
 20
2237.305571705586
 30
0.0
 11
2140.0
 21
2669.445157456655
 31
0.0
  0
LINE
  5
1734
330
1F
100
AcDbEntity
  8
SUNPO
 62
   144
100
AcDbLine
 10
2210.0
 20
2640.0
 30
0.0
 11
2210.0
 21
2669.445157456655
 31
0.0
  0
LINE
  5
1735
330
1F
100
AcDbEntity
  8
SUNPO
 62
   144
100
AcDbLine
 10
2090.0
 20
2659.445157456655
 30
0.0
 11
2040.0
 21
2659.445157456655
 31
0.0
  0
LINE
  5
1736
330
1F
100
AcDbEntity
  8
SUNPO
 62
   144
100
AcDbLine
 10
2260.0
 20
2659.445157456655
 30
0.0
 11
2310.0
 21
2659.445157456655
 31
0.0
  0
LINE
  5
1738
330
1F
100
AcDbEntity
  8
SUNPO
 62
   144
100
AcDbLine
 10
2140.0
 20
2659.445157456655
 30
0.0
 11
2210.0
 21
2659.445157456655
 31
0.0
  0
SOLID
  5
1739
330
1F
100
AcDbEntity
  8
SUNPO
 62
   144
100
AcDbTrace
 10
2090.0
 20
2667.778490789989
 30
0.0
 11
2090.0
 21
2651.111824123322
 31
0.0
 12
2140.0
 22
2659.445157456655
 32
0.0
 13
2140.0
 23
2659.445157456655
 33
0.0
  0
SOLID
  5
173A
330
1F
100
AcDbEntity
  8
SUNPO
 62
   144
100
AcDbTrace
 10
2260.0
 20
2667.778490789989
 30
0.0
 11
2260.0
 21
2651.111824123322
 31
0.0
 12
2210.0
 22
2659.445157456655
 32
0.0
 13
2210.0
 23
2659.445157456655
 33
0.0
  0
LINE
  5
173B
330
1F
100
AcDbEntity
  8
SUNPO
 62
   144
100
AcDbLine
 10
1740.0
 20
2237.305571705584
 30
0.0
 11
1740.0
 21
2669.445157456655
 31
0.0
  0
LINE
  5
173C
330
1F
100
AcDbEntity
  8
SUNPO
 62
   144
100
AcDbLine
 10
2140.0
 20
2237.305571705586
 30
0.0
 11
2140.0
 21
2669.445157456655
 31
0.0
  0
LINE
  5
173D
330
1F
100
AcDbEntity
  8
SUNPO
 62
   144
100
AcDbLine
 10
1790.0
 20
2659.445157456655
 30
0.0
 11
2090.0
 21
2659.445157456655
 31
0.0
  0
SOLID
  5
173E
330
1F
100
AcDbEntity
  8
SUNPO
 62
   144
100
AcDbTrace
 10
1790.0
 20
2667.778490789989
 30
0.0
 11
1790.0
 21
2651.111824123322
 31
0.0
 12
1740.0
 22
2659.445157456655
 32
0.0
 13
1740.0
 23
2659.445157456655
 33
0.0
  0
SOLID
  5
173F
330
1F
100
AcDbEntity
  8
SUNPO
 62
   144
100
AcDbTrace
 10
2090.0
 20
2667.778490789989
 30
0.0
 11
2090.0
 21
2651.111824123322
 31
0.0
 12
2140.0
 22
2659.445157456655
 32
0.0
 13
2140.0
 23
2659.445157456655
 33
0.0
  0
LINE
  5
1741
330
1F
100
AcDbEntity
  8
SUNPO
 62
   144
100
AcDbLine
 10
3720.0
 20
2080.0
 30
0.0
 11
3720.0
 21
1866.27040963194
 31
0.0
  0
LINE
  5
1742
330
1F
100
AcDbEntity
  8
SUNPO
 62
   144
100
AcDbLine
 10
4320.0
 20
2080.0
 30
0.0
 11
4320.0
 21
1866.27040963194
 31
0.0
  0
LINE
  5
1743
330
1F
100
AcDbEntity
  8
SUNPO
 62
   144
100
AcDbLine
 10
3770.0
 20
1876.270409631941
 30
0.0
 11
4270.0
 21
1876.270409631941
 31
0.0
  0
SOLID
  5
1744
330
1F
100
AcDbEntity
  8
SUNPO
 62
   144
100
AcDbTrace
 10
3770.0
 20
1884.603742965273
 30
0.0
 11
3770.0
 21
1867.937076298606
 31
0.0
 12
3720.0
 22
1876.270409631941
 32
0.0
 13
3720.0
 23
1876.270409631941
 33
0.0
  0
SOLID
  5
1745
330
1F
100
AcDbEntity
  8
SUNPO
 62
   144
100
AcDbTrace
 10
4270.0
 20
1884.603742965273
 30
0.0
 11
4270.0
 21
1867.937076298606
 31
0.0
 12
4320.0
 22
1876.270409631941
 32
0.0
 13
4320.0
 23
1876.270409631941
 33
0.0
  0
TEXT
  5
1747
330
1F
100
AcDbEntity
  8
SUNPO
100
AcDbText
 10
2474.612738260886
 20
334.2082387347982
 30
0.0
 40
100.0
  1
Ｕ_450
  7
ADD
100
AcDbText
1001
ACAD
1000
MTEXTBEGIN
1070
    73
1070
     1
1070
    44
1040
1.0
1070
    74
1070
     0
1000
MTEXTEND
1000
MTEXTBEGIN
1070
    73
1070
     1
1070
    44
1040
1.0
1070
    74
1070
     0
1000
MTEXTEND
1000
MTEXTBEGIN
1070
    73
1070
     1
1070
    44
1040
1.0
1070
    74
1070
     0
1000
MTEXTEND
1000
MTEXTBEGIN
1070
    73
1070
     1
1070
    44
1040
1.0
1070
    74
1070
     0
1000
MTEXTEND
1000
MTEXTBEGIN
1070
    73
1070
     1
1070
    44
1040
1.0
1070
    74
1070
     0
1000
MTEXTEND
  0
TEXT
  5
1748
330
1F
100
AcDbEntity
  8
SUNPO
100
AcDbText
 10
615.8709773606532
 20
347.6182270735043
 30
0.0
 40
100.0
  1
道路用上ぶた式Ｕ形側溝
  7
ADD
100
AcDbText
1001
ACAD
1000
MTEXTBEGIN
1070
    73
1070
     1
1070
    44
1040
1.0
1070
    74
1070
     0
1000
MTEXTEND
1000
MTEXTBEGIN
1070
    73
1070
     1
1070
    44
1040
1.0
1070
    74
1070
     0
1000
MTEXTEND
1000
MTEXTBEGIN
1070
    73
1070
     1
1070
    44
1040
1.0
1070
    74
1070
     0
1000
MTEXTEND
1000
MTEXTBEGIN
1070
    73
1070
     1
1070
    44
1040
1.0
1070
    74
1070
     0
1000
MTEXTEND
1000
MTEXTBEGIN
1070
    73
1070
     1
1070
    44
1040
1.0
1070
    74
1070
     0
1000
MTEXTEND
1000
MTEXTBEGIN
1070
    73
1070
     1
1070
    44
1040
1.0
1070
    74
1070
     0
1000
MTEXTEND
  0
TEXT
  5
1749
330
1F
100
AcDbEntity
  8
SUNPO
100
AcDbText
 10
3246.680311730542
 20
359.2274732162223
 30
0.0
 40
70.0
  1
１／２０
  7
ADD
100
AcDbText
1001
ACAD
1000
MTEXTBEGIN
1070
    73
1070
     1
1070
    44
1040
1.0
1070
    74
1070
     0
1000
MTEXTEND
1000
MTEXTBEGIN
1070
    73
1070
     1
1070
    44
1040
1.0
1070
    74
1070
     0
1000
MTEXTEND
1000
MTEXTBEGIN
1070
    73
1070
     1
1070
    44
1040
1.0
1070
    74
1070
     0
1000
MTEXTEND
1000
MTEXTBEGIN
1070
    73
1070
     1
1070
    44
1040
1.0
1070
    74
1070
     0
1000
MTEXTEND
1000
MTEXTBEGIN
1070
    73
1070
     1
1070
    44
1040
1.0
1070
    74
1070
     0
1000
MTEXTEND
1000
MTEXTBEGIN
1070
    73
1070
     1
1070
    44
1040
1.0
1070
    74
1070
     0
1000
MTEXTEND
1000
MTEXTBEGIN
1070
    73
1070
     1
1070
    44
1040
1.0
1070
    74
1070
     0
1000
MTEXTEND
1000
MTEXTBEGIN
1070
    73
1070
     1
1070
    44
1040
1.0
1070
    74
1070
     0
1000
MTEXTEND
1000
MTEXTBEGIN
1070
    73
1070
     1
1070
    44
1040
1.0
1070
    74
1070
     0
1000
MTEXTEND
1000
MTEXTBEGIN
1070
    73
1070
     1
1070
    44
1040
1.0
1070
    74
1070
     0
1000
MTEXTEND
1000
MTEXTBEGIN
1070
    73
1070
     1
1070
    44
1040
1.0
1070
    74
1070
     0
1000
MTEXTEND
  0
TEXT
  5
174A
330
1F
100
AcDbEntity
  8
SUNPO
100
AcDbText
 10
381.8862574011546
 20
488.6918916770627
 30
0.0
 40
50.0
  1
製品名
  7
ADD
100
AcDbText
1001
ACAD
1000
MTEXTBEGIN
1070
    73
1070
     1
1070
    44
1040
1.0
1070
    74
1070
     0
1000
MTEXTEND
1000
MTEXTBEGIN
1070
    73
1070
     1
1070
    44
1040
1.0
1070
    74
1070
     0
1000
MTEXTEND
1000
MTEXTBEGIN
1070
    73
1070
     1
1070
    44
1040
1.0
1070
    74
1070
     0
1000
MTEXTEND
1000
MTEXTBEGIN
1070
    73
1070
     1
1070
    44
1040
1.0
1070
    74
1070
     0
1000
MTEXTEND
1000
MTEXTBEGIN
1070
    73
1070
     1
1070
    44
1040
1.0
1070
    74
1070
     0
1000
MTEXTEND
1000
MTEXTBEGIN
1070
    73
1070
     1
1070
    44
1040
1.0
1070
    74
1070
     0
1000
MTEXTEND
1000
MTEXTBEGIN
1070
    73
1070
     1
1070
    44
1040
1.0
1070
    74
1070
     0
1000
MTEXTEND
1000
MTEXTBEGIN
1070
    73
1070
     1
1070
    44
1040
1.0
1070
    74
1070
     0
1000
MTEXTEND
1000
MTEXTBEGIN
1070
    73
1070
     1
1070
    44
1040
1.0
1070
    74
1070
     0
1000
MTEXTEND
1000
MTEXTBEGIN
1070
    73
1070
     1
1070
    44
1040
1.0
1070
    74
1070
     0
1000
MTEXTEND
1000
MTEXTBEGIN
1070
    73
1070
     1
1070
    44
1040
1.0
1070
    74
1070
     0
1000
MTEXTEND
  0
TEXT
  5
174B
330
1F
100
AcDbEntity
  8
SUNPO
100
AcDbText
 10
2376.290169028722
 20
494.4531736811823
 30
0.0
 40
50.0
  1
型式
  7
ADD
100
AcDbText
1001
ACAD
1000
MTEXTBEGIN
1070
    73
1070
     1
1070
    44
1040
1.0
1070
    74
1070
     0
1000
MTEXTEND
1000
MTEXTBEGIN
1070
    73
1070
     1
1070
    44
1040
1.0
1070
    74
1070
     0
1000
MTEXTEND
1000
MTEXTBEGIN
1070
    73
1070
     1
1070
    44
1040
1.0
1070
    74
1070
     0
1000
MTEXTEND
1000
MTEXTBEGIN
1070
    73
1070
     1
1070
    44
1040
1.0
1070
    74
1070
     0
1000
MTEXTEND
1000
MTEXTBEGIN
1070
    73
1070
     1
1070
    44
1040
1.0
1070
    74
1070
     0
1000
MTEXTEND
1000
MTEXTBEGIN
1070
    73
1070
     1
1070
    44
1040
1.0
1070
    74
1070
     0
1000
MTEXTEND
1000
MTEXTBEGIN
1070
    73
1070
     1
1070
    44
1040
1.0
1070
    74
1070
     0
1000
MTEXTEND
1000
MTEXTBEGIN
1070
    73
1070
     1
1070
    44
1040
1.0
1070
    74
1070
     0
1000
MTEXTEND
1000
MTEXTBEGIN
1070
    73
1070
     1
1070
    44
1040
1.0
1070
    74
1070
     0
1000
MTEXTEND
1000
MTEXTBEGIN
1070
    73
1070
     1
1070
    44
1040
1.0
1070
    74
1070
     0
1000
MTEXTEND
1000
MTEXTBEGIN
1070
    73
1070
     1
1070
    44
1040
1.0
1070
    74
1070
     0
1000
MTEXTEND
  0
TEXT
  5
174C
330
1F
100
AcDbEntity
  8
SUNPO
100
AcDbText
 10
3177.510249231657
 20
488.6918916770627
 30
0.0
 40
50.0
  1
縮尺
  7
ADD
100
AcDbText
1001
ACAD
1000
MTEXTBEGIN
1070
    73
1070
     1
1070
    44
1040
1.0
1070
    74
1070
     0
1000
MTEXTEND
1000
MTEXTBEGIN
1070
    73
1070
     1
1070
    44
1040
1.0
1070
    74
1070
     0
1000
MTEXTEND
1000
MTEXTBEGIN
1070
    73
1070
     1
1070
    44
1040
1.0
1070
    74
1070
     0
1000
MTEXTEND
1000
MTEXTBEGIN
1070
    73
1070
     1
1070
    44
1040
1.0
1070
    74
1070
     0
1000
MTEXTEND
1000
MTEXTBEGIN
1070
    73
1070
     1
1070
    44
1040
1.0
1070
    74
1070
     0
1000
MTEXTEND
1000
MTEXTBEGIN
1070
    73
1070
     1
1070
    44
1040
1.0
1070
    74
1070
     0
1000
MTEXTEND
1000
MTEXTBEGIN
1070
    73
1070
     1
1070
    44
1040
1.0
1070
    74
1070
     0
1000
MTEXTEND
1000
MTEXTBEGIN
1070
    73
1070
     1
1070
    44
1040
1.0
1070
    74
1070
     0
1000
MTEXTEND
1000
MTEXTBEGIN
1070
    73
1070
     1
1070
    44
1040
1.0
1070
    74
1070
     0
1000
MTEXTEND
1000
MTEXTBEGIN
1070
    73
1070
     1
1070
    44
1040
1.0
1070
    74
1070
     0
1000
MTEXTEND
1000
MTEXTBEGIN
1070
    73
1070
     1
1070
    44
1040
1.0
1070
    74
1070
     0
1000
MTEXTEND
  0
TEXT
  5
174D
330
1F
100
AcDbEntity
  8
SUNPO
100
AcDbText
 10
3730.870883051572
 20
352.2726133092144
 30
0.0
 40
100.0
  1
千葉県コンクリート製品協同組合
  7
ADD
100
AcDbText
1001
ACAD
1000
MTEXTBEGIN
1070
    73
1070
     1
1070
    44
1040
1.0
1070
    74
1070
     0
1000
MTEXTEND
1000
MTEXTBEGIN
1070
    73
1070
     1
1070
    44
1040
1.0
1070
    74
1070
     0
1000
MTEXTEND
1000
MTEXTBEGIN
1070
    73
1070
     1
1070
    44
1040
1.0
1070
    74
1070
     0
1000
MTEXTEND
1000
MTEXTBEGIN
1070
    73
1070
     1
1070
    44
1040
1.0
1070
    74
1070
     0
1000
MTEXTEND
1000
MTEXTBEGIN
1070
    73
1070
     1
1070
    44
1040
1.0
1070
    74
1070
     0
1000
MTEXTEND
1000
MTEXTBEGIN
1070
    73
1070
     1
1070
    44
1040
1.0
1070
    74
1070
     0
1000
MTEXTEND
1000
MTEXTBEGIN
1070
    73
1070
     1
1070
    44
1040
1.0
1070
    74
1070
     0
1000
MTEXTEND
1000
MTEXTBEGIN
1070
    73
1070
     1
1070
    44
1040
1.0
1070
    74
1070
     0
1000
MTEXTEND
1000
MTEXTBEGIN
1070
    73
1070
     1
1070
    44
1040
1.0
1070
    74
1070
     0
1000
MTEXTEND
1000
MTEXTBEGIN
1070
    73
1070
     1
1070
    44
1040
1.0
1070
    74
1070
     0
1000
MTEXTEND
1000
MTEXTBEGIN
1070
    73
1070
     1
1070
    44
1040
1.0
1070
    74
1070
     0
1000
MTEXTEND
  0
LINE
  5
174E
330
1F
100
AcDbEntity
  8
HOJO
100
AcDbLine
 10
360.0
 20
260.0
 30
0.0
 11
5580.0
 21
260.0
 31
0.0
  0
LINE
  5
174F
330
1F
100
AcDbEntity
  8
HOJO
100
AcDbLine
 10
5580.0
 20
260.0
 30
0.0
 11
5580.0
 21
3940.0
 31
0.0
  0
LINE
  5
1750
330
1F
100
AcDbEntity
  8
HOJO
100
AcDbLine
 10
5580.0
 20
3940.0
 30
0.0
 11
360.0
 21
3940.0
 31
0.0
  0
LINE
  5
1751
330
1F
100
AcDbEntity
  8
HOJO
100
AcDbLine
 10
360.0
 20
3940.0
 30
0.0
 11
360.0
 21
260.0
 31
0.0
  0
LINE
  5
1752
330
1F
100
AcDbEntity
  8
HOJO
100
AcDbLine
 10
0.0
 20
0.0
 30
0.0
 11
5940.0
 21
0.0
 31
0.0
  0
LINE
  5
1753
330
1F
100
AcDbEntity
  8
HOJO
100
AcDbLine
 10
5940.0
 20
0.0
 30
0.0
 11
5940.0
 21
4200.0
 31
0.0
  0
LINE
  5
1754
330
1F
100
AcDbEntity
  8
HOJO
100
AcDbLine
 10
5940.0
 20
4200.0
 30
0.0
 11
0.0
 21
4200.0
 31
0.0
  0
LINE
  5
1755
330
1F
100
AcDbEntity
  8
HOJO
100
AcDbLine
 10
0.0
 20
4200.0
 30
0.0
 11
0.0
 21
0.0
 31
0.0
  0
TEXT
  5
1756
330
1F
100
AcDbEntity
  8
SUNPO
 62
     7
100
AcDbText
 10
3947.380952380952
 20
1888.770409631941
 30
0.0
 40
50.0
  1
600
  7
ADD
100
AcDbText
  0
TEXT
  5
1757
330
1F
100
AcDbEntity
  8
SUNPO
 62
     7
100
AcDbText
 10
1868.571428571428
 20
2671.945157456655
 30
0.0
 40
50.0
  1
400
  7
ADD
100
AcDbText
  0
TEXT
  5
1758
330
1F
100
AcDbEntity
  8
SUNPO
 62
     7
100
AcDbText
 10
2247.255952380952
 20
2671.945157456655
 30
0.0
 40
50.0
  1
70
  7
ADD
100
AcDbText
  0
TEXT
  5
1759
330
1F
100
AcDbEntity
  8
SUNPO
 62
     7
100
AcDbText
 10
1868.571428571428
 20
2763.195157456655
 30
0.0
 40
50.0
  1
450
  7
ADD
100
AcDbText
  0
TEXT
  5
175A
330
1F
100
AcDbEntity
  8
SUNPO
 62
     7
100
AcDbText
 10
2272.380952380952
 20
2763.195157456655
 30
0.0
 40
50.0
  1
55
  7
ADD
100
AcDbText
  0
TEXT
  5
175B
330
1F
100
AcDbEntity
  8
SUNPO
 62
     7
100
AcDbText
 10
1927.5
 20
2323.571428571429
 30
0.0
 40
50.0
  1
450
 50
90.0
  7
ADD
100
AcDbText
  0
TEXT
  5
175C
330
1F
100
AcDbEntity
  8
SUNPO
 62
     7
100
AcDbText
 10
1927.5
 20
1952.380952380952
 30
0.0
 40
50.0
  1
70
 50
90.0
  7
ADD
100
AcDbText
  0
TEXT
  5
175D
330
1F
100
AcDbEntity
  8
SUNPO
 62
     7
100
AcDbText
 10
1868.571428571428
 20
1877.01093316995
 30
0.0
 40
50.0
  1
430
  7
ADD
100
AcDbText
  0
TEXT
  5
175E
330
1F
100
AcDbEntity
  8
SUNPO
 62
     7
100
AcDbText
 10
1555.78072168433
 20
1946.080061197907
 30
0.0
 40
50.0
  1
R70
 50
51.42196701362223
  7
ADD
100
AcDbText
  0
TEXT
  5
175F
330
1F
100
AcDbEntity
  8
SUNPO
 62
     7
100
AcDbText
 10
2392.655509465571
 20
2286.320073359923
 30
0.0
 40
50.0
  1
45°
 50
292.5
  7
ADD
100
AcDbText
  0
VIEWPORT
  5
72
330
1B
100
AcDbEntity
 67
     1
  8
0
100
AcDbViewport
 10
578.8914265011195
 20
308.2351889773414
 30
0.0
 40
1287.06613890523
 41
690.9223776620393
 68
     1
 69
     1
1001
ACAD
1000
MVIEW
1002
{
1070
    16
1010
0.0
1020
0.0
1030
0.0
1010
0.0
1020
0.0
1030
1.0
1040
0.0
1040
690.9223776620393
1040
578.8914265011195
1040
308.2351889773414
1040
50.0
1040
0.0
1040
0.0
1070
     0
1070
   100
1070
     1
1070
     1
1070
     0
1070
     0
1070
     0
1070
     0
1040
0.0
1040
0.0
1040
0.0
1040
10.0
1040
10.0
1040
10.0
1040
10.0
1070
     0
1002
{
1002
}
1002
}
  0
VIEWPORT
  5
74
330
1B
100
AcDbEntity
 67
     1
  8
VIEWPORT
100
AcDbViewport
 10
414.3779638919212
 20
277.3177265058034
 30
0.0
 40
840.0353682728887
 41
567.2285469943826
 68
     2
 69
     2
1001
ACAD
1000
MVIEW
1002
{
1070
    16
1010
0.0
1020
0.0
1030
0.0
1010
0.0
1020
0.0
1030
1.0
1040
0.0
1040
579.5583043546322
1040
424.4938908624541
1040
286.1973242720074
1040
50.0
1040
0.0
1040
0.0
1070
     0
1070
   100
1070
     1
1070
     1
1070
     0
1070
     0
1070
     0
1070
     0
1040
0.0
1040
0.0
1040
0.0
1040
10.0
1040
10.0
1040
10.0
1040
10.0
1070
     0
1002
{
1002
}
1002
}
  0
ENDSEC
  0
SECTION
  2
OBJECTS
  0
DICTIONARY
  5
C
330
0
100
AcDbDictionary
  3
ACAD_GROUP
350
D
  3
ACAD_LAYOUT
350
1A
  3
ACAD_MLINESTYLE
350
17
  3
ACAD_PLOTSETTINGS
350
19
  3
ACADDIM
350
F44
  3
DWGPROPS
350
4C7
1001
ACAD
1000
TREAT_AS_HARD
1070
     0
1000
TREAT_AS_HARD
1070
     0
  0
DICTIONARY
  5
65D
330
1F
100
AcDbDictionary
  3
ACAD_LAYOUTSELFREF
350
1781
1001
ACAD
1000
TREAT_AS_HARD
1070
     1
1000
TREAT_AS_HARD
1070
     0
  0
DICTIONARY
  5
65F
330
1B
100
AcDbDictionary
  3
ACAD_LAYOUTSELFREF
350
1780
1001
ACAD
1000
TREAT_AS_HARD
1070
     1
1000
TREAT_AS_HARD
1070
     0
  0
DICTIONARY
  5
D
102
{ACAD_REACTORS
330
C
102
}
330
C
100
AcDbDictionary
1001
ACAD
1000
TREAT_AS_HARD
1070
     0
1000
TREAT_AS_HARD
1070
     0
  0
DICTIONARY
  5
1A
102
{ACAD_REACTORS
330
C
102
}
330
C
100
AcDbDictionary
1001
ACAD
1000
TREAT_AS_HARD
1070
     0
1000
TREAT_AS_HARD
1070
     0
  0
DICTIONARY
  5
17
102
{ACAD_REACTORS
330
C
102
}
330
C
100
AcDbDictionary
  3
STANDARD
350
18
1001
ACAD
1000
TREAT_AS_HARD
1070
     0
1000
TREAT_AS_HARD
1070
     0
  0
DICTIONARY
  5
19
102
{ACAD_REACTORS
330
C
102
}
330
C
100
AcDbDictionary
1001
ACAD
1000
TREAT_AS_HARD
1070
     0
1000
TREAT_AS_HARD
1070
     0
  0
XRECORD
  5
F44
102
{ACAD_REACTORS
330
C
102
}
330
C
100
AcDbXrecord
 90
   990106
  3

 60
     0
 61
     0
 62
     1
 63
     3
 64
     0
 65
     0
 66
     0
 67
     3
 68
     1
 69
     0
 70
     0
 71
     0
 72
     0
 40
0.0
170
     0
  0
XRECORD
  5
4C7
102
{ACAD_REACTORS
330
C
102
}
330
C
100
AcDbXrecord
  1
DWGPROPS COOKIE
  2
印刷用テスト
  3
AutoCAD2000による建築設計
  4
鈴木 裕二
  6

  7

  8
U2
  9

300
=
301
=
302
=
303
=
304
=
305
=
306
=
307
=
308
=
309
=
 40
0.7653446875
 41
2451285.4846114
 42
2451333.689743032
  1

 90
        0
  0
XRECORD
  5
1781
102
{ACAD_REACTORS
330
65D
102
}
330
65D
100
AcDbXrecord
340
1F
  0
XRECORD
  5
1780
102
{ACAD_REACTORS
330
65F
102
}
330
65F
100
AcDbXrecord
340
1B
  0
MLINESTYLE
  5
18
102
{ACAD_REACTORS
330
17
102
}
330
17
100
AcDbMlineStyle
  2
STANDARD
 70
     0
  3

 62
   256
 51
90.0
 52
90.0
 71
     2
 49
0.5
 62
   256
  6
BYLAYER
 49
-0.5
 62
   256
  6
BYLAYER
  0
ENDSEC
  0
EOF
