  0
SECTION
  2
HEADER
  9
$ACADVER
  1
AC1012
  9
$DWGCODEPAGE
  3
dos932
  9
$INSBASE
 10
0.0
 20
0.0
 30
0.0
  9
$EXTMIN
 10
0.0
 20
0.0
 30
0.0
  9
$EXTMAX
 10
5940.0
 20
4200.0
 30
0.0
  9
$LIMMIN
 10
0.0
 20
0.0
  9
$LIMMAX
 10
5940.0
 20
4200.0
  9
$ORTHOMODE
 70
     0
  9
$REGENMODE
 70
     1
  9
$FILLMODE
 70
     1
  9
$QTEXTMODE
 70
     0
  9
$MIRRTEXT
 70
     0
  9
$DRAGMODE
 70
     2
  9
$LTSCALE
 40
10.0
  9
$OSMODE
 70
    33
  9
$ATTMODE
 70
     1
  9
$TEXTSIZE
 40
50.0
  9
$TRACEWID
 40
90.0
  9
$TEXTSTYLE
  7
ADD
  9
$CLAYER
  8
3C1
  9
$CELTYPE
  6
BYLAYER
  9
$CECOLOR
 62
   256
  9
$CELTSCALE
 40
1.0
  9
$DELOBJ
 70
     1
  9
$DISPSILH
 70
     0
  9
$DIMSCALE
 40
20.0
  9
$DIMASZ
 40
2.5
  9
$DIMEXO
 40
1.0
  9
$DIMDLI
 40
7.0
  9
$DIMRND
 40
0.0
  9
$DIMDLE
 40
0.0
  9
$DIMEXE
 40
0.5
  9
$DIMTP
 40
0.0
  9
$DIMTM
 40
0.0
  9
$DIMTXT
 40
2.5
  9
$DIMCEN
 40
2.5
  9
$DIMTSZ
 40
0.0
  9
$DIMTOL
 70
     0
  9
$DIMLIM
 70
     0
  9
$DIMTIH
 70
     0
  9
$DIMTOH
 70
     0
  9
$DIMSE1
 70
     0
  9
$DIMSE2
 70
     0
  9
$DIMTAD
 70
     1
  9
$DIMZIN
 70
     8
  9
$DIMBLK
  1

  9
$DIMASO
 70
     1
  9
$DIMSHO
 70
     1
  9
$DIMPOST
  1

  9
$DIMAPOST
  1

  9
$DIMALT
 70
     0
  9
$DIMALTD
 70
     3
  9
$DIMALTF
 40
0.03937007874016
  9
$DIMLFAC
 40
1.0
  9
$DIMTOFL
 70
     1
  9
$DIMTVP
 40
0.7
  9
$DIMTIX
 70
     1
  9
$DIMSOXD
 70
     0
  9
$DIMSAH
 70
     0
  9
$DIMBLK1
  1

  9
$DIMBLK2
  1

  9
$DIMSTYLE
  2
ADD
  9
$DIMCLRD
 70
   144
  9
$DIMCLRE
 70
   144
  9
$DIMCLRT
 70
     7
  9
$DIMTFAC
 40
1.0
  9
$DIMGAP
 40
0.625
  9
$DIMJUST
 70
     0
  9
$DIMSD1
 70
     0
  9
$DIMSD2
 70
     0
  9
$DIMTOLJ
 70
     2
  9
$DIMTZIN
 70
     8
  9
$DIMALTZ
 70
     0
  9
$DIMALTTZ
 70
     0
  9
$DIMFIT
 70
     5
  9
$DIMUPT
 70
     0
  9
$DIMUNIT
 70
     2
  9
$DIMDEC
 70
     1
  9
$DIMTDEC
 70
     1
  9
$DIMALTU
 70
     2
  9
$DIMALTTD
 70
     3
  9
$DIMTXSTY
  7
ADD
  9
$DIMAUNIT
 70
     0
  9
$LUNITS
 70
     2
  9
$LUPREC
 70
     4
  9
$SKETCHINC
 40
1.0
  9
$FILLETRAD
 40
15.0
  9
$AUNITS
 70
     0
  9
$AUPREC
 70
     1
  9
$MENU
  1
.
  9
$ELEVATION
 40
0.0
  9
$PELEVATION
 40
0.0
  9
$THICKNESS
 40
0.0
  9
$LIMCHECK
 70
     0
  9
$BLIPMODE
 70
     0
  9
$CHAMFERA
 40
10.0
  9
$CHAMFERB
 40
10.0
  9
$CHAMFERC
 40
20.0
  9
$CHAMFERD
 40
0.0
  9
$SKPOLY
 70
     0
  9
$TDCREATE
 40
2451801.142532870
  9
$TDUPDATE
 40
2452200.607520822
  9
$TDINDWG
 40
0.3033133912
  9
$TDUSRTIMER
 40
0.3033133912
  9
$USRTIMER
 70
     1
  9
$ANGBASE
 50
0.0
  9
$ANGDIR
 70
     0
  9
$PDMODE
 70
     0
  9
$PDSIZE
 40
0.0
  9
$PLINEWID
 40
0.0
  9
$COORDS
 70
     1
  9
$SPLFRAME
 70
     0
  9
$SPLINETYPE
 70
     6
  9
$SPLINESEGS
 70
     8
  9
$ATTDIA
 70
     0
  9
$ATTREQ
 70
     1
  9
$HANDLING
 70
-16383
  9
$HANDSEED
  5
1942
  9
$SURFTAB1
 70
     6
  9
$SURFTAB2
 70
     6
  9
$SURFTYPE
 70
     6
  9
$SURFU
 70
     6
  9
$SURFV
 70
     6
  9
$UCSNAME
  2

  9
$UCSORG
 10
0.0
 20
0.0
 30
0.0
  9
$UCSXDIR
 10
1.0
 20
0.0
 30
0.0
  9
$UCSYDIR
 10
0.0
 20
1.0
 30
0.0
  9
$PUCSNAME
  2

  9
$PUCSORG
 10
0.0
 20
0.0
 30
0.0
  9
$PUCSXDIR
 10
1.0
 20
0.0
 30
0.0
  9
$PUCSYDIR
 10
0.0
 20
1.0
 30
0.0
  9
$USERI1
 70
     0
  9
$USERI2
 70
     0
  9
$USERI3
 70
     0
  9
$USERI4
 70
     0
  9
$USERI5
 70
     0
  9
$USERR1
 40
841.0
  9
$USERR2
 40
594.0
  9
$USERR3
 40
1.0
  9
$USERR4
 40
0.0
  9
$USERR5
 40
0.0
  9
$WORLDVIEW
 70
     1
  9
$SHADEDGE
 70
     3
  9
$SHADEDIF
 70
    70
  9
$TILEMODE
 70
     1
  9
$MAXACTVP
 70
    48
  9
$PINSBASE
 10
0.0
 20
0.0
 30
0.0
  9
$PLIMCHECK
 70
     0
  9
$PEXTMIN
 10
-5.662975978526674
 20
-6.331907780761866
 30
-0.0015258207003583
  9
$PEXTMAX
 10
834.4213426047982
 20
560.9663709967471
 30
0.0000000349246037
  9
$PLIMMIN
 10
-7.500000000000001
 20
-20.0
  9
$PLIMMAX
 10
833.5000000000002
 20
574.0000000000001
  9
$UNITMODE
 70
     0
  9
$VISRETAIN
 70
     1
  9
$PLINEGEN
 70
     0
  9
$PSLTSCALE
 70
     1
  9
$TREEDEPTH
 70
  3020
  9
$PICKSTYLE
 70
     1
  9
$CMLSTYLE
  2
STANDARD
  9
$CMLJUST
 70
     0
  9
$CMLSCALE
 40
20.0
  9
$SAVEIMAGES
 70
     1
  0
ENDSEC
  0
SECTION
  2
CLASSES
  0
CLASS
  1
ACDBDICTIONARYWDFLT
  2
AcDbDictionaryWithDefault
  3
AutoCAD 2000
 90
    32768
280
     0
281
     0
  0
CLASS
  1
ACDBPLACEHOLDER
  2
AcDbPlaceHolder
  3
AutoCAD 2000
 90
    32768
280
     0
281
     0
  0
CLASS
  1
LAYOUT
  2
AcDbLayout
  3
AutoCAD 2000
 90
    32768
280
     0
281
     0
  0
CLASS
  1
RTEXT
  2
RText
  3
RText|AutoCAD Express Tool|expresstools@autodesk.com
 90
    32768
280
     0
281
     1
  0
CLASS
  1
DICTIONARYVAR
  2
AcDbDictionaryVar
  3
AutoCAD 2000
 90
    32768
280
     0
281
     0
  0
CLASS
  1
LONG_TRANSACTION
  2
AcDbLongTransaction
  3
AutoCAD 2000
 90
    32768
280
     0
281
     0
  0
CLASS
  1
LWPOLYLINE
  2
AcDbPolyline
  3
AutoCAD 2000
 90
    32768
280
     0
281
     1
  0
CLASS
  1
HATCH
  2
AcDbHatch
  3
AutoCAD 2000
 90
    32768
280
     0
281
     1
  0
CLASS
  1
XRECORD
  2
AcDbXrecord
  3
AutoCAD 2000
 90
    32768
280
     0
281
     0
  0
CLASS
  1
LONG_TRANSACTION
  2
AcDbLongTransaction
  3
AutoCAD 2000
 90
    32768
280
     0
281
     0
  0
CLASS
  1
LWPOLYLINE
  2
AcDbPolyline
  3
AutoCAD 2000
 90
    32768
280
     0
281
     1
  0
CLASS
  1
HATCH
  2
AcDbHatch
  3
AutoCAD 2000
 90
    32768
280
     0
281
     1
  0
CLASS
  1
XRECORD
  2
AcDbXrecord
  3
AutoCAD 2000
 90
    32768
280
     0
281
     0
  0
CLASS
  1
LONG_TRANSACTION
  2
AcDbLongTransaction
  3
AutoCAD 2000
 90
    32768
280
     0
281
     0
  0
CLASS
  1
LWPOLYLINE
  2
AcDbPolyline
  3
AutoCAD 2000
 90
    32768
280
     0
281
     1
  0
CLASS
  1
HATCH
  2
AcDbHatch
  3
AutoCAD 2000
 90
    32768
280
     0
281
     1
  0
CLASS
  1
XRECORD
  2
AcDbXrecord
  3
AutoCAD 2000
 90
    32768
280
     0
281
     0
  0
CLASS
  1
LONG_TRANSACTION
  2
AcDbLongTransaction
  3
AutoCAD 2000
 90
    32768
280
     0
281
     0
  0
CLASS
  1
LWPOLYLINE
  2
AcDbPolyline
  3
AutoCAD 2000
 90
    32768
280
     0
281
     1
  0
CLASS
  1
HATCH
  2
AcDbHatch
  3
AutoCAD 2000
 90
    32768
280
     0
281
     1
  0
CLASS
  1
XRECORD
  2
AcDbXrecord
  3
AutoCAD 2000
 90
    32768
280
     0
281
     0
  0
CLASS
  1
LONG_TRANSACTION
  2
AcDbLongTransaction
  3
AutoCAD 2000
 90
    32768
280
     0
281
     0
  0
CLASS
  1
LWPOLYLINE
  2
AcDbPolyline
  3
AutoCAD 2000
 90
    32768
280
     0
281
     1
  0
CLASS
  1
HATCH
  2
AcDbHatch
  3
AutoCAD 2000
 90
    32768
280
     0
281
     1
  0
CLASS
  1
XRECORD
  2
AcDbXrecord
  3
AutoCAD 2000
 90
    32768
280
     0
281
     0
  0
CLASS
  1
LONG_TRANSACTION
  2
AcDbLongTransaction
  3
AutoCAD 2000
 90
    32768
280
     0
281
     0
  0
CLASS
  1
LWPOLYLINE
  2
AcDbPolyline
  3
AutoCAD 2000
 90
    32768
280
     0
281
     1
  0
CLASS
  1
HATCH
  2
AcDbHatch
  3
AutoCAD 2000
 90
    32768
280
     0
281
     1
  0
CLASS
  1
XRECORD
  2
AcDbXrecord
  3
AutoCAD 2000
 90
    32768
280
     0
281
     0
  0
CLASS
  1
LONG_TRANSACTION
  2
AcDbLongTransaction
  3
AutoCAD 2000
 90
    32768
280
     0
281
     0
  0
CLASS
  1
LWPOLYLINE
  2
AcDbPolyline
  3
AutoCAD 2000
 90
    32768
280
     0
281
     1
  0
CLASS
  1
HATCH
  2
AcDbHatch
  3
AutoCAD 2000
 90
    32768
280
     0
281
     1
  0
CLASS
  1
XRECORD
  2
AcDbXrecord
  3
AutoCAD 2000
 90
    32768
280
     0
281
     0
  0
CLASS
  1
LONG_TRANSACTION
  2
AcDbLongTransaction
  3
AutoCAD 2000
 90
    32768
280
     0
281
     0
  0
CLASS
  1
LWPOLYLINE
  2
AcDbPolyline
  3
AutoCAD 2000
 90
    32768
280
     0
281
     1
  0
CLASS
  1
HATCH
  2
AcDbHatch
  3
AutoCAD 2000
 90
    32768
280
     0
281
     1
  0
CLASS
  1
XRECORD
  2
AcDbXrecord
  3
AutoCAD 2000
 90
    32768
280
     0
281
     0
  0
CLASS
  1
LONG_TRANSACTION
  2
AcDbLongTransaction
  3
AutoCAD 2000
 90
    32768
280
     0
281
     0
  0
CLASS
  1
LWPOLYLINE
  2
AcDbPolyline
  3
AutoCAD 2000
 90
    32768
280
     0
281
     1
  0
CLASS
  1
HATCH
  2
AcDbHatch
  3
AutoCAD 2000
 90
    32768
280
     0
281
     1
  0
CLASS
  1
XRECORD
  2
AcDbXrecord
  3
AutoCAD 2000
 90
    32768
280
     0
281
     0
  0
CLASS
  1
LONG_TRANSACTION
  2
AcDbLongTransaction
  3
AutoCAD 2000
 90
    32768
280
     0
281
     0
  0
CLASS
  1
LWPOLYLINE
  2
AcDbPolyline
  3
AutoCAD 2000
 90
    32768
280
     0
281
     1
  0
CLASS
  1
HATCH
  2
AcDbHatch
  3
AutoCAD 2000
 90
    32768
280
     0
281
     1
  0
CLASS
  1
XRECORD
  2
AcDbXrecord
  3
AutoCAD 2000
 90
    32768
280
     0
281
     0
  0
CLASS
  1
LONG_TRANSACTION
  2
AcDbLongTransaction
  3
AutoCAD 2000
 90
    32768
280
     0
281
     0
  0
CLASS
  1
LWPOLYLINE
  2
AcDbPolyline
  3
AutoCAD 2000
 90
    32768
280
     0
281
     1
  0
CLASS
  1
HATCH
  2
AcDbHatch
  3
AutoCAD 2000
 90
    32768
280
     0
281
     1
  0
CLASS
  1
XRECORD
  2
AcDbXrecord
  3
AutoCAD 2000
 90
    32768
280
     0
281
     0
  0
CLASS
  1
LONG_TRANSACTION
  2
AcDbLongTransaction
  3
AutoCAD 2000
 90
    32768
280
     0
281
     0
  0
CLASS
  1
LWPOLYLINE
  2
AcDbPolyline
  3
AutoCAD 2000
 90
    32768
280
     0
281
     1
  0
CLASS
  1
HATCH
  2
AcDbHatch
  3
AutoCAD 2000
 90
    32768
280
     0
281
     1
  0
CLASS
  1
XRECORD
  2
AcDbXrecord
  3
AutoCAD 2000
 90
    32768
280
     0
281
     0
  0
CLASS
  1
LONG_TRANSACTION
  2
AcDbLongTransaction
  3
AutoCAD 2000
 90
    32768
280
     0
281
     0
  0
CLASS
  1
LWPOLYLINE
  2
AcDbPolyline
  3
AutoCAD 2000
 90
    32768
280
     0
281
     1
  0
CLASS
  1
HATCH
  2
AcDbHatch
  3
AutoCAD 2000
 90
    32768
280
     0
281
     1
  0
CLASS
  1
XRECORD
  2
AcDbXrecord
  3
AutoCAD 2000
 90
    32768
280
     0
281
     0
  0
CLASS
  1
LONG_TRANSACTION
  2
AcDbLongTransaction
  3
AutoCAD 2000
 90
    32768
280
     0
281
     0
  0
CLASS
  1
LWPOLYLINE
  2
AcDbPolyline
  3
AutoCAD 2000
 90
    32768
280
     0
281
     1
  0
CLASS
  1
HATCH
  2
AcDbHatch
  3
AutoCAD 2000
 90
    32768
280
     0
281
     1
  0
CLASS
  1
XRECORD
  2
AcDbXrecord
  3
AutoCAD 2000
 90
    32768
280
     0
281
     0
  0
CLASS
  1
LONG_TRANSACTION
  2
AcDbLongTransaction
  3
AutoCAD 2000
 90
    32768
280
     0
281
     0
  0
CLASS
  1
LWPOLYLINE
  2
AcDbPolyline
  3
AutoCAD 2000
 90
    32768
280
     0
281
     1
  0
CLASS
  1
HATCH
  2
AcDbHatch
  3
AutoCAD 2000
 90
    32768
280
     0
281
     1
  0
CLASS
  1
XRECORD
  2
AcDbXrecord
  3
AutoCAD 2000
 90
    32768
280
     0
281
     0
  0
CLASS
  1
LONG_TRANSACTION
  2
AcDbLongTransaction
  3
AutoCAD 2000
 90
    32768
280
     0
281
     0
  0
CLASS
  1
LWPOLYLINE
  2
AcDbPolyline
  3
AutoCAD 2000
 90
    32768
280
     0
281
     1
  0
CLASS
  1
HATCH
  2
AcDbHatch
  3
AutoCAD 2000
 90
    32768
280
     0
281
     1
  0
CLASS
  1
XRECORD
  2
AcDbXrecord
  3
AutoCAD 2000
 90
    32768
280
     0
281
     0
  0
ENDSEC
  0
SECTION
  2
TABLES
  0
TABLE
  2
VPORT
  5
8
330
0
100
AcDbSymbolTable
 70
     2
  0
VPORT
  5
1932
330
8
100
AcDbSymbolTableRecord
100
AcDbViewportTableRecord
  2
*ACTIVE
 70
     0
 10
0.0
 20
0.0
 11
1.0
 21
1.0
 12
3056.94359202584
 22
2095.983374462665
 13
0.0
 23
0.0
 14
10.0
 24
10.0
 15
10.0
 25
10.0
 16
0.0
 26
0.0
 36
1.0
 17
0.0
 27
0.0
 37
0.0
 40
4684.817804683085
 41
1.596072931276297
 42
50.0
 43
0.0
 44
0.0
 50
0.0
 51
0.0
 71
     0
 72
   100
 73
     1
 74
     1
 75
     0
 76
     0
 77
     0
 78
     0
  0
ENDTAB
  0
TABLE
  2
LTYPE
  5
5
330
0
100
AcDbSymbolTable
 70
     5
  0
LTYPE
  5
14
330
5
100
AcDbSymbolTableRecord
100
AcDbLinetypeTableRecord
  2
BYBLOCK
 70
     0
  3

 72
    65
 73
     0
 40
0.0
  0
LTYPE
  5
15
330
5
100
AcDbSymbolTableRecord
100
AcDbLinetypeTableRecord
  2
BYLAYER
 70
     0
  3

 72
    65
 73
     0
 40
0.0
  0
LTYPE
  5
16
330
5
100
AcDbSymbolTableRecord
100
AcDbLinetypeTableRecord
  2
CONTINUOUS
 70
     0
  3
Solid line
 72
    65
 73
     0
 40
0.0
  0
LTYPE
  5
555
330
5
100
AcDbSymbolTableRecord
100
AcDbLinetypeTableRecord
  2
CENTER
 70
     0
  3
Center ____ _ ____ _ ____ _ ____ _ ____ _ ____
 72
    65
 73
     4
 40
50.8
 49
31.75
 74
     0
 49
-6.349999999999999
 74
     0
 49
6.349999999999999
 74
     0
 49
-6.349999999999999
 74
     0
  0
LTYPE
  5
556
330
5
100
AcDbSymbolTableRecord
100
AcDbLinetypeTableRecord
  2
HIDDEN
 70
     0
  3
Hidden __ __ __ __ __ __ __ __ __ __ __ __ __ _
 72
    65
 73
     2
 40
9.524999999999998
 49
6.349999999999999
 74
     0
 49
-3.174999999999999
 74
     0
  0
LTYPE
  5
557
330
5
100
AcDbSymbolTableRecord
100
AcDbLinetypeTableRecord
  2
HIDDEN2
 70
     0
  3
Hidden (.5x) _ _ _ _ _ _ _ _ _ _ _ _ _ _ _ _ _
 72
    65
 73
     2
 40
4.762499999999999
 49
3.174999999999999
 74
     0
 49
-1.587499999999999
 74
     0
  0
LTYPE
  5
558
330
5
100
AcDbSymbolTableRecord
100
AcDbLinetypeTableRecord
  2
PHANTOM
 70
     0
  3
Phantom ______  __  __  ______  __  __  ______
 72
    65
 73
     6
 40
63.5
 49
31.75
 74
     0
 49
-6.349999999999999
 74
     0
 49
6.349999999999999
 74
     0
 49
-6.349999999999999
 74
     0
 49
6.349999999999999
 74
     0
 49
-6.349999999999999
 74
     0
  0
ENDTAB
  0
TABLE
  2
LAYER
  5
2
330
0
100
AcDbSymbolTable
 70
    22
  0
LAYER
  5
10
330
2
100
AcDbSymbolTableRecord
100
AcDbLayerTableRecord
  2
0
 70
     0
 62
     7
  6
CONTINUOUS
  0
LAYER
  5
75
330
2
100
AcDbSymbolTableRecord
100
AcDbLayerTableRecord
  2
VIEWPORT
 70
     0
 62
     1
  6
CONTINUOUS
  0
LAYER
  5
504
330
2
100
AcDbSymbolTableRecord
100
AcDbLayerTableRecord
  2
DEFPOINTS
 70
     0
 62
     6
  6
CONTINUOUS
  0
LAYER
  5
505
330
2
100
AcDbSymbolTableRecord
100
AcDbLayerTableRecord
  2
1C1
 70
     0
 62
   254
  6
CONTINUOUS
  0
LAYER
  5
506
330
2
100
AcDbSymbolTableRecord
100
AcDbLayerTableRecord
  2
1C2
 70
     0
 62
   254
  6
CONTINUOUS
  0
LAYER
  5
507
330
2
100
AcDbSymbolTableRecord
100
AcDbLayerTableRecord
  2
2C1
 70
     0
 62
   144
  6
CONTINUOUS
  0
LAYER
  5
508
330
2
100
AcDbSymbolTableRecord
100
AcDbLayerTableRecord
  2
2C2
 70
     0
 62
   144
  6
CONTINUOUS
  0
LAYER
  5
509
330
2
100
AcDbSymbolTableRecord
100
AcDbLayerTableRecord
  2
2H1
 70
     0
 62
   144
  6
HIDDEN
  0
LAYER
  5
50A
330
2
100
AcDbSymbolTableRecord
100
AcDbLayerTableRecord
  2
2H2
 70
     0
 62
   144
  6
HIDDEN2
  0
LAYER
  5
50B
330
2
100
AcDbSymbolTableRecord
100
AcDbLayerTableRecord
  2
2P1
 70
     0
 62
   144
  6
PHANTOM
  0
LAYER
  5
50C
330
2
100
AcDbSymbolTableRecord
100
AcDbLayerTableRecord
  2
3C1
 70
     0
 62
     7
  6
CONTINUOUS
  0
LAYER
  5
50D
330
2
100
AcDbSymbolTableRecord
100
AcDbLayerTableRecord
  2
3C2
 70
     0
 62
     7
  6
CONTINUOUS
  0
LAYER
  5
50E
330
2
100
AcDbSymbolTableRecord
100
AcDbLayerTableRecord
  2
3C3
 70
     0
 62
     7
  6
CONTINUOUS
  0
LAYER
  5
50F
330
2
100
AcDbSymbolTableRecord
100
AcDbLayerTableRecord
  2
4H1
 70
     0
 62
     6
  6
HIDDEN
  0
LAYER
  5
510
330
2
100
AcDbSymbolTableRecord
100
AcDbLayerTableRecord
  2
4H2
 70
     0
 62
     6
  6
HIDDEN2
  0
LAYER
  5
511
330
2
100
AcDbSymbolTableRecord
100
AcDbLayerTableRecord
  2
5C1
 70
     0
 62
    55
  6
CONTINUOUS
  0
LAYER
  5
512
330
2
100
AcDbSymbolTableRecord
100
AcDbLayerTableRecord
  2
5C2
 70
     0
 62
    55
  6
CONTINUOUS
  0
LAYER
  5
513
330
2
100
AcDbSymbolTableRecord
100
AcDbLayerTableRecord
  2
8C1
 70
     0
 62
    92
  6
CONTINUOUS
  0
LAYER
  5
514
330
2
100
AcDbSymbolTableRecord
100
AcDbLayerTableRecord
  2
HOJO
 70
     0
 62
     5
  6
CONTINUOUS
  0
LAYER
  5
515
330
2
100
AcDbSymbolTableRecord
100
AcDbLayerTableRecord
  2
KIJUN
 70
     0
 62
     1
  6
CENTER
  0
LAYER
  5
516
330
2
100
AcDbSymbolTableRecord
100
AcDbLayerTableRecord
  2
MOJI
 70
     0
 62
     7
  6
CONTINUOUS
  0
LAYER
  5
517
330
2
100
AcDbSymbolTableRecord
100
AcDbLayerTableRecord
  2
SUNPO
 70
     0
 62
   144
  6
CONTINUOUS
  0
ENDTAB
  0
TABLE
  2
STYLE
  5
3
330
0
100
AcDbSymbolTable
 70
     6
  0
STYLE
  5
11
330
3
100
AcDbSymbolTableRecord
100
AcDbTextStyleTableRecord
  2
STANDARD
 70
     0
 40
0.0
 41
1.0
 50
0.0
 71
     0
 42
2.5
  3
txt
  4

  0
STYLE
  5
2C
330
3
100
AcDbSymbolTableRecord
100
AcDbTextStyleTableRecord
  2

 70
     1
 40
0.0
 41
1.0
 50
0.0
 71
     0
 42
2.5
  3
ltypeshp.shx
  4

  0
STYLE
  5
18E
330
3
100
AcDbSymbolTableRecord
100
AcDbTextStyleTableRecord
  2
ADD
 70
     0
 40
0.0
 41
1.0
 50
0.0
 71
     0
 42
50.0
  3
romans.shx
  4
bigfont.shx
  0
STYLE
  5
191
330
3
100
AcDbSymbolTableRecord
100
AcDbTextStyleTableRecord
  2
MSG
 70
     0
 40
0.0
 41
1.0
 50
0.0
 71
     0
 42
2.5
  3
MS Gothic.ttf
  4

1001
ACAD
1000
MS Gothic
1071
    32817
  0
STYLE
  5
5C8
330
3
100
AcDbSymbolTableRecord
100
AcDbTextStyleTableRecord
  2
STANDARD15
 70
     0
 40
0.0
 41
1.0
 50
15.0
 71
     0
 42
2.5
  3
ROMANS
  4
bigfont
  0
STYLE
  5
5C9
330
3
100
AcDbSymbolTableRecord
100
AcDbTextStyleTableRecord
  2
ROMANS15
 70
     0
 40
0.0
 41
1.0
 50
15.0
 71
     0
 42
2.5
  3
romans
  4

  0
ENDTAB
  0
TABLE
  2
VIEW
  5
6
330
0
100
AcDbSymbolTable
 70
     1
  0
VIEW
  5
54D
330
6
100
AcDbSymbolTableRecord
100
AcDbViewTableRecord
  2
ALL
 70
     0
 40
594.0
 10
420.5
 20
297.0
 41
865.125
 11
0.0
 21
0.0
 31
1.0
 12
0.0
 22
0.0
 32
0.0
 42
50.0
 43
0.0
 44
0.0
 50
0.0
 71
     0
  0
ENDTAB
  0
TABLE
  2
UCS
  5
7
330
0
100
AcDbSymbolTable
 70
     0
  0
ENDTAB
  0
TABLE
  2
APPID
  5
9
330
0
100
AcDbSymbolTable
 70
     4
  0
APPID
  5
12
330
9
100
AcDbSymbolTableRecord
100
AcDbRegAppTableRecord
  2
ACAD
 70
     0
  0
APPID
  5
5CB
330
9
100
AcDbSymbolTableRecord
100
AcDbRegAppTableRecord
  2
ARAIGUMI_YOHEKI
 70
     0
  0
APPID
  5
5CC
330
9
100
AcDbSymbolTableRecord
100
AcDbRegAppTableRecord
  2
CONTENTTABDATA
 70
     0
  0
APPID
  5
5CD
330
9
100
AcDbSymbolTableRecord
100
AcDbRegAppTableRecord
  2
CONTENTCURRENTTAB
 70
     0
  0
ENDTAB
  0
TABLE
  2
DIMSTYLE
  5
A
330
0
100
AcDbSymbolTable
 70
    10
  0
DIMSTYLE
105
27
330
A
100
AcDbSymbolTableRecord
100
AcDbDimStyleTableRecord
  2
ISO-25
 70
     0
  3

  4

  5

  6

  7

 40
1.0
 41
2.5
 42
0.625
 43
3.75
 44
1.25
 45
0.0
 46
0.0
 47
0.0
 48
0.0
140
2.5
141
2.5
142
0.0
143
0.03937007874016
144
1.0
145
0.0
146
1.0
147
0.625
 71
     0
 72
     0
 73
     0
 74
     0
 75
     0
 76
     0
 77
     1
 78
     8
170
     0
171
     3
172
     1
173
     0
174
     0
175
     0
176
     0
177
     0
178
     0
270
     2
271
     2
272
     2
273
     2
274
     3
340
11
275
     0
280
     0
281
     0
282
     0
283
     0
284
     8
285
     0
286
     0
287
     3
288
     0
  0
DIMSTYLE
105
197
330
A
100
AcDbSymbolTableRecord
100
AcDbDimStyleTableRecord
  2
ADD
 70
     0
  3

  4

  5

  6

  7

 40
1.0
 41
2.5
 42
1.0
 43
7.0
 44
0.5
 45
0.0
 46
0.0
 47
0.0
 48
0.0
140
2.5
141
2.5
142
0.0
143
0.03937007874016
144
1.0
145
0.7
146
1.0
147
0.625
 71
     0
 72
     0
 73
     0
 74
     0
 75
     0
 76
     0
 77
     1
 78
     8
170
     0
171
     3
172
     1
173
     0
174
     1
175
     0
176
   144
177
   144
178
     7
270
     2
271
     1
272
     1
273
     2
274
     3
340
18E
275
     0
280
     0
281
     0
282
     0
283
     2
284
     8
285
     0
286
     0
287
     5
288
     0
  0
DIMSTYLE
105
3E6
330
A
100
AcDbSymbolTableRecord
100
AcDbDimStyleTableRecord
  2
ADD$2
 70
     0
  3

  4

  5

  6

  7

 40
1.0
 41
2.5
 42
1.0
 43
7.0
 44
0.5
 45
0.0
 46
0.0
 47
0.0
 48
0.0
140
2.5
141
2.5
142
0.0
143
0.03937007874016
144
1.0
145
0.7
146
1.0
147
0.625
 71
     0
 72
     0
 73
     0
 74
     0
 75
     0
 76
     0
 77
     1
 78
     8
170
     0
171
     3
172
     1
173
     0
174
     1
175
     0
176
   144
177
   144
178
     7
270
     2
271
     1
272
     1
273
     2
274
     3
340
18E
275
     0
280
     0
281
     0
282
     0
283
     2
284
     8
285
     0
286
     0
287
     5
288
     0
  0
DIMSTYLE
105
3E7
330
A
100
AcDbSymbolTableRecord
100
AcDbDimStyleTableRecord
  2
ADD$4
 70
     0
  3

  4

  5

  6

  7

 40
1.0
 41
2.5
 42
1.0
 43
7.0
 44
0.5
 45
0.0
 46
0.0
 47
0.0
 48
0.0
140
2.5
141
2.5
142
0.0
143
0.03937007874016
144
1.0
145
0.0
146
1.0
147
0.625
 71
     0
 72
     0
 73
     0
 74
     0
 75
     0
 76
     0
 77
     1
 78
     8
170
     0
171
     3
172
     1
173
     0
174
     1
175
     0
176
   144
177
   144
178
     7
270
     2
271
     1
272
     1
273
     2
274
     3
340
18E
275
     0
280
     0
281
     0
282
     0
283
     2
284
     8
285
     0
286
     0
287
     5
288
     0
  0
DIMSTYLE
105
3E8
330
A
100
AcDbSymbolTableRecord
100
AcDbDimStyleTableRecord
  2
ADD$3
 70
     0
  3

  4

  5

  6

  7

 40
1.0
 41
2.5
 42
1.0
 43
7.0
 44
0.5
 45
0.0
 46
0.0
 47
0.0
 48
0.0
140
2.5
141
2.5
142
0.0
143
0.03937007874016
144
1.0
145
0.0
146
1.0
147
0.625
 71
     0
 72
     0
 73
     0
 74
     0
 75
     0
 76
     0
 77
     1
 78
     8
170
     0
171
     3
172
     1
173
     0
174
     1
175
     0
176
   144
177
   144
178
     7
270
     2
271
     1
272
     1
273
     2
274
     3
340
18E
275
     0
280
     0
281
     0
282
     0
283
     2
284
     8
285
     0
286
     0
287
     5
288
     0
  0
DIMSTYLE
105
3E9
330
A
100
AcDbSymbolTableRecord
100
AcDbDimStyleTableRecord
  2
ADD$6
 70
     0
  3

  4

  5

  6

  7

 40
1.0
 41
2.5
 42
1.0
 43
7.0
 44
0.5
 45
0.0
 46
0.0
 47
0.0
 48
0.0
140
2.5
141
2.5
142
0.0
143
0.03937007874016
144
1.0
145
0.0
146
1.0
147
0.625
 71
     0
 72
     0
 73
     0
 74
     0
 75
     0
 76
     0
 77
     1
 78
     8
170
     0
171
     3
172
     1
173
     0
174
     1
175
     0
176
   144
177
   144
178
     7
270
     2
271
     1
272
     1
273
     2
274
     3
340
18E
275
     0
280
     0
281
     0
282
     0
283
     2
284
     8
285
     0
286
     0
287
     5
288
     0
  0
DIMSTYLE
105
3EA
330
A
100
AcDbSymbolTableRecord
100
AcDbDimStyleTableRecord
  2
ADD$7
 70
     0
  3

  4

  5

  6

  7

 40
1.0
 41
2.5
 42
1.0
 43
7.0
 44
0.5
 45
0.0
 46
0.0
 47
0.0
 48
0.0
140
2.5
141
2.5
142
0.0
143
0.03937007874016
144
1.0
145
0.0
146
1.0
147
0.625
 71
     0
 72
     0
 73
     0
 74
     0
 75
     0
 76
     0
 77
     0
 78
     8
170
     0
171
     3
172
     1
173
     0
174
     1
175
     0
176
   144
177
   144
178
     7
270
     2
271
     1
272
     1
273
     2
274
     3
340
18E
275
     0
280
     0
281
     0
282
     0
283
     2
284
     8
285
     0
286
     0
287
     5
288
     0
  0
DIMSTYLE
105
518
330
A
100
AcDbSymbolTableRecord
100
AcDbDimStyleTableRecord
  2
STANDARD
 70
     0
  3

  4

  5

  6

  7

 40
1.0
 41
0.18
 42
0.0625
 43
0.38
 44
0.18
 45
0.0
 46
0.0
 47
0.0
 48
0.0
140
0.18
141
0.09
142
0.0
143
25.4
144
1.0
145
0.0
146
1.0
147
0.09
 71
     0
 72
     0
 73
     1
 74
     1
 75
     0
 76
     0
 77
     0
 78
     0
170
     0
171
     2
172
     0
173
     0
174
     0
175
     0
176
     0
177
     0
178
     0
270
     2
271
     4
272
     4
273
     2
274
     2
340
11
275
     0
280
     0
281
     0
282
     0
283
     1
284
     0
285
     0
286
     0
287
     3
288
     0
  0
DIMSTYLE
105
550
330
A
100
AcDbSymbolTableRecord
100
AcDbDimStyleTableRecord
  2
ADD$0
 70
     0
  3

  4

  5

  6

  7

 40
1.0
 41
2.5
 42
1.0
 43
7.0
 44
0.5
 45
0.0
 46
0.0
 47
0.0
 48
0.0
140
2.5
141
2.5
142
0.0
143
0.03937007874016
144
1.0
145
0.7
146
1.0
147
0.625
 71
     0
 72
     0
 73
     0
 74
     0
 75
     0
 76
     0
 77
     1
 78
     8
170
     0
171
     3
172
     1
173
     0
174
     1
175
     0
176
   144
177
   144
178
     7
270
     2
271
     1
272
     1
273
     2
274
     3
340
18E
275
     0
280
     0
281
     0
282
     0
283
     2
284
     8
285
     0
286
     0
287
     5
288
     0
  0
DIMSTYLE
105
59B
330
A
100
AcDbSymbolTableRecord
100
AcDbDimStyleTableRecord
  2
ADD_M
 70
     0
  3

  4

  5

  6

  7

 40
1.0
 41
2.5
 42
1.0
 43
7.0
 44
0.5
 45
0.0
 46
0.0
 47
0.0
 48
0.0
140
2.5
141
2.5
142
0.0
143
0.03937007874016
144
1.0
145
0.7
146
1.0
147
0.625
 71
     0
 72
     0
 73
     0
 74
     0
 75
     0
 76
     0
 77
     1
 78
     8
170
     0
171
     3
172
     1
173
     0
174
     1
175
     0
176
   144
177
   144
178
     7
270
     2
271
     1
272
     1
273
     2
274
     3
340
18E
275
     0
280
     0
281
     0
282
     0
283
     2
284
     8
285
     0
286
     0
287
     5
288
     0
  0
ENDTAB
  0
TABLE
  2
BLOCK_RECORD
  5
1
330
0
100
AcDbSymbolTable
 70
    14
  0
BLOCK_RECORD
  5
1F
102
{ACAD_XDICTIONARY
360
65D
102
}
330
1
100
AcDbSymbolTableRecord
100
AcDbBlockTableRecord
  2
*MODEL_SPACE
  0
BLOCK_RECORD
  5
1B
102
{ACAD_XDICTIONARY
360
65F
102
}
330
1
100
AcDbSymbolTableRecord
100
AcDbBlockTableRecord
  2
*PAPER_SPACE
  0
BLOCK_RECORD
  5
192
330
1
100
AcDbSymbolTableRecord
100
AcDbBlockTableRecord
  2
_DOT
  0
BLOCK_RECORD
  5
5CE
330
1
100
AcDbSymbolTableRecord
100
AcDbBlockTableRecord
  2
A4
  0
BLOCK_RECORD
  5
13B0
330
1
100
AcDbSymbolTableRecord
100
AcDbBlockTableRecord
  2
*D2
  0
BLOCK_RECORD
  5
13BF
330
1
100
AcDbSymbolTableRecord
100
AcDbBlockTableRecord
  2
*D3
  0
BLOCK_RECORD
  5
13CE
330
1
100
AcDbSymbolTableRecord
100
AcDbBlockTableRecord
  2
*D4
  0
BLOCK_RECORD
  5
147F
330
1
100
AcDbSymbolTableRecord
100
AcDbBlockTableRecord
  2
*D5
  0
BLOCK_RECORD
  5
14A8
330
1
100
AcDbSymbolTableRecord
100
AcDbBlockTableRecord
  2
*D6
  0
BLOCK_RECORD
  5
14B7
330
1
100
AcDbSymbolTableRecord
100
AcDbBlockTableRecord
  2
*D7
  0
BLOCK_RECORD
  5
16AF
330
1
100
AcDbSymbolTableRecord
100
AcDbBlockTableRecord
  2
*D8
  0
BLOCK_RECORD
  5
16BE
330
1
100
AcDbSymbolTableRecord
100
AcDbBlockTableRecord
  2
*D9
  0
BLOCK_RECORD
  5
16CB
330
1
100
AcDbSymbolTableRecord
100
AcDbBlockTableRecord
  2
*D10
  0
BLOCK_RECORD
  5
16DA
330
1
100
AcDbSymbolTableRecord
100
AcDbBlockTableRecord
  2
*D11
  0
BLOCK_RECORD
  5
170E
330
1
100
AcDbSymbolTableRecord
100
AcDbBlockTableRecord
  2
*D12
  0
BLOCK_RECORD
  5
171D
330
1
100
AcDbSymbolTableRecord
100
AcDbBlockTableRecord
  2
*D13
  0
ENDTAB
  0
ENDSEC
  0
SECTION
  2
BLOCKS
  0
BLOCK
  5
20
330
1F
100
AcDbEntity
  8
0
100
AcDbBlockBegin
  2
*MODEL_SPACE
 70
     0
 10
0.0
 20
0.0
 30
0.0
  3
*MODEL_SPACE
  1

  0
ENDBLK
  5
21
330
1F
100
AcDbEntity
  8
0
100
AcDbBlockEnd
  0
BLOCK
  5
1C
330
1B
100
AcDbEntity
 67
     1
  8
0
100
AcDbBlockBegin
  2
*PAPER_SPACE
 70
     0
 10
0.0
 20
0.0
 30
0.0
  3
*PAPER_SPACE
  1

  0
ENDBLK
  5
1D
330
1B
100
AcDbEntity
 67
     1
  8
0
100
AcDbBlockEnd
  0
BLOCK
  5
195
330
192
100
AcDbEntity
  8
0
100
AcDbBlockBegin
  2
_DOT
 70
     0
 10
0.0
 20
0.0
 30
0.0
  3
_DOT
  1

  0
POLYLINE
  5
193
330
192
100
AcDbEntity
  8
0
 62
     0
100
AcDb2dPolyline
 66
     1
 10
0.0
 20
0.0
 30
0.0
 70
     1
 40
0.5
 41
0.5
  0
VERTEX
  5
1935
330
193
100
AcDbEntity
  8
0
 62
     0
100
AcDbVertex
100
AcDb2dVertex
 10
-0.25
 20
0.0
 30
0.0
 42
1.0
  0
VERTEX
  5
1936
330
193
100
AcDbEntity
  8
0
 62
     0
100
AcDbVertex
100
AcDb2dVertex
 10
0.25
 20
0.0
 30
0.0
 42
1.0
  0
SEQEND
  5
1937
330
193
100
AcDbEntity
  8
0
 62
     0
  0
LINE
  5
194
330
192
100
AcDbEntity
  8
0
 62
     0
100
AcDbLine
 10
-0.5
 20
0.0
 30
0.0
 11
-1.0
 21
0.0
 31
0.0
  0
ENDBLK
  5
196
330
192
100
AcDbEntity
  8
0
100
AcDbBlockEnd
  0
BLOCK
  5
5D1
330
5CE
100
AcDbEntity
  8
0
100
AcDbBlockBegin
  2
A4
 70
     0
 10
0.0
 20
0.0
 30
0.0
  3
A4
  1

  0
POLYLINE
  5
5CF
330
5CE
100
AcDbEntity
  8
HOJO
100
AcDb2dPolyline
 66
     1
 10
0.0
 20
0.0
 30
0.0
 70
     1
  0
VERTEX
  5
1938
330
5CF
100
AcDbEntity
  8
HOJO
100
AcDbVertex
100
AcDb2dVertex
 10
0.0
 20
0.0
 30
0.0
  0
VERTEX
  5
1939
330
5CF
100
AcDbEntity
  8
HOJO
100
AcDbVertex
100
AcDb2dVertex
 10
297.0
 20
0.0
 30
0.0
  0
VERTEX
  5
193A
330
5CF
100
AcDbEntity
  8
HOJO
100
AcDbVertex
100
AcDb2dVertex
 10
297.0
 20
210.0
 30
0.0
  0
VERTEX
  5
193B
330
5CF
100
AcDbEntity
  8
HOJO
100
AcDbVertex
100
AcDb2dVertex
 10
0.0
 20
210.0
 30
0.0
  0
SEQEND
  5
193C
330
5CF
100
AcDbEntity
  8
HOJO
  0
POLYLINE
  5
5D0
330
5CE
100
AcDbEntity
  8
HOJO
100
AcDb2dPolyline
 66
     1
 10
0.0
 20
0.0
 30
0.0
 70
     1
  0
VERTEX
  5
193D
330
5D0
100
AcDbEntity
  8
HOJO
100
AcDbVertex
100
AcDb2dVertex
 10
18.0
 20
13.0
 30
0.0
  0
VERTEX
  5
193E
330
5D0
100
AcDbEntity
  8
HOJO
100
AcDbVertex
100
AcDb2dVertex
 10
279.0
 20
13.0
 30
0.0
  0
VERTEX
  5
193F
330
5D0
100
AcDbEntity
  8
HOJO
100
AcDbVertex
100
AcDb2dVertex
 10
279.0
 20
197.0
 30
0.0
  0
VERTEX
  5
1940
330
5D0
100
AcDbEntity
  8
HOJO
100
AcDbVertex
100
AcDb2dVertex
 10
18.0
 20
197.0
 30
0.0
  0
SEQEND
  5
1941
330
5D0
100
AcDbEntity
  8
HOJO
  0
ENDBLK
  5
5D2
330
5CE
100
AcDbEntity
  8
0
100
AcDbBlockEnd
  0
BLOCK
  5
13BC
330
13B0
100
AcDbEntity
  8
0
100
AcDbBlockBegin
  2
*D2
 70
     1
 10
0.0
 20
0.0
 30
0.0
  3
*D2
  1

  0
LINE
  5
15E1
330
13B0
100
AcDbEntity
  8
SUNPO
 62
   144
100
AcDbLine
 10
3750.0
 20
3150.0
 30
0.0
 11
4040.0
 21
3150.0
 31
0.0
  0
LINE
  5
15E2
330
13B0
100
AcDbEntity
  8
SUNPO
 62
   144
100
AcDbLine
 10
3750.0
 20
3060.0
 30
0.0
 11
4040.0
 21
3060.0
 31
0.0
  0
LINE
  5
15E3
330
13B0
100
AcDbEntity
  8
SUNPO
 62
   144
100
AcDbLine
 10
4030.0
 20
3200.0
 30
0.0
 11
4030.0
 21
3250.0
 31
0.0
  0
LINE
  5
15E4
330
13B0
100
AcDbEntity
  8
SUNPO
 62
   144
100
AcDbLine
 10
4030.0
 20
3010.0
 30
0.0
 11
4030.0
 21
2960.0
 31
0.0
  0
LINE
  5
15E5
330
13B0
100
AcDbEntity
  8
SUNPO
 62
   144
100
AcDbLine
 10
4030.0
 20
3150.0
 30
0.0
 11
4030.0
 21
3060.0
 31
0.0
  0
SOLID
  5
15E6
330
13B0
100
AcDbEntity
  8
SUNPO
 62
   144
100
AcDbTrace
 10
4021.666666666667
 20
3200.0
 30
0.0
 11
4038.333333333333
 21
3200.0
 31
0.0
 12
4030.0
 22
3150.0
 32
0.0
 13
4030.0
 23
3150.0
 33
0.0
  0
SOLID
  5
15E7
330
13B0
100
AcDbEntity
  8
SUNPO
 62
   144
100
AcDbTrace
 10
4021.666666666667
 20
3010.0
 30
0.0
 11
4038.333333333333
 21
3010.0
 31
0.0
 12
4030.0
 22
3060.0
 32
0.0
 13
4030.0
 23
3060.0
 33
0.0
  0
MTEXT
  5
15E8
330
13B0
100
AcDbEntity
  8
SUNPO
 62
     7
100
AcDbMText
 10
4067.499999999999
 20
3105.0
 30
0.0
 40
50.0
 41
0.0
 71
     5
 72
     1
  1
\A2;90
  7
ADD
 11
0.0000000000000001
 21
1.0
 31
0.0
1001
ACAD
1000
MTEXTBEGIN
1070
    73
1070
     1
1070
    44
1040
1.0
1070
    74
1070
     0
1000
MTEXTEND
1000
MTEXTBEGIN
1070
    73
1070
     1
1070
    44
1040
1.0
1070
    74
1070
     0
1000
MTEXTEND
1000
MTEXTBEGIN
1070
    73
1070
     1
1070
    44
1040
1.0
1070
    74
1070
     0
1000
MTEXTEND
1000
MTEXTBEGIN
1070
    73
1070
     1
1070
    44
1040
1.0
1070
    74
1070
     0
1000
MTEXTEND
  0
POINT
  5
15E9
330
13B0
100
AcDbEntity
  8
DEFPOINTS
 62
     0
100
AcDbPoint
 10
3730.0
 20
3150.0
 30
0.0
  0
POINT
  5
15EA
330
13B0
100
AcDbEntity
  8
DEFPOINTS
 62
     0
100
AcDbPoint
 10
3730.0
 20
3060.0
 30
0.0
  0
POINT
  5
15EB
330
13B0
100
AcDbEntity
  8
DEFPOINTS
 62
     0
100
AcDbPoint
 10
4030.0
 20
3060.0
 30
0.0
  0
ENDBLK
  5
13BD
330
13B0
100
AcDbEntity
  8
0
100
AcDbBlockEnd
  0
BLOCK
  5
13CB
330
13BF
100
AcDbEntity
  8
0
100
AcDbBlockBegin
  2
*D3
 70
     1
 10
0.0
 20
0.0
 30
0.0
  3
*D3
  1

  0
LINE
  5
1602
330
13BF
100
AcDbEntity
  8
SUNPO
 62
   144
100
AcDbLine
 10
1820.0
 20
3150.0
 30
0.0
 11
2190.0
 21
3150.0
 31
0.0
  0
LINE
  5
1603
330
13BF
100
AcDbEntity
  8
SUNPO
 62
   144
100
AcDbLine
 10
1820.0
 20
3060.0
 30
0.0
 11
2190.0
 21
3060.0
 31
0.0
  0
LINE
  5
1604
330
13BF
100
AcDbEntity
  8
SUNPO
 62
   144
100
AcDbLine
 10
2180.0
 20
3200.0
 30
0.0
 11
2180.0
 21
3250.0
 31
0.0
  0
LINE
  5
1605
330
13BF
100
AcDbEntity
  8
SUNPO
 62
   144
100
AcDbLine
 10
2180.0
 20
3010.0
 30
0.0
 11
2180.0
 21
2960.0
 31
0.0
  0
LINE
  5
1606
330
13BF
100
AcDbEntity
  8
SUNPO
 62
   144
100
AcDbLine
 10
2180.0
 20
3150.0
 30
0.0
 11
2180.0
 21
3060.0
 31
0.0
  0
SOLID
  5
1607
330
13BF
100
AcDbEntity
  8
SUNPO
 62
   144
100
AcDbTrace
 10
2171.666666666666
 20
3200.0
 30
0.0
 11
2188.333333333333
 21
3200.0
 31
0.0
 12
2180.0
 22
3150.0
 32
0.0
 13
2180.0
 23
3150.0
 33
0.0
  0
SOLID
  5
1608
330
13BF
100
AcDbEntity
  8
SUNPO
 62
   144
100
AcDbTrace
 10
2171.666666666666
 20
3010.0
 30
0.0
 11
2188.333333333333
 21
3010.0
 31
0.0
 12
2180.0
 22
3060.0
 32
0.0
 13
2180.0
 23
3060.0
 33
0.0
  0
MTEXT
  5
1609
330
13BF
100
AcDbEntity
  8
SUNPO
 62
     7
100
AcDbMText
 10
2217.499999999999
 20
3105.0
 30
0.0
 40
50.0
 41
0.0
 71
     5
 72
     1
  1
\A2;90
  7
ADD
 11
0.0000000000000001
 21
1.0
 31
0.0
1001
ACAD
1000
MTEXTBEGIN
1070
    73
1070
     1
1070
    44
1040
1.0
1070
    74
1070
     0
1000
MTEXTEND
1000
MTEXTBEGIN
1070
    73
1070
     1
1070
    44
1040
1.0
1070
    74
1070
     0
1000
MTEXTEND
1000
MTEXTBEGIN
1070
    73
1070
     1
1070
    44
1040
1.0
1070
    74
1070
     0
1000
MTEXTEND
1000
MTEXTBEGIN
1070
    73
1070
     1
1070
    44
1040
1.0
1070
    74
1070
     0
1000
MTEXTEND
  0
POINT
  5
160A
330
13BF
100
AcDbEntity
  8
DEFPOINTS
 62
     0
100
AcDbPoint
 10
1800.0
 20
3150.0
 30
0.0
  0
POINT
  5
160B
330
13BF
100
AcDbEntity
  8
DEFPOINTS
 62
     0
100
AcDbPoint
 10
1800.0
 20
3060.0
 30
0.0
  0
POINT
  5
160C
330
13BF
100
AcDbEntity
  8
DEFPOINTS
 62
     0
100
AcDbPoint
 10
2180.0
 20
3060.0
 30
0.0
  0
ENDBLK
  5
13CC
330
13BF
100
AcDbEntity
  8
0
100
AcDbBlockEnd
  0
BLOCK
  5
13D8
330
13CE
100
AcDbEntity
  8
0
100
AcDbBlockBegin
  2
*D4
 70
     1
 10
0.0
 20
0.0
 30
0.0
  3
*D4
  1

  0
LINE
  5
13CF
330
13CE
100
AcDbEntity
  8
SUNPO
 62
   144
100
AcDbLine
 10
1820.0
 20
2360.0
 30
0.0
 11
2189.999999999999
 21
2360.0
 31
0.0
  0
LINE
  5
13D0
330
13CE
100
AcDbEntity
  8
SUNPO
 62
   144
100
AcDbLine
 10
1820.0
 20
1760.0
 30
0.0
 11
2189.999999999999
 21
1760.0
 31
0.0
  0
LINE
  5
13D1
330
13CE
100
AcDbEntity
  8
SUNPO
 62
   144
100
AcDbLine
 10
2179.999999999999
 20
2310.0
 30
0.0
 11
2179.999999999999
 21
1810.0
 31
0.0
  0
SOLID
  5
13D2
330
13CE
100
AcDbEntity
  8
SUNPO
 62
   144
100
AcDbTrace
 10
2171.666666666666
 20
2310.0
 30
0.0
 11
2188.333333333333
 21
2310.0
 31
0.0
 12
2179.999999999999
 22
2360.0
 32
0.0
 13
2179.999999999999
 23
2360.0
 33
0.0
  0
SOLID
  5
13D3
330
13CE
100
AcDbEntity
  8
SUNPO
 62
   144
100
AcDbTrace
 10
2171.666666666666
 20
1810.0
 30
0.0
 11
2188.333333333333
 21
1810.0
 31
0.0
 12
2179.999999999999
 22
1760.0
 32
0.0
 13
2179.999999999999
 23
1760.0
 33
0.0
  0
MTEXT
  5
13D4
330
13CE
100
AcDbEntity
  8
SUNPO
 62
     7
100
AcDbMText
 10
2142.499999999999
 20
2060.0
 30
0.0
 40
50.0
 41
0.0
 71
     5
 72
     1
  1
\A2;600
  7
ADD
 11
0.0000000000000001
 21
1.0
 31
0.0
1001
ACAD
1000
MTEXTBEGIN
1070
    73
1070
     1
1070
    44
1040
1.0
1070
    74
1070
     0
1000
MTEXTEND
1000
MTEXTBEGIN
1070
    73
1070
     1
1070
    44
1040
1.0
1070
    74
1070
     0
1000
MTEXTEND
1000
MTEXTBEGIN
1070
    73
1070
     1
1070
    44
1040
1.0
1070
    74
1070
     0
1000
MTEXTEND
1000
MTEXTBEGIN
1070
    73
1070
     1
1070
    44
1040
1.0
1070
    74
1070
     0
1000
MTEXTEND
1000
MTEXTBEGIN
1070
    73
1070
     1
1070
    44
1040
1.0
1070
    74
1070
     0
1000
MTEXTEND
1000
MTEXTBEGIN
1070
    73
1070
     1
1070
    44
1040
1.0
1070
    74
1070
     0
1000
MTEXTEND
  0
POINT
  5
13D5
330
13CE
100
AcDbEntity
  8
DEFPOINTS
 62
     0
100
AcDbPoint
 10
1799.999999999999
 20
2360.0
 30
0.0
  0
POINT
  5
13D6
330
13CE
100
AcDbEntity
  8
DEFPOINTS
 62
     0
100
AcDbPoint
 10
1799.999999999999
 20
1760.0
 30
0.0
  0
POINT
  5
13D7
330
13CE
100
AcDbEntity
  8
DEFPOINTS
 62
     0
100
AcDbPoint
 10
2179.999999999999
 20
1760.0
 30
0.0
  0
ENDBLK
  5
13D9
330
13CE
100
AcDbEntity
  8
0
100
AcDbBlockEnd
  0
BLOCK
  5
1489
330
147F
100
AcDbEntity
  8
0
100
AcDbBlockBegin
  2
*D5
 70
     1
 10
0.0
 20
0.0
 30
0.0
  3
*D5
  1

  0
LINE
  5
1480
330
147F
100
AcDbEntity
  8
SUNPO
 62
   144
100
AcDbLine
 10
3130.0
 20
3170.0
 30
0.0
 11
3130.0
 21
3320.0
 31
0.0
  0
LINE
  5
1481
330
147F
100
AcDbEntity
  8
SUNPO
 62
   144
100
AcDbLine
 10
3730.0
 20
3170.0
 30
0.0
 11
3730.0
 21
3320.0
 31
0.0
  0
LINE
  5
1482
330
147F
100
AcDbEntity
  8
SUNPO
 62
   144
100
AcDbLine
 10
3180.0
 20
3310.0
 30
0.0
 11
3680.0
 21
3310.0
 31
0.0
  0
SOLID
  5
1483
330
147F
100
AcDbEntity
  8
SUNPO
 62
   144
100
AcDbTrace
 10
3180.0
 20
3318.333333333333
 30
0.0
 11
3180.0
 21
3301.666666666666
 31
0.0
 12
3130.0
 22
3310.0
 32
0.0
 13
3130.0
 23
3310.0
 33
0.0
  0
SOLID
  5
1484
330
147F
100
AcDbEntity
  8
SUNPO
 62
   144
100
AcDbTrace
 10
3680.0
 20
3318.333333333333
 30
0.0
 11
3680.0
 21
3301.666666666666
 31
0.0
 12
3730.0
 22
3310.0
 32
0.0
 13
3730.0
 23
3310.0
 33
0.0
  0
MTEXT
  5
1485
330
147F
100
AcDbEntity
  8
SUNPO
 62
     7
100
AcDbMText
 10
3430.0
 20
3347.5
 30
0.0
 40
50.0
 41
0.0
 71
     5
 72
     1
  1
\A2;600
  7
ADD
1001
ACAD
1000
MTEXTBEGIN
1070
    73
1070
     1
1070
    44
1040
1.0
1070
    74
1070
     0
1000
MTEXTEND
1000
MTEXTBEGIN
1070
    73
1070
     1
1070
    44
1040
1.0
1070
    74
1070
     0
1000
MTEXTEND
1000
MTEXTBEGIN
1070
    73
1070
     1
1070
    44
1040
1.0
1070
    74
1070
     0
1000
MTEXTEND
1000
MTEXTBEGIN
1070
    73
1070
     1
1070
    44
1040
1.0
1070
    74
1070
     0
1000
MTEXTEND
1000
MTEXTBEGIN
1070
    73
1070
     1
1070
    44
1040
1.0
1070
    74
1070
     0
1000
MTEXTEND
  0
POINT
  5
1486
330
147F
100
AcDbEntity
  8
DEFPOINTS
 62
     0
100
AcDbPoint
 10
3130.0
 20
3150.0
 30
0.0
  0
POINT
  5
1487
330
147F
100
AcDbEntity
  8
DEFPOINTS
 62
     0
100
AcDbPoint
 10
3730.0
 20
3150.0
 30
0.0
  0
POINT
  5
1488
330
147F
100
AcDbEntity
  8
DEFPOINTS
 62
     0
100
AcDbPoint
 10
3730.0
 20
3310.0
 30
0.0
  0
ENDBLK
  5
148A
330
147F
100
AcDbEntity
  8
0
100
AcDbBlockEnd
  0
BLOCK
  5
14B4
330
14A8
100
AcDbEntity
  8
0
100
AcDbBlockBegin
  2
*D6
 70
     1
 10
0.0
 20
0.0
 30
0.0
  3
*D6
  1

  0
LINE
  5
14A9
330
14A8
100
AcDbEntity
  8
SUNPO
 62
   144
100
AcDbLine
 10
1530.0
 20
3150.0
 30
0.0
 11
1390.0
 21
3150.0
 31
0.0
  0
LINE
  5
14AA
330
14A8
100
AcDbEntity
  8
SUNPO
 62
   144
100
AcDbLine
 10
1530.0
 20
3070.0
 30
0.0
 11
1390.0
 21
3070.0
 31
0.0
  0
LINE
  5
14AB
330
14A8
100
AcDbEntity
  8
SUNPO
 62
   144
100
AcDbLine
 10
1400.0
 20
3200.0
 30
0.0
 11
1400.0
 21
3250.0
 31
0.0
  0
LINE
  5
14AC
330
14A8
100
AcDbEntity
  8
SUNPO
 62
   144
100
AcDbLine
 10
1400.0
 20
3020.0
 30
0.0
 11
1400.0
 21
2970.0
 31
0.0
  0
LINE
  5
14AD
330
14A8
100
AcDbEntity
  8
SUNPO
 62
   144
100
AcDbLine
 10
1400.0
 20
3150.0
 30
0.0
 11
1400.0
 21
3070.0
 31
0.0
  0
SOLID
  5
14AE
330
14A8
100
AcDbEntity
  8
SUNPO
 62
   144
100
AcDbTrace
 10
1391.666666666666
 20
3200.0
 30
0.0
 11
1408.333333333333
 21
3200.0
 31
0.0
 12
1400.0
 22
3150.0
 32
0.0
 13
1400.0
 23
3150.0
 33
0.0
  0
SOLID
  5
14AF
330
14A8
100
AcDbEntity
  8
SUNPO
 62
   144
100
AcDbTrace
 10
1391.666666666666
 20
3020.0
 30
0.0
 11
1408.333333333333
 21
3020.0
 31
0.0
 12
1400.0
 22
3070.0
 32
0.0
 13
1400.0
 23
3070.0
 33
0.0
  0
MTEXT
  5
14B0
330
14A8
100
AcDbEntity
  8
SUNPO
 62
     7
100
AcDbMText
 10
1362.499999999999
 20
3110.0
 30
0.0
 40
50.0
 41
0.0
 71
     5
 72
     1
  1
\A2;80
  7
ADD
 11
0.0000000000000001
 21
1.0
 31
0.0
1001
ACAD
1000
MTEXTBEGIN
1070
    73
1070
     1
1070
    44
1040
1.0
1070
    74
1070
     0
1000
MTEXTEND
1000
MTEXTBEGIN
1070
    73
1070
     1
1070
    44
1040
1.0
1070
    74
1070
     0
1000
MTEXTEND
1000
MTEXTBEGIN
1070
    73
1070
     1
1070
    44
1040
1.0
1070
    74
1070
     0
1000
MTEXTEND
1000
MTEXTBEGIN
1070
    73
1070
     1
1070
    44
1040
1.0
1070
    74
1070
     0
1000
MTEXTEND
1000
MTEXTBEGIN
1070
    73
1070
     1
1070
    44
1040
1.0
1070
    74
1070
     0
1000
MTEXTEND
  0
POINT
  5
14B1
330
14A8
100
AcDbEntity
  8
DEFPOINTS
 62
     0
100
AcDbPoint
 10
1550.0
 20
3150.0
 30
0.0
  0
POINT
  5
14B2
330
14A8
100
AcDbEntity
  8
DEFPOINTS
 62
     0
100
AcDbPoint
 10
1550.0
 20
3070.0
 30
0.0
  0
POINT
  5
14B3
330
14A8
100
AcDbEntity
  8
DEFPOINTS
 62
     0
100
AcDbPoint
 10
1400.0
 20
3070.0
 30
0.0
  0
ENDBLK
  5
14B5
330
14A8
100
AcDbEntity
  8
0
100
AcDbBlockEnd
  0
BLOCK
  5
14C3
330
14B7
100
AcDbEntity
  8
0
100
AcDbBlockBegin
  2
*D7
 70
     1
 10
0.0
 20
0.0
 30
0.0
  3
*D7
  1

  0
LINE
  5
14B8
330
14B7
100
AcDbEntity
  8
SUNPO
 62
   144
100
AcDbLine
 10
1530.0
 20
3070.0
 30
0.0
 11
1240.0
 21
3070.0
 31
0.0
  0
LINE
  5
14B9
330
14B7
100
AcDbEntity
  8
SUNPO
 62
   144
100
AcDbLine
 10
1530.0
 20
3060.0
 30
0.0
 11
1240.0
 21
3060.0
 31
0.0
  0
LINE
  5
14BA
330
14B7
100
AcDbEntity
  8
SUNPO
 62
   144
100
AcDbLine
 10
1250.0
 20
3120.0
 30
0.0
 11
1250.0
 21
3170.0
 31
0.0
  0
LINE
  5
14BB
330
14B7
100
AcDbEntity
  8
SUNPO
 62
   144
100
AcDbLine
 10
1250.0
 20
3010.0
 30
0.0
 11
1250.0
 21
2960.0
 31
0.0
  0
LINE
  5
14BC
330
14B7
100
AcDbEntity
  8
SUNPO
 62
   144
100
AcDbLine
 10
1250.0
 20
3070.0
 30
0.0
 11
1250.0
 21
3060.0
 31
0.0
  0
SOLID
  5
14BD
330
14B7
100
AcDbEntity
  8
SUNPO
 62
   144
100
AcDbTrace
 10
1241.666666666666
 20
3120.0
 30
0.0
 11
1258.333333333333
 21
3120.0
 31
0.0
 12
1250.0
 22
3070.0
 32
0.0
 13
1250.0
 23
3070.0
 33
0.0
  0
SOLID
  5
14BE
330
14B7
100
AcDbEntity
  8
SUNPO
 62
   144
100
AcDbTrace
 10
1241.666666666666
 20
3010.0
 30
0.0
 11
1258.333333333333
 21
3010.0
 31
0.0
 12
1250.0
 22
3060.0
 32
0.0
 13
1250.0
 23
3060.0
 33
0.0
  0
MTEXT
  5
14BF
330
14B7
100
AcDbEntity
  8
SUNPO
 62
     7
100
AcDbMText
 10
1212.499999999999
 20
3065.0
 30
0.0
 40
50.0
 41
0.0
 71
     5
 72
     1
  1
\A2;10
  7
ADD
 11
0.0000000000000001
 21
1.0
 31
0.0
1001
ACAD
1000
MTEXTBEGIN
1070
    73
1070
     1
1070
    44
1040
1.0
1070
    74
1070
     0
1000
MTEXTEND
1000
MTEXTBEGIN
1070
    73
1070
     1
1070
    44
1040
1.0
1070
    74
1070
     0
1000
MTEXTEND
1000
MTEXTBEGIN
1070
    73
1070
     1
1070
    44
1040
1.0
1070
    74
1070
     0
1000
MTEXTEND
1000
MTEXTBEGIN
1070
    73
1070
     1
1070
    44
1040
1.0
1070
    74
1070
     0
1000
MTEXTEND
1000
MTEXTBEGIN
1070
    73
1070
     1
1070
    44
1040
1.0
1070
    74
1070
     0
1000
MTEXTEND
  0
POINT
  5
14C0
330
14B7
100
AcDbEntity
  8
DEFPOINTS
 62
     0
100
AcDbPoint
 10
1550.0
 20
3070.0
 30
0.0
  0
POINT
  5
14C1
330
14B7
100
AcDbEntity
  8
DEFPOINTS
 62
     0
100
AcDbPoint
 10
1550.0
 20
3060.0
 30
0.0
  0
POINT
  5
14C2
330
14B7
100
AcDbEntity
  8
DEFPOINTS
 62
     0
100
AcDbPoint
 10
1250.0
 20
3060.0
 30
0.0
  0
ENDBLK
  5
14C4
330
14B7
100
AcDbEntity
  8
0
100
AcDbBlockEnd
  0
BLOCK
  5
16BB
330
16AF
100
AcDbEntity
  8
0
100
AcDbBlockBegin
  2
*D8
 70
     1
 10
0.0
 20
0.0
 30
0.0
  3
*D8
  1

  0
LINE
  5
16B0
330
16AF
100
AcDbEntity
  8
SUNPO
 62
   144
100
AcDbLine
 10
1617.5
 20
3170.0
 30
0.0
 11
1617.5
 21
3245.0
 31
0.0
  0
LINE
  5
16B1
330
16AF
100
AcDbEntity
  8
SUNPO
 62
   144
100
AcDbLine
 10
1692.5
 20
3170.0
 30
0.0
 11
1692.5
 21
3245.0
 31
0.0
  0
LINE
  5
16B2
330
16AF
100
AcDbEntity
  8
SUNPO
 62
   144
100
AcDbLine
 10
1567.5
 20
3235.0
 30
0.0
 11
1517.5
 21
3235.0
 31
0.0
  0
LINE
  5
16B3
330
16AF
100
AcDbEntity
  8
SUNPO
 62
   144
100
AcDbLine
 10
1742.5
 20
3235.0
 30
0.0
 11
1792.5
 21
3235.0
 31
0.0
  0
LINE
  5
16B4
330
16AF
100
AcDbEntity
  8
SUNPO
 62
   144
100
AcDbLine
 10
1617.5
 20
3235.0
 30
0.0
 11
1692.5
 21
3235.0
 31
0.0
  0
SOLID
  5
16B5
330
16AF
100
AcDbEntity
  8
SUNPO
 62
   144
100
AcDbTrace
 10
1567.5
 20
3243.333333333334
 30
0.0
 11
1567.5
 21
3226.666666666666
 31
0.0
 12
1617.5
 22
3235.0
 32
0.0
 13
1617.5
 23
3235.0
 33
0.0
  0
SOLID
  5
16B6
330
16AF
100
AcDbEntity
  8
SUNPO
 62
   144
100
AcDbTrace
 10
1742.5
 20
3243.333333333334
 30
0.0
 11
1742.5
 21
3226.666666666666
 31
0.0
 12
1692.5
 22
3235.0
 32
0.0
 13
1692.5
 23
3235.0
 33
0.0
  0
MTEXT
  5
16B7
330
16AF
100
AcDbEntity
  8
SUNPO
 62
     7
100
AcDbMText
 10
1655.0
 20
3272.5
 30
0.0
 40
50.0
 41
0.0
 71
     5
 72
     1
  1
\A2;75
  7
ADD
1001
ACAD
1000
MTEXTBEGIN
1070
    73
1070
     1
1070
    44
1040
1.0
1070
    74
1070
     0
1000
MTEXTEND
1000
MTEXTBEGIN
1070
    73
1070
     1
1070
    44
1040
1.0
1070
    74
1070
     0
1000
MTEXTEND
1000
MTEXTBEGIN
1070
    73
1070
     1
1070
    44
1040
1.0
1070
    74
1070
     0
1000
MTEXTEND
  0
POINT
  5
16B8
330
16AF
100
AcDbEntity
  8
DEFPOINTS
 62
     0
100
AcDbPoint
 10
1617.5
 20
3150.0
 30
0.0
  0
POINT
  5
16B9
330
16AF
100
AcDbEntity
  8
DEFPOINTS
 62
     0
100
AcDbPoint
 10
1692.5
 20
3150.0
 30
0.0
  0
POINT
  5
16BA
330
16AF
100
AcDbEntity
  8
DEFPOINTS
 62
     0
100
AcDbPoint
 10
1692.5
 20
3235.0
 30
0.0
  0
ENDBLK
  5
16BC
330
16AF
100
AcDbEntity
  8
0
100
AcDbBlockEnd
  0
BLOCK
  5
16C8
330
16BE
100
AcDbEntity
  8
0
100
AcDbBlockBegin
  2
*D9
 70
     1
 10
0.0
 20
0.0
 30
0.0
  3
*D9
  1

  0
LINE
  5
16BF
330
16BE
100
AcDbEntity
  8
SUNPO
 62
   144
100
AcDbLine
 10
1550.0
 20
3170.0
 30
0.0
 11
1550.0
 21
3320.0
 31
0.0
  0
LINE
  5
16C0
330
16BE
100
AcDbEntity
  8
SUNPO
 62
   144
100
AcDbLine
 10
1760.0
 20
3170.0
 30
0.0
 11
1760.0
 21
3320.0
 31
0.0
  0
LINE
  5
16C1
330
16BE
100
AcDbEntity
  8
SUNPO
 62
   144
100
AcDbLine
 10
1600.0
 20
3310.0
 30
0.0
 11
1710.0
 21
3310.0
 31
0.0
  0
SOLID
  5
16C2
330
16BE
100
AcDbEntity
  8
SUNPO
 62
   144
100
AcDbTrace
 10
1600.0
 20
3318.333333333333
 30
0.0
 11
1600.0
 21
3301.666666666666
 31
0.0
 12
1550.0
 22
3310.0
 32
0.0
 13
1550.0
 23
3310.0
 33
0.0
  0
SOLID
  5
16C3
330
16BE
100
AcDbEntity
  8
SUNPO
 62
   144
100
AcDbTrace
 10
1710.0
 20
3318.333333333333
 30
0.0
 11
1710.0
 21
3301.666666666666
 31
0.0
 12
1760.0
 22
3310.0
 32
0.0
 13
1760.0
 23
3310.0
 33
0.0
  0
MTEXT
  5
16C4
330
16BE
100
AcDbEntity
  8
SUNPO
 62
     7
100
AcDbMText
 10
1655.0
 20
3347.5
 30
0.0
 40
50.0
 41
0.0
 71
     5
 72
     1
  1
\A2;210
  7
ADD
1001
ACAD
1000
MTEXTBEGIN
1070
    73
1070
     1
1070
    44
1040
1.0
1070
    74
1070
     0
1000
MTEXTEND
1000
MTEXTBEGIN
1070
    73
1070
     1
1070
    44
1040
1.0
1070
    74
1070
     0
1000
MTEXTEND
1000
MTEXTBEGIN
1070
    73
1070
     1
1070
    44
1040
1.0
1070
    74
1070
     0
1000
MTEXTEND
  0
POINT
  5
16C5
330
16BE
100
AcDbEntity
  8
DEFPOINTS
 62
     0
100
AcDbPoint
 10
1550.0
 20
3150.0
 30
0.0
  0
POINT
  5
16C6
330
16BE
100
AcDbEntity
  8
DEFPOINTS
 62
     0
100
AcDbPoint
 10
1760.0
 20
3150.0
 30
0.0
  0
POINT
  5
16C7
330
16BE
100
AcDbEntity
  8
DEFPOINTS
 62
     0
100
AcDbPoint
 10
1760.0
 20
3310.0
 30
0.0
  0
ENDBLK
  5
16C9
330
16BE
100
AcDbEntity
  8
0
100
AcDbBlockEnd
  0
BLOCK
  5
16D7
330
16CB
100
AcDbEntity
  8
0
100
AcDbBlockBegin
  2
*D10
 70
     1
 10
0.0
 20
0.0
 30
0.0
  3
*D10
  1

  0
LINE
  5
16E8
330
16CB
100
AcDbEntity
  8
SUNPO
 62
   144
100
AcDbLine
 10
1550.0
 20
3040.0
 30
0.0
 11
1550.0
 21
2880.0
 31
0.0
  0
LINE
  5
16E9
330
16CB
100
AcDbEntity
  8
SUNPO
 62
   144
100
AcDbLine
 10
1585.0
 20
3040.0
 30
0.0
 11
1585.0
 21
2880.0
 31
0.0
  0
LINE
  5
16EA
330
16CB
100
AcDbEntity
  8
SUNPO
 62
   144
100
AcDbLine
 10
1500.0
 20
2890.0
 30
0.0
 11
1450.0
 21
2890.0
 31
0.0
  0
LINE
  5
16EB
330
16CB
100
AcDbEntity
  8
SUNPO
 62
   144
100
AcDbLine
 10
1635.0
 20
2890.0
 30
0.0
 11
1685.0
 21
2890.0
 31
0.0
  0
LINE
  5
16EC
330
16CB
100
AcDbEntity
  8
SUNPO
 62
   144
100
AcDbLine
 10
1550.0
 20
2890.0
 30
0.0
 11
1585.0
 21
2890.0
 31
0.0
  0
SOLID
  5
16ED
330
16CB
100
AcDbEntity
  8
SUNPO
 62
   144
100
AcDbTrace
 10
1500.0
 20
2898.333333333333
 30
0.0
 11
1500.0
 21
2881.666666666666
 31
0.0
 12
1550.0
 22
2890.0
 32
0.0
 13
1550.0
 23
2890.0
 33
0.0
  0
SOLID
  5
16EE
330
16CB
100
AcDbEntity
  8
SUNPO
 62
   144
100
AcDbTrace
 10
1635.0
 20
2898.333333333333
 30
0.0
 11
1635.0
 21
2881.666666666666
 31
0.0
 12
1585.0
 22
2890.0
 32
0.0
 13
1585.0
 23
2890.0
 33
0.0
  0
MTEXT
  5
16EF
330
16CB
100
AcDbEntity
  8
SUNPO
 62
     7
100
AcDbMText
 10
1567.5
 20
2852.5
 30
0.0
 40
50.0
 41
0.0
 71
     5
 72
     1
  1
\A2;35
  7
ADD
1001
ACAD
1000
MTEXTBEGIN
1070
    73
1070
     1
1070
    44
1040
1.0
1070
    74
1070
     0
1000
MTEXTEND
1000
MTEXTBEGIN
1070
    73
1070
     1
1070
    44
1040
1.0
1070
    74
1070
     0
1000
MTEXTEND
1000
MTEXTBEGIN
1070
    73
1070
     1
1070
    44
1040
1.0
1070
    74
1070
     0
1000
MTEXTEND
  0
POINT
  5
16F0
330
16CB
100
AcDbEntity
  8
DEFPOINTS
 62
     0
100
AcDbPoint
 10
1550.0
 20
3060.0
 30
0.0
  0
POINT
  5
16F1
330
16CB
100
AcDbEntity
  8
DEFPOINTS
 62
     0
100
AcDbPoint
 10
1585.0
 20
3060.0
 30
0.0
  0
POINT
  5
16F2
330
16CB
100
AcDbEntity
  8
DEFPOINTS
 62
     0
100
AcDbPoint
 10
1585.0
 20
2890.0
 30
0.0
  0
ENDBLK
  5
16D8
330
16CB
100
AcDbEntity
  8
0
100
AcDbBlockEnd
  0
BLOCK
  5
16E6
330
16DA
100
AcDbEntity
  8
0
100
AcDbBlockBegin
  2
*D11
 70
     1
 10
0.0
 20
0.0
 30
0.0
  3
*D11
  1

  0
LINE
  5
16F3
330
16DA
100
AcDbEntity
  8
SUNPO
 62
   144
100
AcDbLine
 10
1725.0
 20
3040.0
 30
0.0
 11
1725.0
 21
2880.0
 31
0.0
  0
LINE
  5
16F4
330
16DA
100
AcDbEntity
  8
SUNPO
 62
   144
100
AcDbLine
 10
1760.0
 20
3040.0
 30
0.0
 11
1760.0
 21
2880.0
 31
0.0
  0
LINE
  5
16F5
330
16DA
100
AcDbEntity
  8
SUNPO
 62
   144
100
AcDbLine
 10
1675.0
 20
2890.0
 30
0.0
 11
1625.0
 21
2890.0
 31
0.0
  0
LINE
  5
16F6
330
16DA
100
AcDbEntity
  8
SUNPO
 62
   144
100
AcDbLine
 10
1810.0
 20
2890.0
 30
0.0
 11
1860.0
 21
2890.0
 31
0.0
  0
LINE
  5
16F7
330
16DA
100
AcDbEntity
  8
SUNPO
 62
   144
100
AcDbLine
 10
1725.0
 20
2890.0
 30
0.0
 11
1760.0
 21
2890.0
 31
0.0
  0
SOLID
  5
16F8
330
16DA
100
AcDbEntity
  8
SUNPO
 62
   144
100
AcDbTrace
 10
1675.0
 20
2898.333333333333
 30
0.0
 11
1675.0
 21
2881.666666666666
 31
0.0
 12
1725.0
 22
2890.0
 32
0.0
 13
1725.0
 23
2890.0
 33
0.0
  0
SOLID
  5
16F9
330
16DA
100
AcDbEntity
  8
SUNPO
 62
   144
100
AcDbTrace
 10
1810.0
 20
2898.333333333333
 30
0.0
 11
1810.0
 21
2881.666666666666
 31
0.0
 12
1760.0
 22
2890.0
 32
0.0
 13
1760.0
 23
2890.0
 33
0.0
  0
MTEXT
  5
16FA
330
16DA
100
AcDbEntity
  8
SUNPO
 62
     7
100
AcDbMText
 10
1742.5
 20
2852.5
 30
0.0
 40
50.0
 41
0.0
 71
     5
 72
     1
  1
\A2;35
  7
ADD
1001
ACAD
1000
MTEXTBEGIN
1070
    73
1070
     1
1070
    44
1040
1.0
1070
    74
1070
     0
1000
MTEXTEND
1000
MTEXTBEGIN
1070
    73
1070
     1
1070
    44
1040
1.0
1070
    74
1070
     0
1000
MTEXTEND
1000
MTEXTBEGIN
1070
    73
1070
     1
1070
    44
1040
1.0
1070
    74
1070
     0
1000
MTEXTEND
  0
POINT
  5
16FB
330
16DA
100
AcDbEntity
  8
DEFPOINTS
 62
     0
100
AcDbPoint
 10
1725.0
 20
3060.0
 30
0.0
  0
POINT
  5
16FC
330
16DA
100
AcDbEntity
  8
DEFPOINTS
 62
     0
100
AcDbPoint
 10
1760.0
 20
3060.0
 30
0.0
  0
POINT
  5
16FD
330
16DA
100
AcDbEntity
  8
DEFPOINTS
 62
     0
100
AcDbPoint
 10
1760.0
 20
2890.0
 30
0.0
  0
ENDBLK
  5
16E7
330
16DA
100
AcDbEntity
  8
0
100
AcDbBlockEnd
  0
BLOCK
  5
171A
330
170E
100
AcDbEntity
  8
0
100
AcDbBlockBegin
  2
*D12
 70
     1
 10
0.0
 20
0.0
 30
0.0
  3
*D12
  1

  0
LINE
  5
170F
330
170E
100
AcDbEntity
  8
SUNPO
 62
   144
100
AcDbLine
 10
1617.499999999999
 20
2380.0
 30
0.0
 11
1617.499999999999
 21
2520.0
 31
0.0
  0
LINE
  5
1710
330
170E
100
AcDbEntity
  8
SUNPO
 62
   144
100
AcDbLine
 10
1692.499999999999
 20
2380.0
 30
0.0
 11
1692.499999999999
 21
2520.0
 31
0.0
  0
LINE
  5
1711
330
170E
100
AcDbEntity
  8
SUNPO
 62
   144
100
AcDbLine
 10
1567.499999999999
 20
2510.0
 30
0.0
 11
1517.499999999999
 21
2510.0
 31
0.0
  0
LINE
  5
1712
330
170E
100
AcDbEntity
  8
SUNPO
 62
   144
100
AcDbLine
 10
1742.499999999999
 20
2510.0
 30
0.0
 11
1792.499999999999
 21
2510.0
 31
0.0
  0
LINE
  5
1713
330
170E
100
AcDbEntity
  8
SUNPO
 62
   144
100
AcDbLine
 10
1617.499999999999
 20
2510.0
 30
0.0
 11
1692.499999999999
 21
2510.0
 31
0.0
  0
SOLID
  5
1714
330
170E
100
AcDbEntity
  8
SUNPO
 62
   144
100
AcDbTrace
 10
1567.499999999999
 20
2518.333333333333
 30
0.0
 11
1567.499999999999
 21
2501.666666666666
 31
0.0
 12
1617.499999999999
 22
2510.0
 32
0.0
 13
1617.499999999999
 23
2510.0
 33
0.0
  0
SOLID
  5
1715
330
170E
100
AcDbEntity
  8
SUNPO
 62
   144
100
AcDbTrace
 10
1742.499999999999
 20
2518.333333333333
 30
0.0
 11
1742.499999999999
 21
2501.666666666666
 31
0.0
 12
1692.499999999999
 22
2510.0
 32
0.0
 13
1692.499999999999
 23
2510.0
 33
0.0
  0
MTEXT
  5
1716
330
170E
100
AcDbEntity
  8
SUNPO
 62
     7
100
AcDbMText
 10
1654.999999999999
 20
2547.5
 30
0.0
 40
50.0
 41
0.0
 71
     5
 72
     1
  1
\A2;75
  7
ADD
1001
ACAD
1000
MTEXTBEGIN
1070
    73
1070
     1
1070
    44
1040
1.0
1070
    74
1070
     0
1000
MTEXTEND
1000
MTEXTBEGIN
1070
    73
1070
     1
1070
    44
1040
1.0
1070
    74
1070
     0
1000
MTEXTEND
1000
MTEXTBEGIN
1070
    73
1070
     1
1070
    44
1040
1.0
1070
    74
1070
     0
1000
MTEXTEND
  0
POINT
  5
1717
330
170E
100
AcDbEntity
  8
DEFPOINTS
 62
     0
100
AcDbPoint
 10
1617.499999999999
 20
2360.0
 30
0.0
  0
POINT
  5
1718
330
170E
100
AcDbEntity
  8
DEFPOINTS
 62
     0
100
AcDbPoint
 10
1692.499999999999
 20
2360.0
 30
0.0
  0
POINT
  5
1719
330
170E
100
AcDbEntity
  8
DEFPOINTS
 62
     0
100
AcDbPoint
 10
1692.499999999999
 20
2510.0
 30
0.0
  0
ENDBLK
  5
171B
330
170E
100
AcDbEntity
  8
0
100
AcDbBlockEnd
  0
BLOCK
  5
1729
330
171D
100
AcDbEntity
  8
0
100
AcDbBlockBegin
  2
*D13
 70
     1
 10
0.0
 20
0.0
 30
0.0
  3
*D13
  1

  0
LINE
  5
172B
330
171D
100
AcDbEntity
  8
SUNPO
 62
   144
100
AcDbLine
 10
1617.499999999999
 20
1740.0
 30
0.0
 11
1617.499999999999
 21
1600.0
 31
0.0
  0
LINE
  5
172C
330
171D
100
AcDbEntity
  8
SUNPO
 62
   144
100
AcDbLine
 10
1692.499999999999
 20
1740.0
 30
0.0
 11
1692.499999999999
 21
1600.0
 31
0.0
  0
LINE
  5
172D
330
171D
100
AcDbEntity
  8
SUNPO
 62
   144
100
AcDbLine
 10
1567.499999999999
 20
1610.0
 30
0.0
 11
1517.499999999999
 21
1610.0
 31
0.0
  0
LINE
  5
172E
330
171D
100
AcDbEntity
  8
SUNPO
 62
   144
100
AcDbLine
 10
1742.499999999999
 20
1610.0
 30
0.0
 11
1792.499999999999
 21
1610.0
 31
0.0
  0
LINE
  5
172F
330
171D
100
AcDbEntity
  8
SUNPO
 62
   144
100
AcDbLine
 10
1617.499999999999
 20
1610.0
 30
0.0
 11
1692.499999999999
 21
1610.0
 31
0.0
  0
SOLID
  5
1730
330
171D
100
AcDbEntity
  8
SUNPO
 62
   144
100
AcDbTrace
 10
1567.499999999999
 20
1618.333333333333
 30
0.0
 11
1567.499999999999
 21
1601.666666666667
 31
0.0
 12
1617.499999999999
 22
1610.0
 32
0.0
 13
1617.499999999999
 23
1610.0
 33
0.0
  0
SOLID
  5
1731
330
171D
100
AcDbEntity
  8
SUNPO
 62
   144
100
AcDbTrace
 10
1742.499999999999
 20
1618.333333333333
 30
0.0
 11
1742.499999999999
 21
1601.666666666667
 31
0.0
 12
1692.499999999999
 22
1610.0
 32
0.0
 13
1692.499999999999
 23
1610.0
 33
0.0
  0
MTEXT
  5
1732
330
171D
100
AcDbEntity
  8
SUNPO
 62
     7
100
AcDbMText
 10
1654.999999999999
 20
1572.499999999999
 30
0.0
 40
50.0
 41
0.0
 71
     5
 72
     1
  1
\A2;75
  7
ADD
1001
ACAD
1000
MTEXTBEGIN
1070
    73
1070
     1
1070
    44
1040
1.0
1070
    74
1070
     0
1000
MTEXTEND
1000
MTEXTBEGIN
1070
    73
1070
     1
1070
    44
1040
1.0
1070
    74
1070
     0
1000
MTEXTEND
1000
MTEXTBEGIN
1070
    73
1070
     1
1070
    44
1040
1.0
1070
    74
1070
     0
1000
MTEXTEND
  0
POINT
  5
1733
330
171D
100
AcDbEntity
  8
DEFPOINTS
 62
     0
100
AcDbPoint
 10
1617.499999999999
 20
1760.0
 30
0.0
  0
POINT
  5
1734
330
171D
100
AcDbEntity
  8
DEFPOINTS
 62
     0
100
AcDbPoint
 10
1692.499999999999
 20
1760.0
 30
0.0
  0
POINT
  5
1735
330
171D
100
AcDbEntity
  8
DEFPOINTS
 62
     0
100
AcDbPoint
 10
1692.499999999999
 20
1610.0
 30
0.0
  0
ENDBLK
  5
172A
330
171D
100
AcDbEntity
  8
0
100
AcDbBlockEnd
  0
ENDSEC
  0
SECTION
  2
ENTITIES
  0
LINE
  5
60A
330
1F
100
AcDbEntity
  8
HOJO
100
AcDbLine
 10
360.0
 20
260.0
 30
0.0
 11
5580.0
 21
260.0
 31
0.0
  0
LINE
  5
60B
330
1F
100
AcDbEntity
  8
HOJO
100
AcDbLine
 10
360.0
 20
560.0
 30
0.0
 11
5580.0
 21
560.0
 31
0.0
  0
LINE
  5
60C
330
1F
100
AcDbEntity
  8
HOJO
100
AcDbLine
 10
360.0
 20
260.0
 30
0.0
 11
360.0
 21
560.0
 31
0.0
  0
LINE
  5
60D
330
1F
100
AcDbEntity
  8
HOJO
100
AcDbLine
 10
2360.0
 20
260.0
 30
0.0
 11
2360.0
 21
560.0
 31
0.0
  0
LINE
  5
60F
330
1F
100
AcDbEntity
  8
HOJO
100
AcDbLine
 10
3160.0
 20
260.0
 30
0.0
 11
3160.0
 21
560.0
 31
0.0
  0
LINE
  5
610
330
1F
100
AcDbEntity
  8
HOJO
100
AcDbLine
 10
3660.0
 20
260.0
 30
0.0
 11
3660.0
 21
560.0
 31
0.0
  0
LINE
  5
1114
330
1F
100
AcDbEntity
  8
3C1
100
AcDbLine
 10
1549.999999999999
 20
1760.0
 30
0.0
 11
1549.999999999999
 21
2360.0
 31
0.0
  0
LINE
  5
1327
330
1F
100
AcDbEntity
  8
3C1
100
AcDbLine
 10
3130.0
 20
3070.0
 30
0.0
 11
3730.0
 21
3070.0
 31
0.0
  0
LINE
  5
1345
330
1F
100
AcDbEntity
  8
3C1
100
AcDbLine
 10
1550.0
 20
3150.0
 30
0.0
 11
1550.0
 21
3150.0
 31
0.0
  0
LINE
  5
1346
330
1F
100
AcDbEntity
  8
3C1
100
AcDbLine
 10
1550.0
 20
3150.0
 30
0.0
 11
1550.0
 21
3150.0
 31
0.0
  0
LINE
  5
16A4
330
1F
100
AcDbEntity
  8
3C1
100
AcDbLine
 10
1550.0
 20
3150.0
 30
0.0
 11
1550.0
 21
3070.0
 31
0.0
  0
LINE
  5
16A5
330
1F
100
AcDbEntity
  8
3C1
100
AcDbLine
 10
1550.0
 20
3070.0
 30
0.0
 11
1585.0
 21
3070.0
 31
0.0
  0
LINE
  5
16A6
330
1F
100
AcDbEntity
  8
3C1
100
AcDbLine
 10
1585.0
 20
3070.0
 30
0.0
 11
1595.0
 21
3060.0
 31
0.0
  0
LINE
  5
16A7
330
1F
100
AcDbEntity
  8
3C1
100
AcDbLine
 10
1595.0
 20
3060.0
 30
0.0
 11
1715.0
 21
3060.0
 31
0.0
  0
LINE
  5
16A8
330
1F
100
AcDbEntity
  8
3C1
100
AcDbLine
 10
1715.0
 20
3060.0
 30
0.0
 11
1725.0
 21
3070.0
 31
0.0
  0
LINE
  5
16A9
330
1F
100
AcDbEntity
  8
3C1
100
AcDbLine
 10
1725.0
 20
3070.0
 30
0.0
 11
1760.0
 21
3070.0
 31
0.0
  0
LINE
  5
16AA
330
1F
100
AcDbEntity
  8
3C1
100
AcDbLine
 10
1760.0
 20
3070.0
 30
0.0
 11
1760.0
 21
3150.0
 31
0.0
  0
LINE
  5
16AB
330
1F
100
AcDbEntity
  8
3C1
100
AcDbLine
 10
1760.0
 20
3150.0
 30
0.0
 11
1550.0
 21
3150.0
 31
0.0
  0
LINE
  5
16AC
330
1F
100
AcDbEntity
  8
3C1
100
AcDbLine
 10
1617.5
 20
3150.0
 30
0.0
 11
1617.5
 21
3060.0
 31
0.0
  0
LINE
  5
16AD
330
1F
100
AcDbEntity
  8
3C1
100
AcDbLine
 10
1692.5
 20
3150.0
 30
0.0
 11
1692.5
 21
3060.0
 31
0.0
  0
LINE
  5
16FE
330
1F
100
AcDbEntity
  8
3C1
100
AcDbLine
 10
1549.999999999999
 20
2360.0
 30
0.0
 11
1617.499999999999
 21
2360.0
 31
0.0
  0
LINE
  5
16FF
330
1F
100
AcDbEntity
  8
3C1
100
AcDbLine
 10
1617.499999999999
 20
2360.0
 30
0.0
 11
1617.499999999999
 21
2355.0
 31
0.0
  0
LINE
  5
1700
330
1F
100
AcDbEntity
  8
3C1
100
AcDbLine
 10
1632.5
 20
2340.0
 30
0.0
 11
1677.499999999999
 21
2340.0
 31
0.0
  0
LINE
  5
1701
330
1F
100
AcDbEntity
  8
3C1
100
AcDbLine
 10
1692.499999999999
 20
2355.0
 30
0.0
 11
1692.499999999999
 21
2360.0
 31
0.0
  0
LINE
  5
1702
330
1F
100
AcDbEntity
  8
3C1
100
AcDbLine
 10
1692.499999999999
 20
2360.0
 30
0.0
 11
1759.999999999999
 21
2360.0
 31
0.0
  0
LINE
  5
1703
330
1F
100
AcDbEntity
  8
3C1
100
AcDbLine
 10
1759.999999999999
 20
2360.0
 30
0.0
 11
1759.999999999999
 21
1760.0
 31
0.0
  0
LINE
  5
1704
330
1F
100
AcDbEntity
  8
3C1
100
AcDbLine
 10
1759.999999999999
 20
1760.0
 30
0.0
 11
1692.499999999999
 21
1760.0
 31
0.0
  0
LINE
  5
1705
330
1F
100
AcDbEntity
  8
3C1
100
AcDbLine
 10
1692.499999999999
 20
1760.0
 30
0.0
 11
1692.499999999999
 21
1765.0
 31
0.0
  0
LINE
  5
1706
330
1F
100
AcDbEntity
  8
3C1
100
AcDbLine
 10
1677.499999999999
 20
1780.0
 30
0.0
 11
1632.5
 21
1780.0
 31
0.0
  0
LINE
  5
1707
330
1F
100
AcDbEntity
  8
3C1
100
AcDbLine
 10
1617.5
 20
1765.0
 30
0.0
 11
1617.499999999999
 21
1760.0
 31
0.0
  0
LINE
  5
1708
330
1F
100
AcDbEntity
  8
3C1
100
AcDbLine
 10
1617.499999999999
 20
1760.0
 30
0.0
 11
1550.0
 21
1760.0
 31
0.0
  0
ARC
  5
1709
330
1F
100
AcDbEntity
  8
3C1
100
AcDbCircle
 10
1632.5
 20
2355.0
 30
0.0
 40
15.0
100
AcDbArc
 50
180.0
 51
270.0
  0
ARC
  5
170A
330
1F
100
AcDbEntity
  8
3C1
100
AcDbCircle
 10
1677.499999999999
 20
2355.0
 30
0.0
 40
15.0
100
AcDbArc
 50
270.0
 51
0.0
  0
ARC
  5
170B
330
1F
100
AcDbEntity
  8
3C1
100
AcDbCircle
 10
1632.5
 20
1765.0
 30
0.0
 40
15.0
100
AcDbArc
 50
90.0
 51
180.0
  0
ARC
  5
170C
330
1F
100
AcDbEntity
  8
3C1
100
AcDbCircle
 10
1677.499999999999
 20
1765.0
 30
0.0
 40
15.0
100
AcDbArc
 50
0.0
 51
90.0
  0
TEXT
  5
18B6
330
1F
100
AcDbEntity
  8
3C1
100
AcDbText
 10
595.1423705002817
 20
392.0444212208366
 30
0.0
 40
80.0
  1
鉄筋ｺﾝｸﾘｰﾄＵ形１５０用２種蓋
  7
ADD
100
AcDbText
1001
ACAD
1000
MTEXTBEGIN
1070
    73
1070
     1
1070
    44
1040
1.0
1070
    74
1070
     0
1000
MTEXTEND
1000
MTEXTBEGIN
1070
    73
1070
     1
1070
    44
1040
1.0
1070
    74
1070
     0
1000
MTEXTEND
  0
LINE
  5
18B7
330
1F
100
AcDbEntity
  8
SUNPO
 62
   144
100
AcDbLine
 10
1617.499999999999
 20
1740.0
 30
0.0
 11
1617.499999999999
 21
1600.0
 31
0.0
  0
LINE
  5
18B8
330
1F
100
AcDbEntity
  8
SUNPO
 62
   144
100
AcDbLine
 10
1692.499999999999
 20
1740.0
 30
0.0
 11
1692.499999999999
 21
1600.0
 31
0.0
  0
LINE
  5
18B9
330
1F
100
AcDbEntity
  8
SUNPO
 62
   144
100
AcDbLine
 10
1567.499999999999
 20
1610.0
 30
0.0
 11
1517.499999999999
 21
1610.0
 31
0.0
  0
LINE
  5
18BA
330
1F
100
AcDbEntity
  8
SUNPO
 62
   144
100
AcDbLine
 10
1742.499999999999
 20
1610.0
 30
0.0
 11
1792.499999999999
 21
1610.0
 31
0.0
  0
LINE
  5
18BB
330
1F
100
AcDbEntity
  8
SUNPO
 62
   144
100
AcDbLine
 10
1617.499999999999
 20
1610.0
 30
0.0
 11
1692.499999999999
 21
1610.0
 31
0.0
  0
SOLID
  5
18BC
330
1F
100
AcDbEntity
  8
SUNPO
 62
   144
100
AcDbTrace
 10
1567.499999999999
 20
1618.333333333333
 30
0.0
 11
1567.499999999999
 21
1601.666666666667
 31
0.0
 12
1617.499999999999
 22
1610.0
 32
0.0
 13
1617.499999999999
 23
1610.0
 33
0.0
  0
SOLID
  5
18BD
330
1F
100
AcDbEntity
  8
SUNPO
 62
   144
100
AcDbTrace
 10
1742.499999999999
 20
1618.333333333333
 30
0.0
 11
1742.499999999999
 21
1601.666666666667
 31
0.0
 12
1692.499999999999
 22
1610.0
 32
0.0
 13
1692.499999999999
 23
1610.0
 33
0.0
  0
LINE
  5
18BF
330
1F
100
AcDbEntity
  8
SUNPO
 62
   144
100
AcDbLine
 10
1617.499999999999
 20
2380.0
 30
0.0
 11
1617.499999999999
 21
2520.0
 31
0.0
  0
LINE
  5
18C0
330
1F
100
AcDbEntity
  8
SUNPO
 62
   144
100
AcDbLine
 10
1692.499999999999
 20
2380.0
 30
0.0
 11
1692.499999999999
 21
2520.0
 31
0.0
  0
LINE
  5
18C1
330
1F
100
AcDbEntity
  8
SUNPO
 62
   144
100
AcDbLine
 10
1567.499999999999
 20
2510.0
 30
0.0
 11
1517.499999999999
 21
2510.0
 31
0.0
  0
LINE
  5
18C2
330
1F
100
AcDbEntity
  8
SUNPO
 62
   144
100
AcDbLine
 10
1742.499999999999
 20
2510.0
 30
0.0
 11
1792.499999999999
 21
2510.0
 31
0.0
  0
LINE
  5
18C3
330
1F
100
AcDbEntity
  8
SUNPO
 62
   144
100
AcDbLine
 10
1617.499999999999
 20
2510.0
 30
0.0
 11
1692.499999999999
 21
2510.0
 31
0.0
  0
SOLID
  5
18C4
330
1F
100
AcDbEntity
  8
SUNPO
 62
   144
100
AcDbTrace
 10
1567.499999999999
 20
2518.333333333333
 30
0.0
 11
1567.499999999999
 21
2501.666666666666
 31
0.0
 12
1617.499999999999
 22
2510.0
 32
0.0
 13
1617.499999999999
 23
2510.0
 33
0.0
  0
SOLID
  5
18C5
330
1F
100
AcDbEntity
  8
SUNPO
 62
   144
100
AcDbTrace
 10
1742.499999999999
 20
2518.333333333333
 30
0.0
 11
1742.499999999999
 21
2501.666666666666
 31
0.0
 12
1692.499999999999
 22
2510.0
 32
0.0
 13
1692.499999999999
 23
2510.0
 33
0.0
  0
LINE
  5
18C7
330
1F
100
AcDbEntity
  8
SUNPO
 62
   144
100
AcDbLine
 10
1725.0
 20
3040.0
 30
0.0
 11
1725.0
 21
2880.0
 31
0.0
  0
LINE
  5
18C8
330
1F
100
AcDbEntity
  8
SUNPO
 62
   144
100
AcDbLine
 10
1760.0
 20
3040.0
 30
0.0
 11
1760.0
 21
2880.0
 31
0.0
  0
LINE
  5
18C9
330
1F
100
AcDbEntity
  8
SUNPO
 62
   144
100
AcDbLine
 10
1675.0
 20
2890.0
 30
0.0
 11
1625.0
 21
2890.0
 31
0.0
  0
LINE
  5
18CA
330
1F
100
AcDbEntity
  8
SUNPO
 62
   144
100
AcDbLine
 10
1810.0
 20
2890.0
 30
0.0
 11
1860.0
 21
2890.0
 31
0.0
  0
LINE
  5
18CB
330
1F
100
AcDbEntity
  8
SUNPO
 62
   144
100
AcDbLine
 10
1725.0
 20
2890.0
 30
0.0
 11
1760.0
 21
2890.0
 31
0.0
  0
SOLID
  5
18CC
330
1F
100
AcDbEntity
  8
SUNPO
 62
   144
100
AcDbTrace
 10
1675.0
 20
2898.333333333333
 30
0.0
 11
1675.0
 21
2881.666666666666
 31
0.0
 12
1725.0
 22
2890.0
 32
0.0
 13
1725.0
 23
2890.0
 33
0.0
  0
SOLID
  5
18CD
330
1F
100
AcDbEntity
  8
SUNPO
 62
   144
100
AcDbTrace
 10
1810.0
 20
2898.333333333333
 30
0.0
 11
1810.0
 21
2881.666666666666
 31
0.0
 12
1760.0
 22
2890.0
 32
0.0
 13
1760.0
 23
2890.0
 33
0.0
  0
LINE
  5
18CF
330
1F
100
AcDbEntity
  8
SUNPO
 62
   144
100
AcDbLine
 10
1550.0
 20
3040.0
 30
0.0
 11
1550.0
 21
2880.0
 31
0.0
  0
LINE
  5
18D0
330
1F
100
AcDbEntity
  8
SUNPO
 62
   144
100
AcDbLine
 10
1585.0
 20
3040.0
 30
0.0
 11
1585.0
 21
2880.0
 31
0.0
  0
LINE
  5
18D1
330
1F
100
AcDbEntity
  8
SUNPO
 62
   144
100
AcDbLine
 10
1500.0
 20
2890.0
 30
0.0
 11
1450.0
 21
2890.0
 31
0.0
  0
LINE
  5
18D2
330
1F
100
AcDbEntity
  8
SUNPO
 62
   144
100
AcDbLine
 10
1635.0
 20
2890.0
 30
0.0
 11
1685.0
 21
2890.0
 31
0.0
  0
LINE
  5
18D3
330
1F
100
AcDbEntity
  8
SUNPO
 62
   144
100
AcDbLine
 10
1550.0
 20
2890.0
 30
0.0
 11
1585.0
 21
2890.0
 31
0.0
  0
SOLID
  5
18D4
330
1F
100
AcDbEntity
  8
SUNPO
 62
   144
100
AcDbTrace
 10
1500.0
 20
2898.333333333333
 30
0.0
 11
1500.0
 21
2881.666666666666
 31
0.0
 12
1550.0
 22
2890.0
 32
0.0
 13
1550.0
 23
2890.0
 33
0.0
  0
SOLID
  5
18D5
330
1F
100
AcDbEntity
  8
SUNPO
 62
   144
100
AcDbTrace
 10
1635.0
 20
2898.333333333333
 30
0.0
 11
1635.0
 21
2881.666666666666
 31
0.0
 12
1585.0
 22
2890.0
 32
0.0
 13
1585.0
 23
2890.0
 33
0.0
  0
LINE
  5
18D7
330
1F
100
AcDbEntity
  8
SUNPO
 62
   144
100
AcDbLine
 10
1550.0
 20
3170.0
 30
0.0
 11
1550.0
 21
3320.0
 31
0.0
  0
LINE
  5
18D8
330
1F
100
AcDbEntity
  8
SUNPO
 62
   144
100
AcDbLine
 10
1760.0
 20
3170.0
 30
0.0
 11
1760.0
 21
3320.0
 31
0.0
  0
LINE
  5
18D9
330
1F
100
AcDbEntity
  8
SUNPO
 62
   144
100
AcDbLine
 10
1600.0
 20
3310.0
 30
0.0
 11
1710.0
 21
3310.0
 31
0.0
  0
SOLID
  5
18DA
330
1F
100
AcDbEntity
  8
SUNPO
 62
   144
100
AcDbTrace
 10
1600.0
 20
3318.333333333333
 30
0.0
 11
1600.0
 21
3301.666666666666
 31
0.0
 12
1550.0
 22
3310.0
 32
0.0
 13
1550.0
 23
3310.0
 33
0.0
  0
SOLID
  5
18DB
330
1F
100
AcDbEntity
  8
SUNPO
 62
   144
100
AcDbTrace
 10
1710.0
 20
3318.333333333333
 30
0.0
 11
1710.0
 21
3301.666666666666
 31
0.0
 12
1760.0
 22
3310.0
 32
0.0
 13
1760.0
 23
3310.0
 33
0.0
  0
LINE
  5
18DD
330
1F
100
AcDbEntity
  8
SUNPO
 62
   144
100
AcDbLine
 10
1617.5
 20
3170.0
 30
0.0
 11
1617.5
 21
3245.0
 31
0.0
  0
LINE
  5
18DE
330
1F
100
AcDbEntity
  8
SUNPO
 62
   144
100
AcDbLine
 10
1692.5
 20
3170.0
 30
0.0
 11
1692.5
 21
3245.0
 31
0.0
  0
LINE
  5
18DF
330
1F
100
AcDbEntity
  8
SUNPO
 62
   144
100
AcDbLine
 10
1567.5
 20
3235.0
 30
0.0
 11
1517.5
 21
3235.0
 31
0.0
  0
LINE
  5
18E0
330
1F
100
AcDbEntity
  8
SUNPO
 62
   144
100
AcDbLine
 10
1742.5
 20
3235.0
 30
0.0
 11
1792.5
 21
3235.0
 31
0.0
  0
LINE
  5
18E1
330
1F
100
AcDbEntity
  8
SUNPO
 62
   144
100
AcDbLine
 10
1617.5
 20
3235.0
 30
0.0
 11
1692.5
 21
3235.0
 31
0.0
  0
SOLID
  5
18E2
330
1F
100
AcDbEntity
  8
SUNPO
 62
   144
100
AcDbTrace
 10
1567.5
 20
3243.333333333334
 30
0.0
 11
1567.5
 21
3226.666666666666
 31
0.0
 12
1617.5
 22
3235.0
 32
0.0
 13
1617.5
 23
3235.0
 33
0.0
  0
SOLID
  5
18E3
330
1F
100
AcDbEntity
  8
SUNPO
 62
   144
100
AcDbTrace
 10
1742.5
 20
3243.333333333334
 30
0.0
 11
1742.5
 21
3226.666666666666
 31
0.0
 12
1692.5
 22
3235.0
 32
0.0
 13
1692.5
 23
3235.0
 33
0.0
  0
LINE
  5
18E5
330
1F
100
AcDbEntity
  8
SUNPO
 62
   144
100
AcDbLine
 10
1530.0
 20
3070.0
 30
0.0
 11
1240.0
 21
3070.0
 31
0.0
  0
LINE
  5
18E6
330
1F
100
AcDbEntity
  8
SUNPO
 62
   144
100
AcDbLine
 10
1530.0
 20
3060.0
 30
0.0
 11
1240.0
 21
3060.0
 31
0.0
  0
LINE
  5
18E7
330
1F
100
AcDbEntity
  8
SUNPO
 62
   144
100
AcDbLine
 10
1250.0
 20
3120.0
 30
0.0
 11
1250.0
 21
3170.0
 31
0.0
  0
LINE
  5
18E8
330
1F
100
AcDbEntity
  8
SUNPO
 62
   144
100
AcDbLine
 10
1250.0
 20
3010.0
 30
0.0
 11
1250.0
 21
2960.0
 31
0.0
  0
LINE
  5
18E9
330
1F
100
AcDbEntity
  8
SUNPO
 62
   144
100
AcDbLine
 10
1250.0
 20
3070.0
 30
0.0
 11
1250.0
 21
3060.0
 31
0.0
  0
SOLID
  5
18EA
330
1F
100
AcDbEntity
  8
SUNPO
 62
   144
100
AcDbTrace
 10
1241.666666666666
 20
3120.0
 30
0.0
 11
1258.333333333333
 21
3120.0
 31
0.0
 12
1250.0
 22
3070.0
 32
0.0
 13
1250.0
 23
3070.0
 33
0.0
  0
SOLID
  5
18EB
330
1F
100
AcDbEntity
  8
SUNPO
 62
   144
100
AcDbTrace
 10
1241.666666666666
 20
3010.0
 30
0.0
 11
1258.333333333333
 21
3010.0
 31
0.0
 12
1250.0
 22
3060.0
 32
0.0
 13
1250.0
 23
3060.0
 33
0.0
  0
LINE
  5
18ED
330
1F
100
AcDbEntity
  8
SUNPO
 62
   144
100
AcDbLine
 10
1530.0
 20
3150.0
 30
0.0
 11
1390.0
 21
3150.0
 31
0.0
  0
LINE
  5
18EE
330
1F
100
AcDbEntity
  8
SUNPO
 62
   144
100
AcDbLine
 10
1530.0
 20
3070.0
 30
0.0
 11
1390.0
 21
3070.0
 31
0.0
  0
LINE
  5
18EF
330
1F
100
AcDbEntity
  8
SUNPO
 62
   144
100
AcDbLine
 10
1400.0
 20
3200.0
 30
0.0
 11
1400.0
 21
3250.0
 31
0.0
  0
LINE
  5
18F0
330
1F
100
AcDbEntity
  8
SUNPO
 62
   144
100
AcDbLine
 10
1400.0
 20
3020.0
 30
0.0
 11
1400.0
 21
2970.0
 31
0.0
  0
LINE
  5
18F1
330
1F
100
AcDbEntity
  8
SUNPO
 62
   144
100
AcDbLine
 10
1400.0
 20
3150.0
 30
0.0
 11
1400.0
 21
3070.0
 31
0.0
  0
SOLID
  5
18F2
330
1F
100
AcDbEntity
  8
SUNPO
 62
   144
100
AcDbTrace
 10
1391.666666666666
 20
3200.0
 30
0.0
 11
1408.333333333333
 21
3200.0
 31
0.0
 12
1400.0
 22
3150.0
 32
0.0
 13
1400.0
 23
3150.0
 33
0.0
  0
SOLID
  5
18F3
330
1F
100
AcDbEntity
  8
SUNPO
 62
   144
100
AcDbTrace
 10
1391.666666666666
 20
3020.0
 30
0.0
 11
1408.333333333333
 21
3020.0
 31
0.0
 12
1400.0
 22
3070.0
 32
0.0
 13
1400.0
 23
3070.0
 33
0.0
  0
LINE
  5
18F5
330
1F
100
AcDbEntity
  8
SUNPO
 62
   144
100
AcDbLine
 10
3130.0
 20
3170.0
 30
0.0
 11
3130.0
 21
3320.0
 31
0.0
  0
LINE
  5
18F6
330
1F
100
AcDbEntity
  8
SUNPO
 62
   144
100
AcDbLine
 10
3730.0
 20
3170.0
 30
0.0
 11
3730.0
 21
3320.0
 31
0.0
  0
LINE
  5
18F7
330
1F
100
AcDbEntity
  8
SUNPO
 62
   144
100
AcDbLine
 10
3180.0
 20
3310.0
 30
0.0
 11
3680.0
 21
3310.0
 31
0.0
  0
SOLID
  5
18F8
330
1F
100
AcDbEntity
  8
SUNPO
 62
   144
100
AcDbTrace
 10
3180.0
 20
3318.333333333333
 30
0.0
 11
3180.0
 21
3301.666666666666
 31
0.0
 12
3130.0
 22
3310.0
 32
0.0
 13
3130.0
 23
3310.0
 33
0.0
  0
SOLID
  5
18F9
330
1F
100
AcDbEntity
  8
SUNPO
 62
   144
100
AcDbTrace
 10
3680.0
 20
3318.333333333333
 30
0.0
 11
3680.0
 21
3301.666666666666
 31
0.0
 12
3730.0
 22
3310.0
 32
0.0
 13
3730.0
 23
3310.0
 33
0.0
  0
LINE
  5
18FB
330
1F
100
AcDbEntity
  8
SUNPO
 62
   144
100
AcDbLine
 10
1820.0
 20
2360.0
 30
0.0
 11
2189.999999999999
 21
2360.0
 31
0.0
  0
LINE
  5
18FC
330
1F
100
AcDbEntity
  8
SUNPO
 62
   144
100
AcDbLine
 10
1820.0
 20
1760.0
 30
0.0
 11
2189.999999999999
 21
1760.0
 31
0.0
  0
LINE
  5
18FD
330
1F
100
AcDbEntity
  8
SUNPO
 62
   144
100
AcDbLine
 10
2179.999999999999
 20
2310.0
 30
0.0
 11
2179.999999999999
 21
1810.0
 31
0.0
  0
SOLID
  5
18FE
330
1F
100
AcDbEntity
  8
SUNPO
 62
   144
100
AcDbTrace
 10
2171.666666666666
 20
2310.0
 30
0.0
 11
2188.333333333333
 21
2310.0
 31
0.0
 12
2179.999999999999
 22
2360.0
 32
0.0
 13
2179.999999999999
 23
2360.0
 33
0.0
  0
SOLID
  5
18FF
330
1F
100
AcDbEntity
  8
SUNPO
 62
   144
100
AcDbTrace
 10
2171.666666666666
 20
1810.0
 30
0.0
 11
2188.333333333333
 21
1810.0
 31
0.0
 12
2179.999999999999
 22
1760.0
 32
0.0
 13
2179.999999999999
 23
1760.0
 33
0.0
  0
LINE
  5
1901
330
1F
100
AcDbEntity
  8
SUNPO
 62
   144
100
AcDbLine
 10
1820.0
 20
3150.0
 30
0.0
 11
2190.0
 21
3150.0
 31
0.0
  0
LINE
  5
1902
330
1F
100
AcDbEntity
  8
SUNPO
 62
   144
100
AcDbLine
 10
1820.0
 20
3060.0
 30
0.0
 11
2190.0
 21
3060.0
 31
0.0
  0
LINE
  5
1903
330
1F
100
AcDbEntity
  8
SUNPO
 62
   144
100
AcDbLine
 10
2180.0
 20
3200.0
 30
0.0
 11
2180.0
 21
3250.0
 31
0.0
  0
LINE
  5
1904
330
1F
100
AcDbEntity
  8
SUNPO
 62
   144
100
AcDbLine
 10
2180.0
 20
3010.0
 30
0.0
 11
2180.0
 21
2960.0
 31
0.0
  0
LINE
  5
1905
330
1F
100
AcDbEntity
  8
SUNPO
 62
   144
100
AcDbLine
 10
2180.0
 20
3150.0
 30
0.0
 11
2180.0
 21
3060.0
 31
0.0
  0
SOLID
  5
1906
330
1F
100
AcDbEntity
  8
SUNPO
 62
   144
100
AcDbTrace
 10
2171.666666666666
 20
3200.0
 30
0.0
 11
2188.333333333333
 21
3200.0
 31
0.0
 12
2180.0
 22
3150.0
 32
0.0
 13
2180.0
 23
3150.0
 33
0.0
  0
SOLID
  5
1907
330
1F
100
AcDbEntity
  8
SUNPO
 62
   144
100
AcDbTrace
 10
2171.666666666666
 20
3010.0
 30
0.0
 11
2188.333333333333
 21
3010.0
 31
0.0
 12
2180.0
 22
3060.0
 32
0.0
 13
2180.0
 23
3060.0
 33
0.0
  0
LINE
  5
1909
330
1F
100
AcDbEntity
  8
SUNPO
 62
   144
100
AcDbLine
 10
3750.0
 20
3150.0
 30
0.0
 11
4040.0
 21
3150.0
 31
0.0
  0
LINE
  5
190A
330
1F
100
AcDbEntity
  8
SUNPO
 62
   144
100
AcDbLine
 10
3750.0
 20
3060.0
 30
0.0
 11
4040.0
 21
3060.0
 31
0.0
  0
LINE
  5
190B
330
1F
100
AcDbEntity
  8
SUNPO
 62
   144
100
AcDbLine
 10
4030.0
 20
3200.0
 30
0.0
 11
4030.0
 21
3250.0
 31
0.0
  0
LINE
  5
190C
330
1F
100
AcDbEntity
  8
SUNPO
 62
   144
100
AcDbLine
 10
4030.0
 20
3010.0
 30
0.0
 11
4030.0
 21
2960.0
 31
0.0
  0
LINE
  5
190D
330
1F
100
AcDbEntity
  8
SUNPO
 62
   144
100
AcDbLine
 10
4030.0
 20
3150.0
 30
0.0
 11
4030.0
 21
3060.0
 31
0.0
  0
SOLID
  5
190E
330
1F
100
AcDbEntity
  8
SUNPO
 62
   144
100
AcDbTrace
 10
4021.666666666667
 20
3200.0
 30
0.0
 11
4038.333333333333
 21
3200.0
 31
0.0
 12
4030.0
 22
3150.0
 32
0.0
 13
4030.0
 23
3150.0
 33
0.0
  0
SOLID
  5
190F
330
1F
100
AcDbEntity
  8
SUNPO
 62
   144
100
AcDbTrace
 10
4021.666666666667
 20
3010.0
 30
0.0
 11
4038.333333333333
 21
3010.0
 31
0.0
 12
4030.0
 22
3060.0
 32
0.0
 13
4030.0
 23
3060.0
 33
0.0
  0
LINE
  5
1911
330
1F
100
AcDbEntity
  8
3C1
100
AcDbLine
 10
3130.0
 20
3150.0
 30
0.0
 11
3730.0
 21
3150.0
 31
0.0
  0
LINE
  5
1912
330
1F
100
AcDbEntity
  8
3C1
100
AcDbLine
 10
3730.0
 20
3150.0
 30
0.0
 11
3730.0
 21
3060.0
 31
0.0
  0
LINE
  5
1913
330
1F
100
AcDbEntity
  8
3C1
100
AcDbLine
 10
3730.0
 20
3060.0
 30
0.0
 11
3130.0
 21
3060.0
 31
0.0
  0
LINE
  5
1914
330
1F
100
AcDbEntity
  8
3C1
100
AcDbLine
 10
3130.0
 20
3060.0
 30
0.0
 11
3130.0
 21
3150.0
 31
0.0
  0
LINE
  5
1915
330
1F
100
AcDbEntity
  8
3C1
100
AcDbLine
 10
3130.0
 20
3060.0
 30
0.0
 11
3130.0
 21
3060.0
 31
0.0
  0
LINE
  5
1916
330
1F
100
AcDbEntity
  8
3C1
100
AcDbLine
 10
3130.0
 20
3060.0
 30
0.0
 11
3130.0
 21
3060.0
 31
0.0
  0
LINE
  5
1917
330
1F
100
AcDbEntity
  8
3C1
100
AcDbLine
 10
3130.0
 20
3060.0
 30
0.0
 11
3130.0
 21
3060.0
 31
0.0
  0
LINE
  5
1918
330
1F
100
AcDbEntity
  8
3C1
100
AcDbLine
 10
3130.0
 20
3060.0
 30
0.0
 11
3130.0
 21
3060.0
 31
0.0
  0
TEXT
  5
1919
330
1F
100
AcDbEntity
  8
3C1
100
AcDbText
 10
3246.680311730542
 20
359.2274732162223
 30
0.0
 40
70.0
  1
１／２０
  7
ADD
100
AcDbText
1001
ACAD
1000
MTEXTBEGIN
1070
    73
1070
     1
1070
    44
1040
1.0
1070
    74
1070
     0
1000
MTEXTEND
1000
MTEXTBEGIN
1070
    73
1070
     1
1070
    44
1040
1.0
1070
    74
1070
     0
1000
MTEXTEND
1000
MTEXTBEGIN
1070
    73
1070
     1
1070
    44
1040
1.0
1070
    74
1070
     0
1000
MTEXTEND
1000
MTEXTBEGIN
1070
    73
1070
     1
1070
    44
1040
1.0
1070
    74
1070
     0
1000
MTEXTEND
1000
MTEXTBEGIN
1070
    73
1070
     1
1070
    44
1040
1.0
1070
    74
1070
     0
1000
MTEXTEND
1000
MTEXTBEGIN
1070
    73
1070
     1
1070
    44
1040
1.0
1070
    74
1070
     0
1000
MTEXTEND
1000
MTEXTBEGIN
1070
    73
1070
     1
1070
    44
1040
1.0
1070
    74
1070
     0
1000
MTEXTEND
1000
MTEXTBEGIN
1070
    73
1070
     1
1070
    44
1040
1.0
1070
    74
1070
     0
1000
MTEXTEND
1000
MTEXTBEGIN
1070
    73
1070
     1
1070
    44
1040
1.0
1070
    74
1070
     0
1000
MTEXTEND
1000
MTEXTBEGIN
1070
    73
1070
     1
1070
    44
1040
1.0
1070
    74
1070
     0
1000
MTEXTEND
1000
MTEXTBEGIN
1070
    73
1070
     1
1070
    44
1040
1.0
1070
    74
1070
     0
1000
MTEXTEND
1000
MTEXTBEGIN
1070
    73
1070
     1
1070
    44
1040
1.0
1070
    74
1070
     0
1000
MTEXTEND
1000
MTEXTBEGIN
1070
    73
1070
     1
1070
    44
1040
1.0
1070
    74
1070
     0
1000
MTEXTEND
1000
MTEXTBEGIN
1070
    73
1070
     1
1070
    44
1040
1.0
1070
    74
1070
     0
1000
MTEXTEND
1000
MTEXTBEGIN
1070
    73
1070
     1
1070
    44
1040
1.0
1070
    74
1070
     0
1000
MTEXTEND
  0
TEXT
  5
191A
330
1F
100
AcDbEntity
  8
3C1
100
AcDbText
 10
381.8862574011546
 20
488.6918916770627
 30
0.0
 40
50.0
  1
製品名
  7
ADD
100
AcDbText
1001
ACAD
1000
MTEXTBEGIN
1070
    73
1070
     1
1070
    44
1040
1.0
1070
    74
1070
     0
1000
MTEXTEND
1000
MTEXTBEGIN
1070
    73
1070
     1
1070
    44
1040
1.0
1070
    74
1070
     0
1000
MTEXTEND
1000
MTEXTBEGIN
1070
    73
1070
     1
1070
    44
1040
1.0
1070
    74
1070
     0
1000
MTEXTEND
1000
MTEXTBEGIN
1070
    73
1070
     1
1070
    44
1040
1.0
1070
    74
1070
     0
1000
MTEXTEND
1000
MTEXTBEGIN
1070
    73
1070
     1
1070
    44
1040
1.0
1070
    74
1070
     0
1000
MTEXTEND
1000
MTEXTBEGIN
1070
    73
1070
     1
1070
    44
1040
1.0
1070
    74
1070
     0
1000
MTEXTEND
1000
MTEXTBEGIN
1070
    73
1070
     1
1070
    44
1040
1.0
1070
    74
1070
     0
1000
MTEXTEND
1000
MTEXTBEGIN
1070
    73
1070
     1
1070
    44
1040
1.0
1070
    74
1070
     0
1000
MTEXTEND
1000
MTEXTBEGIN
1070
    73
1070
     1
1070
    44
1040
1.0
1070
    74
1070
     0
1000
MTEXTEND
1000
MTEXTBEGIN
1070
    73
1070
     1
1070
    44
1040
1.0
1070
    74
1070
     0
1000
MTEXTEND
1000
MTEXTBEGIN
1070
    73
1070
     1
1070
    44
1040
1.0
1070
    74
1070
     0
1000
MTEXTEND
1000
MTEXTBEGIN
1070
    73
1070
     1
1070
    44
1040
1.0
1070
    74
1070
     0
1000
MTEXTEND
1000
MTEXTBEGIN
1070
    73
1070
     1
1070
    44
1040
1.0
1070
    74
1070
     0
1000
MTEXTEND
1000
MTEXTBEGIN
1070
    73
1070
     1
1070
    44
1040
1.0
1070
    74
1070
     0
1000
MTEXTEND
1000
MTEXTBEGIN
1070
    73
1070
     1
1070
    44
1040
1.0
1070
    74
1070
     0
1000
MTEXTEND
  0
TEXT
  5
191B
330
1F
100
AcDbEntity
  8
3C1
100
AcDbText
 10
2376.290169028722
 20
494.4531736811823
 30
0.0
 40
50.0
  1
型式
  7
ADD
100
AcDbText
1001
ACAD
1000
MTEXTBEGIN
1070
    73
1070
     1
1070
    44
1040
1.0
1070
    74
1070
     0
1000
MTEXTEND
1000
MTEXTBEGIN
1070
    73
1070
     1
1070
    44
1040
1.0
1070
    74
1070
     0
1000
MTEXTEND
1000
MTEXTBEGIN
1070
    73
1070
     1
1070
    44
1040
1.0
1070
    74
1070
     0
1000
MTEXTEND
1000
MTEXTBEGIN
1070
    73
1070
     1
1070
    44
1040
1.0
1070
    74
1070
     0
1000
MTEXTEND
1000
MTEXTBEGIN
1070
    73
1070
     1
1070
    44
1040
1.0
1070
    74
1070
     0
1000
MTEXTEND
1000
MTEXTBEGIN
1070
    73
1070
     1
1070
    44
1040
1.0
1070
    74
1070
     0
1000
MTEXTEND
1000
MTEXTBEGIN
1070
    73
1070
     1
1070
    44
1040
1.0
1070
    74
1070
     0
1000
MTEXTEND
1000
MTEXTBEGIN
1070
    73
1070
     1
1070
    44
1040
1.0
1070
    74
1070
     0
1000
MTEXTEND
1000
MTEXTBEGIN
1070
    73
1070
     1
1070
    44
1040
1.0
1070
    74
1070
     0
1000
MTEXTEND
1000
MTEXTBEGIN
1070
    73
1070
     1
1070
    44
1040
1.0
1070
    74
1070
     0
1000
MTEXTEND
1000
MTEXTBEGIN
1070
    73
1070
     1
1070
    44
1040
1.0
1070
    74
1070
     0
1000
MTEXTEND
1000
MTEXTBEGIN
1070
    73
1070
     1
1070
    44
1040
1.0
1070
    74
1070
     0
1000
MTEXTEND
1000
MTEXTBEGIN
1070
    73
1070
     1
1070
    44
1040
1.0
1070
    74
1070
     0
1000
MTEXTEND
1000
MTEXTBEGIN
1070
    73
1070
     1
1070
    44
1040
1.0
1070
    74
1070
     0
1000
MTEXTEND
1000
MTEXTBEGIN
1070
    73
1070
     1
1070
    44
1040
1.0
1070
    74
1070
     0
1000
MTEXTEND
  0
TEXT
  5
191C
330
1F
100
AcDbEntity
  8
3C1
100
AcDbText
 10
3177.510249231658
 20
488.6918916770627
 30
0.0
 40
50.0
  1
縮尺
  7
ADD
100
AcDbText
1001
ACAD
1000
MTEXTBEGIN
1070
    73
1070
     1
1070
    44
1040
1.0
1070
    74
1070
     0
1000
MTEXTEND
1000
MTEXTBEGIN
1070
    73
1070
     1
1070
    44
1040
1.0
1070
    74
1070
     0
1000
MTEXTEND
1000
MTEXTBEGIN
1070
    73
1070
     1
1070
    44
1040
1.0
1070
    74
1070
     0
1000
MTEXTEND
1000
MTEXTBEGIN
1070
    73
1070
     1
1070
    44
1040
1.0
1070
    74
1070
     0
1000
MTEXTEND
1000
MTEXTBEGIN
1070
    73
1070
     1
1070
    44
1040
1.0
1070
    74
1070
     0
1000
MTEXTEND
1000
MTEXTBEGIN
1070
    73
1070
     1
1070
    44
1040
1.0
1070
    74
1070
     0
1000
MTEXTEND
1000
MTEXTBEGIN
1070
    73
1070
     1
1070
    44
1040
1.0
1070
    74
1070
     0
1000
MTEXTEND
1000
MTEXTBEGIN
1070
    73
1070
     1
1070
    44
1040
1.0
1070
    74
1070
     0
1000
MTEXTEND
1000
MTEXTBEGIN
1070
    73
1070
     1
1070
    44
1040
1.0
1070
    74
1070
     0
1000
MTEXTEND
1000
MTEXTBEGIN
1070
    73
1070
     1
1070
    44
1040
1.0
1070
    74
1070
     0
1000
MTEXTEND
1000
MTEXTBEGIN
1070
    73
1070
     1
1070
    44
1040
1.0
1070
    74
1070
     0
1000
MTEXTEND
1000
MTEXTBEGIN
1070
    73
1070
     1
1070
    44
1040
1.0
1070
    74
1070
     0
1000
MTEXTEND
1000
MTEXTBEGIN
1070
    73
1070
     1
1070
    44
1040
1.0
1070
    74
1070
     0
1000
MTEXTEND
1000
MTEXTBEGIN
1070
    73
1070
     1
1070
    44
1040
1.0
1070
    74
1070
     0
1000
MTEXTEND
1000
MTEXTBEGIN
1070
    73
1070
     1
1070
    44
1040
1.0
1070
    74
1070
     0
1000
MTEXTEND
  0
TEXT
  5
191D
330
1F
100
AcDbEntity
  8
3C1
100
AcDbText
 10
3730.870883051572
 20
352.2726133092145
 30
0.0
 40
100.0
  1
千葉県コンクリート製品協同組合
  7
ADD
100
AcDbText
1001
ACAD
1000
MTEXTBEGIN
1070
    73
1070
     1
1070
    44
1040
1.0
1070
    74
1070
     0
1000
MTEXTEND
1000
MTEXTBEGIN
1070
    73
1070
     1
1070
    44
1040
1.0
1070
    74
1070
     0
1000
MTEXTEND
1000
MTEXTBEGIN
1070
    73
1070
     1
1070
    44
1040
1.0
1070
    74
1070
     0
1000
MTEXTEND
1000
MTEXTBEGIN
1070
    73
1070
     1
1070
    44
1040
1.0
1070
    74
1070
     0
1000
MTEXTEND
1000
MTEXTBEGIN
1070
    73
1070
     1
1070
    44
1040
1.0
1070
    74
1070
     0
1000
MTEXTEND
1000
MTEXTBEGIN
1070
    73
1070
     1
1070
    44
1040
1.0
1070
    74
1070
     0
1000
MTEXTEND
1000
MTEXTBEGIN
1070
    73
1070
     1
1070
    44
1040
1.0
1070
    74
1070
     0
1000
MTEXTEND
1000
MTEXTBEGIN
1070
    73
1070
     1
1070
    44
1040
1.0
1070
    74
1070
     0
1000
MTEXTEND
1000
MTEXTBEGIN
1070
    73
1070
     1
1070
    44
1040
1.0
1070
    74
1070
     0
1000
MTEXTEND
1000
MTEXTBEGIN
1070
    73
1070
     1
1070
    44
1040
1.0
1070
    74
1070
     0
1000
MTEXTEND
1000
MTEXTBEGIN
1070
    73
1070
     1
1070
    44
1040
1.0
1070
    74
1070
     0
1000
MTEXTEND
1000
MTEXTBEGIN
1070
    73
1070
     1
1070
    44
1040
1.0
1070
    74
1070
     0
1000
MTEXTEND
1000
MTEXTBEGIN
1070
    73
1070
     1
1070
    44
1040
1.0
1070
    74
1070
     0
1000
MTEXTEND
1000
MTEXTBEGIN
1070
    73
1070
     1
1070
    44
1040
1.0
1070
    74
1070
     0
1000
MTEXTEND
1000
MTEXTBEGIN
1070
    73
1070
     1
1070
    44
1040
1.0
1070
    74
1070
     0
1000
MTEXTEND
  0
LINE
  5
191E
330
1F
100
AcDbEntity
  8
HOJO
100
AcDbLine
 10
360.0
 20
260.0
 30
0.0
 11
5580.0
 21
260.0
 31
0.0
  0
LINE
  5
191F
330
1F
100
AcDbEntity
  8
HOJO
100
AcDbLine
 10
5580.0
 20
260.0
 30
0.0
 11
5580.0
 21
3940.0
 31
0.0
  0
LINE
  5
1920
330
1F
100
AcDbEntity
  8
HOJO
100
AcDbLine
 10
5580.0
 20
3940.0
 30
0.0
 11
360.0
 21
3940.0
 31
0.0
  0
LINE
  5
1921
330
1F
100
AcDbEntity
  8
HOJO
100
AcDbLine
 10
360.0
 20
3940.0
 30
0.0
 11
360.0
 21
260.0
 31
0.0
  0
LINE
  5
1922
330
1F
100
AcDbEntity
  8
HOJO
100
AcDbLine
 10
0.0
 20
0.0
 30
0.0
 11
5940.0
 21
0.0
 31
0.0
  0
LINE
  5
1923
330
1F
100
AcDbEntity
  8
HOJO
100
AcDbLine
 10
5940.0
 20
0.0
 30
0.0
 11
5940.0
 21
4200.0
 31
0.0
  0
LINE
  5
1924
330
1F
100
AcDbEntity
  8
HOJO
100
AcDbLine
 10
5940.0
 20
4200.0
 30
0.0
 11
0.0
 21
4200.0
 31
0.0
  0
LINE
  5
1925
330
1F
100
AcDbEntity
  8
HOJO
100
AcDbLine
 10
0.0
 20
4200.0
 30
0.0
 11
0.0
 21
0.0
 31
0.0
  0
TEXT
  5
1926
330
1F
100
AcDbEntity
  8
3C1
 62
     7
100
AcDbText
 10
4092.5
 20
3057.380952380952
 30
0.0
 40
50.0
  1
90
 50
90.0
  7
ADD
100
AcDbText
1001
ACAD
1000
MTEXTBEGIN
1070
    73
1070
     1
1070
    44
1040
1.0
1070
    74
1070
     0
1000
MTEXTEND
1000
MTEXTBEGIN
1070
    73
1070
     1
1070
    44
1040
1.0
1070
    74
1070
     0
1000
MTEXTEND
1000
MTEXTBEGIN
1070
    73
1070
     1
1070
    44
1040
1.0
1070
    74
1070
     0
1000
MTEXTEND
  0
TEXT
  5
1927
330
1F
100
AcDbEntity
  8
3C1
 62
     7
100
AcDbText
 10
2242.499999999999
 20
3057.380952380952
 30
0.0
 40
50.0
  1
90
 50
90.0
  7
ADD
100
AcDbText
1001
ACAD
1000
MTEXTBEGIN
1070
    73
1070
     1
1070
    44
1040
1.0
1070
    74
1070
     0
1000
MTEXTEND
1000
MTEXTBEGIN
1070
    73
1070
     1
1070
    44
1040
1.0
1070
    74
1070
     0
1000
MTEXTEND
1000
MTEXTBEGIN
1070
    73
1070
     1
1070
    44
1040
1.0
1070
    74
1070
     0
1000
MTEXTEND
  0
TEXT
  5
1928
330
1F
100
AcDbEntity
  8
3C1
 62
     7
100
AcDbText
 10
2167.499999999999
 20
1987.380952380953
 30
0.0
 40
50.0
  1
600
 50
90.0
  7
ADD
100
AcDbText
1001
ACAD
1000
MTEXTBEGIN
1070
    73
1070
     1
1070
    44
1040
1.0
1070
    74
1070
     0
1000
MTEXTEND
1000
MTEXTBEGIN
1070
    73
1070
     1
1070
    44
1040
1.0
1070
    74
1070
     0
1000
MTEXTEND
1000
MTEXTBEGIN
1070
    73
1070
     1
1070
    44
1040
1.0
1070
    74
1070
     0
1000
MTEXTEND
1000
MTEXTBEGIN
1070
    73
1070
     1
1070
    44
1040
1.0
1070
    74
1070
     0
1000
MTEXTEND
1000
MTEXTBEGIN
1070
    73
1070
     1
1070
    44
1040
1.0
1070
    74
1070
     0
1000
MTEXTEND
  0
TEXT
  5
1929
330
1F
100
AcDbEntity
  8
3C1
 62
     7
100
AcDbText
 10
3357.380952380952
 20
3322.5
 30
0.0
 40
50.0
  1
600
  7
ADD
100
AcDbText
1001
ACAD
1000
MTEXTBEGIN
1070
    73
1070
     1
1070
    44
1040
1.0
1070
    74
1070
     0
1000
MTEXTEND
1000
MTEXTBEGIN
1070
    73
1070
     1
1070
    44
1040
1.0
1070
    74
1070
     0
1000
MTEXTEND
1000
MTEXTBEGIN
1070
    73
1070
     1
1070
    44
1040
1.0
1070
    74
1070
     0
1000
MTEXTEND
1000
MTEXTBEGIN
1070
    73
1070
     1
1070
    44
1040
1.0
1070
    74
1070
     0
1000
MTEXTEND
  0
TEXT
  5
192A
330
1F
100
AcDbEntity
  8
3C1
 62
     7
100
AcDbText
 10
1387.499999999999
 20
3062.380952380952
 30
0.0
 40
50.0
  1
80
 50
90.0
  7
ADD
100
AcDbText
1001
ACAD
1000
MTEXTBEGIN
1070
    73
1070
     1
1070
    44
1040
1.0
1070
    74
1070
     0
1000
MTEXTEND
1000
MTEXTBEGIN
1070
    73
1070
     1
1070
    44
1040
1.0
1070
    74
1070
     0
1000
MTEXTEND
1000
MTEXTBEGIN
1070
    73
1070
     1
1070
    44
1040
1.0
1070
    74
1070
     0
1000
MTEXTEND
1000
MTEXTBEGIN
1070
    73
1070
     1
1070
    44
1040
1.0
1070
    74
1070
     0
1000
MTEXTEND
  0
TEXT
  5
192B
330
1F
100
AcDbEntity
  8
3C1
 62
     7
100
AcDbText
 10
1237.499999999999
 20
3013.809523809524
 30
0.0
 40
50.0
  1
10
 50
90.0
  7
ADD
100
AcDbText
1001
ACAD
1000
MTEXTBEGIN
1070
    73
1070
     1
1070
    44
1040
1.0
1070
    74
1070
     0
1000
MTEXTEND
1000
MTEXTBEGIN
1070
    73
1070
     1
1070
    44
1040
1.0
1070
    74
1070
     0
1000
MTEXTEND
1000
MTEXTBEGIN
1070
    73
1070
     1
1070
    44
1040
1.0
1070
    74
1070
     0
1000
MTEXTEND
1000
MTEXTBEGIN
1070
    73
1070
     1
1070
    44
1040
1.0
1070
    74
1070
     0
1000
MTEXTEND
  0
TEXT
  5
192C
330
1F
100
AcDbEntity
  8
3C1
 62
     7
100
AcDbText
 10
1607.380952380952
 20
3247.5
 30
0.0
 40
50.0
  1
75
  7
ADD
100
AcDbText
1001
ACAD
1000
MTEXTBEGIN
1070
    73
1070
     1
1070
    44
1040
1.0
1070
    74
1070
     0
1000
MTEXTEND
1000
MTEXTBEGIN
1070
    73
1070
     1
1070
    44
1040
1.0
1070
    74
1070
     0
1000
MTEXTEND
  0
TEXT
  5
192D
330
1F
100
AcDbEntity
  8
3C1
 62
     7
100
AcDbText
 10
1583.571428571428
 20
3322.5
 30
0.0
 40
50.0
  1
210
  7
ADD
100
AcDbText
1001
ACAD
1000
MTEXTBEGIN
1070
    73
1070
     1
1070
    44
1040
1.0
1070
    74
1070
     0
1000
MTEXTEND
1000
MTEXTBEGIN
1070
    73
1070
     1
1070
    44
1040
1.0
1070
    74
1070
     0
1000
MTEXTEND
  0
TEXT
  5
192E
330
1F
100
AcDbEntity
  8
3C1
 62
     7
100
AcDbText
 10
1519.880952380952
 20
2827.5
 30
0.0
 40
50.0
  1
35
  7
ADD
100
AcDbText
1001
ACAD
1000
MTEXTBEGIN
1070
    73
1070
     1
1070
    44
1040
1.0
1070
    74
1070
     0
1000
MTEXTEND
1000
MTEXTBEGIN
1070
    73
1070
     1
1070
    44
1040
1.0
1070
    74
1070
     0
1000
MTEXTEND
  0
TEXT
  5
192F
330
1F
100
AcDbEntity
  8
3C1
 62
     7
100
AcDbText
 10
1694.880952380952
 20
2827.5
 30
0.0
 40
50.0
  1
35
  7
ADD
100
AcDbText
1001
ACAD
1000
MTEXTBEGIN
1070
    73
1070
     1
1070
    44
1040
1.0
1070
    74
1070
     0
1000
MTEXTEND
1000
MTEXTBEGIN
1070
    73
1070
     1
1070
    44
1040
1.0
1070
    74
1070
     0
1000
MTEXTEND
  0
TEXT
  5
1930
330
1F
100
AcDbEntity
  8
3C1
 62
     7
100
AcDbText
 10
1607.380952380952
 20
2522.5
 30
0.0
 40
50.0
  1
75
  7
ADD
100
AcDbText
1001
ACAD
1000
MTEXTBEGIN
1070
    73
1070
     1
1070
    44
1040
1.0
1070
    74
1070
     0
1000
MTEXTEND
1000
MTEXTBEGIN
1070
    73
1070
     1
1070
    44
1040
1.0
1070
    74
1070
     0
1000
MTEXTEND
  0
TEXT
  5
1931
330
1F
100
AcDbEntity
  8
3C1
 62
     7
100
AcDbText
 10
1607.380952380952
 20
1547.5
 30
0.0
 40
50.0
  1
75
  7
ADD
100
AcDbText
1001
ACAD
1000
MTEXTBEGIN
1070
    73
1070
     1
1070
    44
1040
1.0
1070
    74
1070
     0
1000
MTEXTEND
1000
MTEXTBEGIN
1070
    73
1070
     1
1070
    44
1040
1.0
1070
    74
1070
     0
1000
MTEXTEND
  0
VIEWPORT
  5
72
330
1B
100
AcDbEntity
 67
     1
  8
0
100
AcDbViewport
 10
429.8380103383459
 20
277.0
 30
0.0
 40
948.9782706766918
 41
628.4520000000001
 68
     1
 69
     1
1001
ACAD
1000
MVIEW
1002
{
1070
    16
1010
0.0
1020
0.0
1030
0.0
1010
0.0
1020
0.0
1030
1.0
1040
0.0
1040
628.4520000000001
1040
429.8380103383459
1040
277.0
1040
50.0
1040
0.0
1040
0.0
1070
     0
1070
   100
1070
     1
1070
     1
1070
     0
1070
     0
1070
     0
1070
     0
1040
0.0
1040
0.0
1040
0.0
1040
10.0
1040
10.0
1040
10.0
1040
10.0
1070
     0
1002
{
1002
}
1002
}
  0
VIEWPORT
  5
74
330
1B
100
AcDbEntity
 67
     1
  8
VIEWPORT
100
AcDbViewport
 10
414.3779638919211
 20
277.3177265058034
 30
0.0
 40
840.0353682728887
 41
567.2285469943826
 68
     2
 69
     2
1001
ACAD
1000
MVIEW
1002
{
1070
    16
1010
0.0
1020
0.0
1030
0.0
1010
0.0
1020
0.0
1030
1.0
1040
0.0
1040
579.5583043546323
1040
424.4938908624541
1040
286.1973242720074
1040
50.0
1040
0.0
1040
0.0
1070
     0
1070
   100
1070
     1
1070
     1
1070
     0
1070
     0
1070
     0
1070
     0
1040
0.0
1040
0.0
1040
0.0
1040
10.0
1040
10.0
1040
10.0
1040
10.0
1070
     0
1002
{
1002
}
1002
}
  0
ENDSEC
  0
SECTION
  2
OBJECTS
  0
DICTIONARY
  5
C
330
0
100
AcDbDictionary
  3
ACAD_GROUP
350
D
  3
ACAD_LAYOUT
350
1A
  3
ACAD_MLINESTYLE
350
17
  3
ACAD_PLOTSETTINGS
350
19
  3
DWGPROPS
350
4C7
1001
ACAD
1000
TREAT_AS_HARD
1070
     0
  0
DICTIONARY
  5
65D
330
1F
100
AcDbDictionary
  3
ACAD_LAYOUTSELFREF
350
1934
1001
ACAD
1000
TREAT_AS_HARD
1070
     1
  0
DICTIONARY
  5
65F
330
1B
100
AcDbDictionary
  3
ACAD_LAYOUTSELFREF
350
1933
1001
ACAD
1000
TREAT_AS_HARD
1070
     1
  0
DICTIONARY
  5
D
102
{ACAD_REACTORS
330
C
102
}
330
C
100
AcDbDictionary
1001
ACAD
1000
TREAT_AS_HARD
1070
     0
  0
DICTIONARY
  5
1A
102
{ACAD_REACTORS
330
C
102
}
330
C
100
AcDbDictionary
1001
ACAD
1000
TREAT_AS_HARD
1070
     0
  0
DICTIONARY
  5
17
102
{ACAD_REACTORS
330
C
102
}
330
C
100
AcDbDictionary
  3
STANDARD
350
18
1001
ACAD
1000
TREAT_AS_HARD
1070
     0
  0
DICTIONARY
  5
19
102
{ACAD_REACTORS
330
C
102
}
330
C
100
AcDbDictionary
1001
ACAD
1000
TREAT_AS_HARD
1070
     0
  0
XRECORD
  5
4C7
102
{ACAD_REACTORS
330
C
102
}
330
C
100
AcDbXrecord
  1
DWGPROPS COOKIE
  2
印刷用テスト
  3
AutoCAD2000による建築設計
  4
鈴木 裕二
  6

  7

  8
U2
  9

300
=
301
=
302
=
303
=
304
=
305
=
306
=
307
=
308
=
309
=
 40
0.7653446875
 41
2451285.4846114
 42
2451333.689743032
  1

 90
        0
  0
XRECORD
  5
1934
102
{ACAD_REACTORS
330
65D
102
}
330
65D
100
AcDbXrecord
340
1F
  0
XRECORD
  5
1933
102
{ACAD_REACTORS
330
65F
102
}
330
65F
100
AcDbXrecord
340
1B
  0
MLINESTYLE
  5
18
102
{ACAD_REACTORS
330
17
102
}
330
17
100
AcDbMlineStyle
  2
STANDARD
 70
     0
  3

 62
   256
 51
90.0
 52
90.0
 71
     2
 49
0.5
 62
   256
  6
BYLAYER
 49
-0.5
 62
   256
  6
BYLAYER
  0
ENDSEC
  0
EOF
